ISO-10303-21;
HEADER;
FILE_DESCRIPTION(('STEP'), '1');
FILE_NAME('C:\\Users\\ds2002\\OneDrive - Sandvik\\HomeShare\\Documents\\Batchrepair\\CorSRT2\\NEW_MILSQ_SLD\\Output\\MOD000000000000000020082278300000.stp', '2019-01-02T12:11:28', (''), (''), 'Express v3.0.0.0', 'Express Tool', 'Unknown');
FILE_SCHEMA(('AUTOMOTIVE_DESIGN'));
ENDSEC;

DATA;
#1 = MANIFOLD_SOLID_BREP('NOCUT', #2);
#2 = CLOSED_SHELL('', (#3, #50, #59, #98));
#3 = ADVANCED_FACE('', (#4), #31, .T.);
#4 = FACE_OUTER_BOUND('', #5, .T.);
#5 = EDGE_LOOP('', (#6, #16, #23, #24));
#6 = ORIENTED_EDGE('', *, *, #7, .T.);
#7 = EDGE_CURVE('', #8, #10, #12, .T.);
#8 = VERTEX_POINT('', #9);
#9 = CARTESIAN_POINT('', (-1.5875, 1.06926973650553E-16, -0.158750000000001));
#10 = VERTEX_POINT('', #11);
#11 = CARTESIAN_POINT('', (-1.42875, 8.7485705714089E-17, 0.));
#12 = LINE('', #13, #14);
#13 = CARTESIAN_POINT('', (-1.5875, 1.06926973650553E-16, -0.158750000000001));
#14 = VECTOR('', #15, 0.22450640302673);
#15 = DIRECTION('', (0.15875, -1.94412679364639E-17, 0.158750000000001));
#16 = ORIENTED_EDGE('', *, *, #17, .T.);
#17 = EDGE_CURVE('', #10, #10, #18, .T.);
#18 = CIRCLE('', #19, 1.42875);
#19 = AXIS2_PLACEMENT_3D('', #20, #21, #22);
#20 = CARTESIAN_POINT('', (-1.73472347597681E-16, -3.33066907387547E-16, -2.46519032881566E-32));
#21 = DIRECTION('', (7.69565905331277E-34, 6.12323399573676E-17, -1.));
#22 = DIRECTION('', (-1., 2.94350035416718E-16, 1.72541755297684E-32));
#23 = ORIENTED_EDGE('', *, *, #7, .F.);
#24 = ORIENTED_EDGE('', *, *, #25, .F.);
#25 = EDGE_CURVE('', #8, #8, #26, .T.);
#26 = CIRCLE('', #27, 1.5875);
#27 = AXIS2_PLACEMENT_3D('', #28, #29, #30);
#28 = CARTESIAN_POINT('', (7.14706072102445E-16, -3.88578058618805E-15, -0.158750000000001));
#29 = DIRECTION('', (0., 0., -1.));
#30 = DIRECTION('', (-1., 2.27016201644681E-15, 0.));
#31 = (
   BOUNDED_SURFACE ()
   B_SPLINE_SURFACE (1, 2, ((#32, #33, #34, #35, #36, #37, #38, #39, #40), (#41, #42, #43, #44, #45, #46, #47, #48, #49)), .UNSPECIFIED., .F., .T., .U.)
   B_SPLINE_SURFACE_WITH_KNOTS ((2, 2), (3, 2, 2, 2, 3), (0., 1.), (0., 0.25, 0.5, 0.75, 1.), .UNSPECIFIED.)
   GEOMETRIC_REPRESENTATION_ITEM ()
   RATIONAL_B_SPLINE_SURFACE (((1., 0.707106781186548, 1., 0.707106781186548, 1., 0.707106781186548, 1., 0.707106781186548, 1.), (1., 0.707106781186548, 1., 0.707106781186548, 1., 0.707106781186548, 1., 0.707106781186548, 1.)))
   REPRESENTATION_ITEM ('')
   SURFACE ()
);
#32 = CARTESIAN_POINT('', (-1.5875, -3.43798917321561E-16, -0.158750000000001));
#33 = CARTESIAN_POINT('', (-1.5875, 1.5875, -0.158750000000006));
#34 = CARTESIAN_POINT('', (8.70445690834584E-16, 1.5875, -0.158750000000006));
#35 = CARTESIAN_POINT('', (1.5875, 1.5875, -0.158750000000006));
#36 = CARTESIAN_POINT('', (1.5875, -9.60589486557758E-16, -0.158750000000001));
#37 = CARTESIAN_POINT('', (1.5875, -1.5875, -0.158749999999996));
#38 = CARTESIAN_POINT('', (4.48067800963029E-16, -1.5875, -0.158749999999996));
#39 = CARTESIAN_POINT('', (-1.5875, -1.5875, -0.158749999999996));
#40 = CARTESIAN_POINT('', (-1.5875, -3.43798917321561E-16, -0.158750000000001));
#41 = CARTESIAN_POINT('', (-1.42875, 8.7485705714089E-17, -5.47382212626882E-48));
#42 = CARTESIAN_POINT('', (-1.42875, 1.42875, -4.2466030691912E-15));
#43 = CARTESIAN_POINT('', (8.39606162372775E-16, 1.42875, -4.2466030691912E-15));
#44 = CARTESIAN_POINT('', (1.42875, 1.42875, -4.2466030691912E-15));
#45 = CARTESIAN_POINT('', (1.42875, -4.67625806598489E-16, -5.69362692169746E-31));
#46 = CARTESIAN_POINT('', (1.42875, -1.42875, 4.2466030691912E-15));
#47 = CARTESIAN_POINT('', (4.59466061488375E-16, -1.42875, 4.2466030691912E-15));
#48 = CARTESIAN_POINT('', (-1.42875, -1.42875, 4.2466030691912E-15));
#49 = CARTESIAN_POINT('', (-1.42875, 8.7485705714089E-17, -5.47382212626882E-48));
#50 = ADVANCED_FACE('', (#51), #54, .T.);
#51 = FACE_OUTER_BOUND('', #52, .T.);
#52 = EDGE_LOOP('', (#53));
#53 = ORIENTED_EDGE('', *, *, #17, .F.);
#54 = B_SPLINE_SURFACE_WITH_KNOTS('', 1, 1, ((#55, #56), (#57, #58)), .UNSPECIFIED., .F., .F., .U., (2, 2), (2, 2), (0.79386338996462, 3.65136338996462), (0.79386338996462, 3.65136338996462), .UNSPECIFIED.);
#55 = CARTESIAN_POINT('', (1.42875, -1.42875, 3.46522797308641E-15));
#56 = CARTESIAN_POINT('', (-1.42875, -1.42875, -3.64019938451458E-15));
#57 = CARTESIAN_POINT('', (1.42875, 1.42875, 3.64019938451458E-15));
#58 = CARTESIAN_POINT('', (-1.42875, 1.42875, -3.4652279730864E-15));
#59 = ADVANCED_FACE('', (#60), #79, .T.);
#60 = FACE_OUTER_BOUND('', #61, .T.);
#61 = EDGE_LOOP('', (#62, #71, #77, #78));
#62 = ORIENTED_EDGE('', *, *, #63, .F.);
#63 = EDGE_CURVE('', #64, #64, #66, .T.);
#64 = VERTEX_POINT('', #65);
#65 = CARTESIAN_POINT('', (-1.5875, 2.43015849205803E-15, -38.1));
#66 = CIRCLE('', #67, 1.5875);
#67 = AXIS2_PLACEMENT_3D('', #68, #69, #70);
#68 = CARTESIAN_POINT('', (-6.08540995372664E-15, 1.02695629777827E-14, -38.1));
#69 = DIRECTION('', (0., 0., -1.));
#70 = DIRECTION('', (-1., -4.9382075500628E-15, 0.));
#71 = ORIENTED_EDGE('', *, *, #72, .T.);
#72 = EDGE_CURVE('', #64, #8, #73, .T.);
#73 = LINE('', #74, #75);
#74 = CARTESIAN_POINT('', (-1.5875, 2.43015849205803E-15, -38.1));
#75 = VECTOR('', #76, 37.94125);
#76 = DIRECTION('', (0., -2.32323151840748E-15, 37.94125));
#77 = ORIENTED_EDGE('', *, *, #25, .T.);
#78 = ORIENTED_EDGE('', *, *, #72, .F.);
#79 = (
   BOUNDED_SURFACE ()
   B_SPLINE_SURFACE (1, 2, ((#80, #81, #82, #83, #84, #85, #86, #87, #88), (#89, #90, #91, #92, #93, #94, #95, #96, #97)), .UNSPECIFIED., .F., .T., .U.)
   B_SPLINE_SURFACE_WITH_KNOTS ((2, 2), (3, 2, 2, 2, 3), (-0.468243602766894, 1.), (0., 0.25, 0.5, 0.75, 1.), .UNSPECIFIED.)
   GEOMETRIC_REPRESENTATION_ITEM ()
   RATIONAL_B_SPLINE_SURFACE (((1., 0.707106781186548, 1., 0.707106781186548, 1., 0.707106781186548, 1., 0.707106781186548, 1.), (1., 0.707106781186548, 1., 0.707106781186548, 1., 0.707106781186548, 1., 0.707106781186548, 1.)))
   REPRESENTATION_ITEM ('')
   SURFACE ()
);
#80 = CARTESIAN_POINT('', (-1.5875, 1.16163884704445E-15, -38.1));
#81 = CARTESIAN_POINT('', (-1.5875, 1.5875, -38.1));
#82 = CARTESIAN_POINT('', (-8.92335573539708E-16, 1.5875, -38.1));
#83 = CARTESIAN_POINT('', (1.5875, 1.5875, -38.1));
#84 = CARTESIAN_POINT('', (1.5875, 2.91855441850824E-15, -38.1));
#85 = CARTESIAN_POINT('', (1.5875, -1.5875, -38.1));
#86 = CARTESIAN_POINT('', (1.05899267728872E-15, -1.5875, -38.1));
#87 = CARTESIAN_POINT('', (-1.5875, -1.5875, -38.1));
#88 = CARTESIAN_POINT('', (-1.5875, 1.16163884704445E-15, -38.1));
#89 = CARTESIAN_POINT('', (-1.5875, 1.06926973650553E-16, -0.158750000000001));
#90 = CARTESIAN_POINT('', (-1.5875, 1.5875, -0.158750000000001));
#91 = CARTESIAN_POINT('', (-8.92335573539708E-16, 1.5875, -0.158750000000001));
#92 = CARTESIAN_POINT('', (1.5875, 1.5875, -0.158750000000001));
#93 = CARTESIAN_POINT('', (1.5875, 1.86384254511434E-15, -0.158750000000001));
#94 = CARTESIAN_POINT('', (1.5875, -1.5875, -0.158750000000001));
#95 = CARTESIAN_POINT('', (1.05899267728872E-15, -1.5875, -0.158750000000001));
#96 = CARTESIAN_POINT('', (-1.5875, -1.5875, -0.158750000000001));
#97 = CARTESIAN_POINT('', (-1.5875, 1.06926973650553E-16, -0.158750000000001));
#98 = ADVANCED_FACE('', (#99), #102, .T.);
#99 = FACE_OUTER_BOUND('', #100, .T.);
#100 = EDGE_LOOP('', (#101));
#101 = ORIENTED_EDGE('', *, *, #63, .T.);
#102 = B_SPLINE_SURFACE_WITH_KNOTS('', 1, 1, ((#103, #104), (#105, #106)), .UNSPECIFIED., .F., .F., .U., (2, 2), (2, 2), (50.204306853388, 53.379306853388), (48.6168049783882, 51.7918049783882), .UNSPECIFIED.);
#103 = CARTESIAN_POINT('', (-1.5875, 1.5875, -38.1));
#104 = CARTESIAN_POINT('', (-1.5875, -1.58749999999999, -38.1));
#105 = CARTESIAN_POINT('', (1.5875, 1.5875, -38.1));
#106 = CARTESIAN_POINT('', (1.5875, -1.58749999999999, -38.1));
#107 = DRAUGHTING_MODEL('', (#115, #229, #276, #281, #286, #291, #296, #301), #315);
#108 = PRESENTATION_STYLE_ASSIGNMENT((#109));
#109 = SURFACE_STYLE_USAGE(.POSITIVE., #110);
#110 = SURFACE_SIDE_STYLE('', (#111));
#111 = SURFACE_STYLE_FILL_AREA(#112);
#112 = FILL_AREA_STYLE('', (#113));
#113 = FILL_AREA_STYLE_COLOUR('', #114);
#114 = COLOUR_RGB('', 0.50196078431373, 0.50196078431373, 0.50196078431373);
#115 = STYLED_ITEM('', (#108), #1);
#116 = MANIFOLD_SOLID_BREP('CUT', #117);
#117 = CLOSED_SHELL('', (#118, #135, #174, #213));
#118 = ADVANCED_FACE('', (#119), #130, .T.);
#119 = FACE_OUTER_BOUND('', #120, .T.);
#120 = EDGE_LOOP('', (#121));
#121 = ORIENTED_EDGE('', *, *, #122, .F.);
#122 = EDGE_CURVE('', #123, #123, #125, .T.);
#123 = VERTEX_POINT('', #124);
#124 = CARTESIAN_POINT('', (-1.5875, 2.43015849205803E-15, -38.1));
#125 = CIRCLE('', #126, 1.5875);
#126 = AXIS2_PLACEMENT_3D('', #127, #128, #129);
#127 = CARTESIAN_POINT('', (-6.08540995372664E-15, 1.02695629777827E-14, -38.1));
#128 = DIRECTION('', (0., 0., -1.));
#129 = DIRECTION('', (-1., -4.9382075500628E-15, 0.));
#130 = B_SPLINE_SURFACE_WITH_KNOTS('', 1, 1, ((#131, #132), (#133, #134)), .UNSPECIFIED., .F., .F., .U., (2, 2), (2, 2), (48.6168049783882, 51.7918049783882), (50.204306853388, 53.379306853388), .UNSPECIFIED.);
#131 = CARTESIAN_POINT('', (-1.5875, 1.5875, -38.1));
#132 = CARTESIAN_POINT('', (1.5875, 1.5875, -38.1));
#133 = CARTESIAN_POINT('', (-1.5875, -1.58749999999999, -38.1));
#134 = CARTESIAN_POINT('', (1.5875, -1.58749999999999, -38.1));
#135 = ADVANCED_FACE('', (#136), #155, .T.);
#136 = FACE_OUTER_BOUND('', #137, .T.);
#137 = EDGE_LOOP('', (#138, #139, #147, #154));
#138 = ORIENTED_EDGE('', *, *, #122, .T.);
#139 = ORIENTED_EDGE('', *, *, #140, .F.);
#140 = EDGE_CURVE('', #141, #123, #143, .T.);
#141 = VERTEX_POINT('', #142);
#142 = CARTESIAN_POINT('', (-1.5875, 3.20156351084095E-15, -50.698));
#143 = LINE('', #144, #145);
#144 = CARTESIAN_POINT('', (-1.5875, 3.20156351084095E-15, -50.698));
#145 = VECTOR('', #146, 12.598);
#146 = DIRECTION('', (0., -7.7140501878292E-16, 12.598));
#147 = ORIENTED_EDGE('', *, *, #148, .F.);
#148 = EDGE_CURVE('', #141, #141, #149, .T.);
#149 = CIRCLE('', #150, 1.5875);
#150 = AXIS2_PLACEMENT_3D('', #151, #152, #153);
#151 = CARTESIAN_POINT('', (1.09634523681734E-15, 1.36002320516582E-15, -50.698));
#152 = DIRECTION('', (0., 0., -1.));
#153 = DIRECTION('', (-1., 1.16002538940166E-15, 0.));
#154 = ORIENTED_EDGE('', *, *, #140, .T.);
#155 = (
   BOUNDED_SURFACE ()
   B_SPLINE_SURFACE (1, 2, ((#156, #157, #158, #159, #160, #161, #162, #163, #164), (#165, #166, #167, #168, #169, #170, #171, #172, #173)), .UNSPECIFIED., .F., .T., .U.)
   B_SPLINE_SURFACE_WITH_KNOTS ((2, 2), (3, 2, 2, 2, 3), (-0.955758719102211, -0.468243602766894), (0., 0.25, 0.5, 0.75, 1.), .UNSPECIFIED.)
   GEOMETRIC_REPRESENTATION_ITEM ()
   RATIONAL_B_SPLINE_SURFACE (((1., 0.707106781186548, 1., 0.707106781186548, 1., 0.707106781186548, 1., 0.707106781186548, 1.), (1., 0.707106781186548, 1., 0.707106781186548, 1., 0.707106781186548, 1., 0.707106781186548, 1.)))
   REPRESENTATION_ITEM ('')
   SURFACE ()
);
#156 = CARTESIAN_POINT('', (-1.5875, 2.65220309698306E-15, -50.698));
#157 = CARTESIAN_POINT('', (-1.5875, 1.5875, -50.698));
#158 = CARTESIAN_POINT('', (6.81495403245788E-16, 1.5875, -50.698));
#159 = CARTESIAN_POINT('', (1.5875, 1.5875, -50.698));
#160 = CARTESIAN_POINT('', (1.5875, 1.87207937841969E-15, -50.698));
#161 = CARTESIAN_POINT('', (1.5875, -1.5875, -50.698));
#162 = CARTESIAN_POINT('', (9.57843640470611E-17, -1.5875, -50.698));
#163 = CARTESIAN_POINT('', (-1.5875, -1.5875, -50.698));
#164 = CARTESIAN_POINT('', (-1.5875, 2.65220309698306E-15, -50.698));
#165 = CARTESIAN_POINT('', (-1.5875, 2.43015849205803E-15, -38.1));
#166 = CARTESIAN_POINT('', (-1.5875, 1.5875, -38.1));
#167 = CARTESIAN_POINT('', (6.81495403245788E-16, 1.5875, -38.1));
#168 = CARTESIAN_POINT('', (1.5875, 1.5875, -38.1));
#169 = CARTESIAN_POINT('', (1.5875, 1.65003477349466E-15, -38.1));
#170 = CARTESIAN_POINT('', (1.5875, -1.5875, -38.1));
#171 = CARTESIAN_POINT('', (9.57843640470611E-17, -1.5875, -38.1));
#172 = CARTESIAN_POINT('', (-1.5875, -1.5875, -38.1));
#173 = CARTESIAN_POINT('', (-1.5875, 2.43015849205803E-15, -38.1));
#174 = ADVANCED_FACE('', (#175), #194, .T.);
#175 = FACE_OUTER_BOUND('', #176, .T.);
#176 = EDGE_LOOP('', (#177, #185, #186, #187));
#177 = ORIENTED_EDGE('', *, *, #178, .F.);
#178 = EDGE_CURVE('', #141, #179, #181, .T.);
#179 = VERTEX_POINT('', #180);
#180 = CARTESIAN_POINT('', (-1.4855, 3.20156351084095E-15, -50.8));
#181 = LINE('', #182, #183);
#182 = CARTESIAN_POINT('', (-1.5875, 3.20156351084095E-15, -50.698));
#183 = VECTOR('', #184, 0.144249783362053);
#184 = DIRECTION('', (0.102, 0., -0.101999999999997));
#185 = ORIENTED_EDGE('', *, *, #148, .T.);
#186 = ORIENTED_EDGE('', *, *, #178, .T.);
#187 = ORIENTED_EDGE('', *, *, #188, .F.);
#188 = EDGE_CURVE('', #179, #179, #189, .T.);
#189 = CIRCLE('', #190, 1.4855);
#190 = AXIS2_PLACEMENT_3D('', #191, #192, #193);
#191 = CARTESIAN_POINT('', (3.12250225675825E-16, 1.55431223447522E-15, -50.8));
#192 = DIRECTION('', (0., 0., -1.));
#193 = DIRECTION('', (-1., 1.10888675622062E-15, 0.));
#194 = (
   BOUNDED_SURFACE ()
   B_SPLINE_SURFACE (2, 1, ((#195, #196), (#197, #198), (#199, #200), (#201, #202), (#203, #204), (#205, #206), (#207, #208), (#209, #210), (#211, #212)), .UNSPECIFIED., .T., .F., .U.)
   B_SPLINE_SURFACE_WITH_KNOTS ((3, 2, 2, 2, 3), (2, 2), (0., 0.25, 0.5, 0.75, 1.), (0., 1.), .UNSPECIFIED.)
   GEOMETRIC_REPRESENTATION_ITEM ()
   RATIONAL_B_SPLINE_SURFACE (((1., 1.), (0.707106781186548, 0.707106781186548), (1., 1.), (0.707106781186548, 0.707106781186548), (1., 1.), (0.707106781186548, 0.707106781186548), (1., 1.), (0.707106781186548, 0.707106781186548), (1., 1.)))
   REPRESENTATION_ITEM ('')
   SURFACE ()
);
#195 = CARTESIAN_POINT('', (-1.5875, 3.20156351084095E-15, -50.698));
#196 = CARTESIAN_POINT('', (-1.4855, 4.27874131271736E-15, -50.8));
#197 = CARTESIAN_POINT('', (-1.5875, 1.5875, -50.698));
#198 = CARTESIAN_POINT('', (-1.4855, 1.4855, -50.8));
#199 = CARTESIAN_POINT('', (3.04884601992737E-15, 1.5875, -50.698));
#200 = CARTESIAN_POINT('', (2.88326861777613E-15, 1.4855, -50.8));
#201 = CARTESIAN_POINT('', (1.5875, 1.5875, -50.698));
#202 = CARTESIAN_POINT('', (1.4855, 1.4855, -50.8));
#203 = CARTESIAN_POINT('', (1.5875, -1.95243895808241E-15, -50.698));
#204 = CARTESIAN_POINT('', (1.4855, -5.44106351903521E-16, -50.8));
#205 = CARTESIAN_POINT('', (1.5875, -1.5875, -50.698));
#206 = CARTESIAN_POINT('', (1.4855, -1.4855, -50.8));
#207 = CARTESIAN_POINT('', (-1.91074376963134E-15, -1.5875, -50.698));
#208 = CARTESIAN_POINT('', (-1.75765776483141E-15, -1.4855, -50.8));
#209 = CARTESIAN_POINT('', (-1.5875, -1.5875, -50.698));
#210 = CARTESIAN_POINT('', (-1.4855, -1.4855, -50.8));
#211 = CARTESIAN_POINT('', (-1.5875, 3.20156351084095E-15, -50.698));
#212 = CARTESIAN_POINT('', (-1.4855, 4.27874131271736E-15, -50.8));
#213 = ADVANCED_FACE('', (#214), #217, .T.);
#214 = FACE_OUTER_BOUND('', #215, .T.);
#215 = EDGE_LOOP('', (#216));
#216 = ORIENTED_EDGE('', *, *, #188, .T.);
#217 = B_SPLINE_SURFACE_WITH_KNOTS('', 1, 1, ((#218, #219), (#220, #221)), .UNSPECIFIED., .F., .F., .U., (2, 2), (2, 2), (0.82539567159576, 3.79639567159576), (0.82539567159575, 3.79639567159575), .UNSPECIFIED.);
#218 = CARTESIAN_POINT('', (1.4855, -1.4855, -50.8));
#219 = CARTESIAN_POINT('', (1.4855, 1.4855, -50.8));
#220 = CARTESIAN_POINT('', (-1.4855, -1.4855, -50.8));
#221 = CARTESIAN_POINT('', (-1.4855, 1.4855, -50.8));
#222 = PRESENTATION_STYLE_ASSIGNMENT((#223));
#223 = SURFACE_STYLE_USAGE(.POSITIVE., #224);
#224 = SURFACE_SIDE_STYLE('', (#225));
#225 = SURFACE_STYLE_FILL_AREA(#226);
#226 = FILL_AREA_STYLE('', (#227));
#227 = FILL_AREA_STYLE_COLOUR('', #228);
#228 = COLOUR_RGB('', 0.8, 0.8, 0.8);
#229 = STYLED_ITEM('', (#222), #116);
#230 = TRIMMED_CURVE('cutting part line', #231, (#235), (#236), .T., .CARTESIAN.);
#231 = LINE('', #232, #233);
#232 = CARTESIAN_POINT('', (-4.28556357895626E-31, -2.33295215237571E-15, -38.1));
#233 = VECTOR('', #234, 1.5875);
#234 = DIRECTION('', (1.5875, -2.91619019046962E-16, 0.));
#235 = CARTESIAN_POINT('', (-4.28556357895626E-31, -2.33295215237571E-15, -38.1));
#236 = CARTESIAN_POINT('', (1.5875, -2.62457117142267E-15, -38.1));
#237 = TRIMMED_CURVE('cutting part line', #238, (#242), (#243), .T., .CARTESIAN.);
#238 = LINE('', #239, #240);
#239 = CARTESIAN_POINT('', (1.5875, -2.62457117142267E-15, -38.1));
#240 = VECTOR('', #241, 12.598);
#241 = DIRECTION('', (0., -7.7140501878292E-16, -12.598));
#242 = CARTESIAN_POINT('', (1.5875, -2.62457117142267E-15, -38.1));
#243 = CARTESIAN_POINT('', (1.5875, -3.39597619020559E-15, -50.698));
#244 = TRIMMED_CURVE('cutting part line', #245, (#249), (#250), .T., .CARTESIAN.);
#245 = LINE('', #246, #247);
#246 = CARTESIAN_POINT('', (1.5875, -3.39597619020559E-15, -50.698));
#247 = VECTOR('', #248, 0.144249783362053);
#248 = DIRECTION('', (-0.102, 1.2491397351303E-17, -0.101999999999997));
#249 = CARTESIAN_POINT('', (1.5875, -3.39597619020559E-15, -50.698));
#250 = CARTESIAN_POINT('', (1.4855, -3.38348479285429E-15, -50.8));
#251 = TRIMMED_CURVE('cutting part line', #252, (#256), (#257), .T., .CARTESIAN.);
#252 = LINE('', #253, #254);
#253 = CARTESIAN_POINT('', (1.4855, -3.38348479285429E-15, -50.8));
#254 = VECTOR('', #255, 1.4855);
#255 = DIRECTION('', (-1.4855, 2.72881923020009E-16, 0.));
#256 = CARTESIAN_POINT('', (1.4855, -3.38348479285429E-15, -50.8));
#257 = CARTESIAN_POINT('', (-3.80938984796112E-31, -3.11060286983428E-15, -50.8));
#258 = TRIMMED_CURVE('cutting part line', #259, (#263), (#264), .T., .CARTESIAN.);
#259 = LINE('', #260, #261);
#260 = CARTESIAN_POINT('', (-5.71408477194168E-31, -3.11060286983428E-15, -50.8));
#261 = VECTOR('', #262, 12.7);
#262 = DIRECTION('', (1.42852119298542E-31, 7.7765071745857E-16, 12.7));
#263 = CARTESIAN_POINT('', (-5.71408477194168E-31, -3.11060286983428E-15, -50.8));
#264 = CARTESIAN_POINT('', (-4.28556357895626E-31, -2.33295215237571E-15, -38.1));
#265 = COMPOSITE_CURVE('cutting part line', (#266, #267, #268, #269, #270), .U.);
#266 = COMPOSITE_CURVE_SEGMENT(.CONTINUOUS., .T., #230);
#267 = COMPOSITE_CURVE_SEGMENT(.CONTINUOUS., .T., #237);
#268 = COMPOSITE_CURVE_SEGMENT(.CONTINUOUS., .T., #244);
#269 = COMPOSITE_CURVE_SEGMENT(.CONTINUOUS., .T., #251);
#270 = COMPOSITE_CURVE_SEGMENT(.CONTINUOUS., .T., #258);
#271 = GEOMETRIC_SET('', (#265, #314));
#272 = PRESENTATION_STYLE_ASSIGNMENT((#273));
#273 = CURVE_STYLE('', #275, POSITIVE_LENGTH_MEASURE(1.E-6), #274);
#274 = COLOUR_RGB('', 0., 0., 1.);
#275 = DRAUGHTING_PRE_DEFINED_CURVE_FONT('continuous');
#276 = STYLED_ITEM('', (#272), #265);
#277 = PRESENTATION_STYLE_ASSIGNMENT((#278));
#278 = CURVE_STYLE('', #280, POSITIVE_LENGTH_MEASURE(1.E-6), #279);
#279 = COLOUR_RGB('', 0., 0., 1.);
#280 = DRAUGHTING_PRE_DEFINED_CURVE_FONT('continuous');
#281 = OVER_RIDING_STYLED_ITEM('', (#277), #230, #276);
#282 = PRESENTATION_STYLE_ASSIGNMENT((#283));
#283 = CURVE_STYLE('', #285, POSITIVE_LENGTH_MEASURE(1.E-6), #284);
#284 = COLOUR_RGB('', 0., 0., 1.);
#285 = DRAUGHTING_PRE_DEFINED_CURVE_FONT('continuous');
#286 = OVER_RIDING_STYLED_ITEM('', (#282), #237, #276);
#287 = PRESENTATION_STYLE_ASSIGNMENT((#288));
#288 = CURVE_STYLE('', #290, POSITIVE_LENGTH_MEASURE(1.E-6), #289);
#289 = COLOUR_RGB('', 0., 0., 1.);
#290 = DRAUGHTING_PRE_DEFINED_CURVE_FONT('continuous');
#291 = OVER_RIDING_STYLED_ITEM('', (#287), #244, #276);
#292 = PRESENTATION_STYLE_ASSIGNMENT((#293));
#293 = CURVE_STYLE('', #295, POSITIVE_LENGTH_MEASURE(1.E-6), #294);
#294 = COLOUR_RGB('', 0., 0., 1.);
#295 = DRAUGHTING_PRE_DEFINED_CURVE_FONT('continuous');
#296 = OVER_RIDING_STYLED_ITEM('', (#292), #251, #276);
#297 = PRESENTATION_STYLE_ASSIGNMENT((#298));
#298 = CURVE_STYLE('', #300, POSITIVE_LENGTH_MEASURE(1.E-6), #299);
#299 = COLOUR_RGB('', 0., 0., 1.);
#300 = DRAUGHTING_PRE_DEFINED_CURVE_FONT('continuous');
#301 = OVER_RIDING_STYLED_ITEM('', (#297), #258, #276);
#302 = AXIS2_PLACEMENT_3D('CIP', #303, #304, #305);
#303 = CARTESIAN_POINT('', (1.90469492398056E-31, 3.11060286983428E-15, -50.8));
#304 = DIRECTION('', (-3.74939945665465E-33, -6.12323399573677E-17, 1.));
#305 = DIRECTION('', (1., -6.12323399573677E-17, 0.));
#306 = AXIS2_PLACEMENT_3D('MCS', #307, #308, #309);
#307 = CARTESIAN_POINT('', (9.74843858730207E-32, 1.59204083889156E-15, -26.));
#308 = DIRECTION('', (-3.74939945665465E-33, -6.12323399573677E-17, 1.));
#309 = DIRECTION('', (1., -6.12323399573677E-17, 0.));
#310 = AXIS2_PLACEMENT_3D('PCS', #311, #312, #313);
#311 = CARTESIAN_POINT('', (0., 0., 0.));
#312 = DIRECTION('', (0., 0., 1.));
#313 = DIRECTION('', (1., 0., 0.));
#314 = CARTESIAN_POINT('CRP', (1.5875, 0., -50.8));
#315 = (
   GEOMETRIC_REPRESENTATION_CONTEXT (3)
   GLOBAL_UNCERTAINTY_ASSIGNED_CONTEXT ((#317))
   GLOBAL_UNIT_ASSIGNED_CONTEXT ((#316, #318, #319))
   REPRESENTATION_CONTEXT ('', '3D')
);
#316 = (
   LENGTH_UNIT ()
   NAMED_UNIT (*)
   SI_UNIT (.MILLI., .METRE.)
);
#317 = UNCERTAINTY_MEASURE_WITH_UNIT(LENGTH_MEASURE(1.E-6), #316, 'DISTANCE_ACCURACY_VALUE', '');
#318 = (
   NAMED_UNIT (*)
   SI_UNIT ($, .STERADIAN.)
   SOLID_ANGLE_UNIT ()
);
#319 = (
   NAMED_UNIT (*)
   PLANE_ANGLE_UNIT ()
   SI_UNIT ($, .RADIAN.)
);
#320 = SHAPE_REPRESENTATION('', (), #315);
#321 = PRODUCT_DEFINITION_SHAPE('', '', #322);
#322 = PRODUCT_DEFINITION('', '', #325, #329);
#323 = APPLICATION_CONTEXT('configuration controlled 3D designs of mechanical parts and assemblies');
#324 = APPLICATION_PROTOCOL_DEFINITION('International Standard', 'automotive_design', 2002, #323);
#325 = PRODUCT_DEFINITION_FORMATION_WITH_SPECIFIED_SOURCE('', '', #326, .NOT_KNOWN.);
#326 = PRODUCT('NONE', '1P360-0318-XA       1620', '', (#327));
#327 = PRODUCT_CONTEXT('', #323, 'mechanical');
#328 = PRODUCT_RELATED_PRODUCT_CATEGORY('detail', '', (#326));
#329 = PRODUCT_DEFINITION_CONTEXT('part definition', #323, 'design');
#330 = SHAPE_DEFINITION_REPRESENTATION(#321, #320);
#331 = CONSTRUCTIVE_GEOMETRY_REPRESENTATION('supplemental geometry', (#302, #306, #310), #315);
#332 = CONSTRUCTIVE_GEOMETRY_REPRESENTATION_RELATIONSHIP('', '', #320, #331);
#333 = SHAPE_REPRESENTATION_RELATIONSHIP('', '', #320, #334);
#334 = SHAPE_REPRESENTATION('', (#271), #315);
#335 = SHAPE_REPRESENTATION_RELATIONSHIP('', '', #320, #336);
#336 = ADVANCED_BREP_SHAPE_REPRESENTATION('', (#1, #116), #315);
ENDSEC;
END-ISO-10303-21;
