ISO-10303-21;
HEADER;
FILE_DESCRIPTION(('STEP'), '1');
FILE_NAME('C:\\Users\\ds2002\\OneDrive - Sandvik\\HomeShare\\Documents\\Batchrepair\\CorSRT2\\NEW_MILSQ_SLD\\Output\\MOD000000000000000020082325600000.stp', '2019-01-02T12:08:05', (''), (''), 'Express v3.0.0.0', 'Express Tool', 'Unknown');
FILE_SCHEMA(('AUTOMOTIVE_DESIGN'));
ENDSEC;

DATA;
#1 = MANIFOLD_SOLID_BREP('NOCUT', #2);
#2 = CLOSED_SHELL('', (#3, #20, #37, #76));
#3 = ADVANCED_FACE('', (#4), #15, .T.);
#4 = FACE_OUTER_BOUND('', #5, .T.);
#5 = EDGE_LOOP('', (#6));
#6 = ORIENTED_EDGE('', *, *, #7, .T.);
#7 = EDGE_CURVE('', #8, #8, #10, .T.);
#8 = VERTEX_POINT('', #9);
#9 = CARTESIAN_POINT('', (-10., 0., -65.));
#10 = CIRCLE('', #11, 10.);
#11 = AXIS2_PLACEMENT_3D('', #12, #13, #14);
#12 = CARTESIAN_POINT('', (-2.24820162486594E-15, 1.33226762955019E-15, -65.));
#13 = DIRECTION('', (0., 0., -1.));
#14 = DIRECTION('', (-1., -1.33226762955019E-16, 0.));
#15 = B_SPLINE_SURFACE_WITH_KNOTS('', 1, 1, ((#16, #17), (#18, #19)), .UNSPECIFIED., .F., .F., .U., (2, 2), (2, 2), (-10.001, 10.001), (-20.001, 0.000999999999999446), .UNSPECIFIED.);
#16 = CARTESIAN_POINT('', (10.001, -10.001, -65.));
#17 = CARTESIAN_POINT('', (10.001, 10.001, -65.));
#18 = CARTESIAN_POINT('', (-10.001, -10.001, -65.));
#19 = CARTESIAN_POINT('', (-10.001, 10.001, -65.));
#20 = ADVANCED_FACE('', (#21), #32, .T.);
#21 = FACE_OUTER_BOUND('', #22, .T.);
#22 = EDGE_LOOP('', (#23));
#23 = ORIENTED_EDGE('', *, *, #24, .T.);
#24 = EDGE_CURVE('', #25, #25, #27, .T.);
#25 = VERTEX_POINT('', #26);
#26 = CARTESIAN_POINT('', (-9., 0., 0.));
#27 = CIRCLE('', #28, 9.);
#28 = AXIS2_PLACEMENT_3D('', #29, #30, #31);
#29 = CARTESIAN_POINT('', (1.11022302462516E-15, 8.88178419700125E-16, 0.));
#30 = DIRECTION('', (0., 0., 1.));
#31 = DIRECTION('', (-1., -9.86864910777917E-17, 0.));
#32 = B_SPLINE_SURFACE_WITH_KNOTS('', 1, 1, ((#33, #34), (#35, #36)), .UNSPECIFIED., .F., .F., .U., (2, 2), (2, 2), (-9.001, 9.001), (-9.001, 9.001), .UNSPECIFIED.);
#33 = CARTESIAN_POINT('', (-9.001, -9.001, 0.));
#34 = CARTESIAN_POINT('', (-9.001, 9.001, 0.));
#35 = CARTESIAN_POINT('', (9.001, -9.001, 0.));
#36 = CARTESIAN_POINT('', (9.001, 9.001, 0.));
#37 = ADVANCED_FACE('', (#38), #57, .T.);
#38 = FACE_OUTER_BOUND('', #39, .T.);
#39 = EDGE_LOOP('', (#40, #48, #55, #56));
#40 = ORIENTED_EDGE('', *, *, #41, .T.);
#41 = EDGE_CURVE('', #8, #42, #44, .T.);
#42 = VERTEX_POINT('', #43);
#43 = CARTESIAN_POINT('', (-10., 0., -1.));
#44 = LINE('', #45, #46);
#45 = CARTESIAN_POINT('', (-9.99999999999999, 5.42334168860402E-31, -65.));
#46 = VECTOR('', #47, 64.);
#47 = DIRECTION('', (-7.105427357601E-15, -4.93022658805045E-31, 64.));
#48 = ORIENTED_EDGE('', *, *, #49, .T.);
#49 = EDGE_CURVE('', #42, #42, #50, .T.);
#50 = CIRCLE('', #51, 10.);
#51 = AXIS2_PLACEMENT_3D('', #52, #53, #54);
#52 = CARTESIAN_POINT('', (-2.24820162486594E-15, 1.33226762955019E-15, -1.));
#53 = DIRECTION('', (0., 0., -1.));
#54 = DIRECTION('', (-1., -1.33226762955019E-16, 0.));
#55 = ORIENTED_EDGE('', *, *, #41, .F.);
#56 = ORIENTED_EDGE('', *, *, #7, .F.);
#57 = (
   BOUNDED_SURFACE ()
   B_SPLINE_SURFACE (2, 1, ((#58, #59), (#60, #61), (#62, #63), (#64, #65), (#66, #67), (#68, #69), (#70, #71), (#72, #73), (#74, #75)), .UNSPECIFIED., .T., .F., .U.)
   B_SPLINE_SURFACE_WITH_KNOTS ((3, 2, 2, 2, 3), (2, 2), (0., 0.25, 0.5, 0.75, 1.), (0., 1.), .UNSPECIFIED.)
   GEOMETRIC_REPRESENTATION_ITEM ()
   RATIONAL_B_SPLINE_SURFACE (((1., 1.), (0.707106781186548, 0.707106781186548), (1., 1.), (0.707106781186548, 0.707106781186548), (1., 1.), (0.707106781186548, 0.707106781186548), (1., 1.), (0.707106781186548, 0.707106781186548), (1., 1.)))
   REPRESENTATION_ITEM ('')
   SURFACE ()
);
#58 = CARTESIAN_POINT('', (-10., 0., 5.4012));
#59 = CARTESIAN_POINT('', (-9.99999999999999, 5.91645678915759E-31, -71.4012));
#60 = CARTESIAN_POINT('', (-10., 10., 5.4012));
#61 = CARTESIAN_POINT('', (-9.99999999999999, 10., -71.4012));
#62 = CARTESIAN_POINT('', (-1.94459102912386E-15, 10., 5.4012));
#63 = CARTESIAN_POINT('', (4.87683239699383E-15, 10., -71.4012));
#64 = CARTESIAN_POINT('', (10., 10., 5.4012));
#65 = CARTESIAN_POINT('', (10., 10., -71.4012));
#66 = CARTESIAN_POINT('', (10., 3.0010036385476E-15, 5.4012));
#67 = CARTESIAN_POINT('', (10., 3.0010036385476E-15, -71.4012));
#68 = CARTESIAN_POINT('', (10., -10., 5.4012));
#69 = CARTESIAN_POINT('', (10., -10., -71.4012));
#70 = CARTESIAN_POINT('', (2.28105940857109E-15, -10., 5.4012));
#71 = CARTESIAN_POINT('', (9.10248283468878E-15, -10., -71.4012));
#72 = CARTESIAN_POINT('', (-10., -10., 5.4012));
#73 = CARTESIAN_POINT('', (-9.99999999999999, -10., -71.4012));
#74 = CARTESIAN_POINT('', (-10., 0., 5.4012));
#75 = CARTESIAN_POINT('', (-9.99999999999999, 5.91645678915759E-31, -71.4012));
#76 = ADVANCED_FACE('', (#77), #88, .T.);
#77 = FACE_OUTER_BOUND('', #78, .T.);
#78 = EDGE_LOOP('', (#79, #85, #86, #87));
#79 = ORIENTED_EDGE('', *, *, #80, .T.);
#80 = EDGE_CURVE('', #42, #25, #81, .T.);
#81 = LINE('', #82, #83);
#82 = CARTESIAN_POINT('', (-10., 2.78443454583264E-15, -0.999999999999998));
#83 = VECTOR('', #84, 1.41421356237309);
#84 = DIRECTION('', (1., -2.7816528929397E-15, 1.));
#85 = ORIENTED_EDGE('', *, *, #24, .F.);
#86 = ORIENTED_EDGE('', *, *, #80, .F.);
#87 = ORIENTED_EDGE('', *, *, #49, .F.);
#88 = (
   BOUNDED_SURFACE ()
   B_SPLINE_SURFACE (2, 1, ((#89, #90), (#91, #92), (#93, #94), (#95, #96), (#97, #98), (#99, #100), (#101, #102), (#103, #104), (#105, #106)), .UNSPECIFIED., .T., .F., .U.)
   B_SPLINE_SURFACE_WITH_KNOTS ((3, 2, 2, 2, 3), (2, 2), (0., 0.25, 0.5, 0.75, 1.), (0., 1.), .UNSPECIFIED.)
   GEOMETRIC_REPRESENTATION_ITEM ()
   RATIONAL_B_SPLINE_SURFACE (((1., 1.), (0.707106781186548, 0.707106781186548), (1., 1.), (0.707106781186548, 0.707106781186548), (1., 1.), (0.707106781186548, 0.707106781186548), (1., 1.), (0.707106781186548, 0.707106781186548), (1., 1.)))
   REPRESENTATION_ITEM ('')
   SURFACE ()
);
#89 = CARTESIAN_POINT('', (-8.999, -3.94430452610506E-31, 0.00100000000000087));
#90 = CARTESIAN_POINT('', (-10.001, 2.78721619872558E-15, -1.001));
#91 = CARTESIAN_POINT('', (-8.99900000000001, 8.999, 0.00100000000002879));
#92 = CARTESIAN_POINT('', (-10.001, 10.001, -1.00099999999997));
#93 = CARTESIAN_POINT('', (-6.87930106763974E-15, 8.999, 0.00100000000002781));
#94 = CARTESIAN_POINT('', (-7.37134102283824E-15, 10.001, -1.00099999999997));
#95 = CARTESIAN_POINT('', (8.99899999999999, 8.99900000000001, 0.00100000000002683));
#96 = CARTESIAN_POINT('', (10.001, 10.001, -1.00099999999997));
#97 = CARTESIAN_POINT('', (8.999, 6.87521938260352E-15, 0.000999999999998908));
#98 = CARTESIAN_POINT('', (10.001, 1.04279617310534E-14, -1.001));
#99 = CARTESIAN_POINT('', (8.999, -8.99899999999999, 0.00099999999997099));
#100 = CARTESIAN_POINT('', (10.001, -10.001, -1.00100000000003));
#101 = CARTESIAN_POINT('', (1.09797796951647E-15, -8.999, 0.000999999999971971));
#102 = CARTESIAN_POINT('', (1.49417377331681E-15, -10.001, -1.00100000000003));
#103 = CARTESIAN_POINT('', (-8.999, -8.999, 0.000999999999972953));
#104 = CARTESIAN_POINT('', (-10.001, -10.001, -1.00100000000003));
#105 = CARTESIAN_POINT('', (-8.999, -3.94430452610506E-31, 0.00100000000000087));
#106 = CARTESIAN_POINT('', (-10.001, 2.78721619872558E-15, -1.001));
#107 = DRAUGHTING_MODEL('', (#115, #239, #286, #291, #296, #301, #306, #311), #325);
#108 = PRESENTATION_STYLE_ASSIGNMENT((#109));
#109 = SURFACE_STYLE_USAGE(.POSITIVE., #110);
#110 = SURFACE_SIDE_STYLE('', (#111));
#111 = SURFACE_STYLE_FILL_AREA(#112);
#112 = FILL_AREA_STYLE('', (#113));
#113 = FILL_AREA_STYLE_COLOUR('', #114);
#114 = COLOUR_RGB('', 0.50196078431373, 0.50196078431373, 0.50196078431373);
#115 = STYLED_ITEM('', (#108), #1);
#116 = MANIFOLD_SOLID_BREP('CUT', #117);
#117 = CLOSED_SHELL('', (#118, #135, #183, #200));
#118 = ADVANCED_FACE('', (#119), #130, .T.);
#119 = FACE_OUTER_BOUND('', #120, .T.);
#120 = EDGE_LOOP('', (#121));
#121 = ORIENTED_EDGE('', *, *, #122, .F.);
#122 = EDGE_CURVE('', #123, #123, #125, .T.);
#123 = VERTEX_POINT('', #124);
#124 = CARTESIAN_POINT('', (-10., 0., -65.));
#125 = CIRCLE('', #126, 10.);
#126 = AXIS2_PLACEMENT_3D('', #127, #128, #129);
#127 = CARTESIAN_POINT('', (-2.24820162486594E-15, 1.33226762955019E-15, -65.));
#128 = DIRECTION('', (0., 0., -1.));
#129 = DIRECTION('', (-1., -1.33226762955019E-16, 0.));
#130 = B_SPLINE_SURFACE_WITH_KNOTS('', 1, 1, ((#131, #132), (#133, #134)), .UNSPECIFIED., .F., .F., .U., (2, 2), (2, 2), (-10.001, 10.001), (-10.001, 10.001), .UNSPECIFIED.);
#131 = CARTESIAN_POINT('', (-10.001, -10.001, -65.));
#132 = CARTESIAN_POINT('', (-10.001, 10.001, -65.));
#133 = CARTESIAN_POINT('', (10.001, -10.001, -65.));
#134 = CARTESIAN_POINT('', (10.001, 10.001, -65.));
#135 = ADVANCED_FACE('', (#136), #164, .T.);
#136 = FACE_OUTER_BOUND('', #137, .T.);
#137 = EDGE_LOOP('', (#138, #146, #147, #148, #157));
#138 = ORIENTED_EDGE('', *, *, #139, .T.);
#139 = EDGE_CURVE('', #140, #123, #142, .T.);
#140 = VERTEX_POINT('', #141);
#141 = CARTESIAN_POINT('', (-10., 1.22464679914735E-15, -144.75));
#142 = LINE('', #143, #144);
#143 = CARTESIAN_POINT('', (-10., 0., -144.75));
#144 = VECTOR('', #145, 79.75);
#145 = DIRECTION('', (0., 0., 79.75));
#146 = ORIENTED_EDGE('', *, *, #122, .T.);
#147 = ORIENTED_EDGE('', *, *, #139, .F.);
#148 = ORIENTED_EDGE('', *, *, #149, .T.);
#149 = EDGE_CURVE('', #140, #150, #152, .T.);
#150 = VERTEX_POINT('', #151);
#151 = CARTESIAN_POINT('', (10., 0., -144.75));
#152 = CIRCLE('', #153, 10.);
#153 = AXIS2_PLACEMENT_3D('', #154, #155, #156);
#154 = CARTESIAN_POINT('', (2.24820162486594E-15, 1.33226762955019E-15, -144.75));
#155 = DIRECTION('', (-1.28876055021896E-30, -9.67343588955987E-15, 1.));
#156 = DIRECTION('', (1., -1.33226762955019E-16, 0.));
#157 = ORIENTED_EDGE('', *, *, #158, .T.);
#158 = EDGE_CURVE('', #150, #140, #159, .T.);
#159 = CIRCLE('', #160, 10.);
#160 = AXIS2_PLACEMENT_3D('', #161, #162, #163);
#161 = CARTESIAN_POINT('', (2.24820162486594E-15, 1.33226762955019E-15, -144.75));
#162 = DIRECTION('', (-1.28876055021896E-30, -9.67343588955987E-15, 1.));
#163 = DIRECTION('', (1., -1.33226762955019E-16, 0.));
#164 = (
   BOUNDED_SURFACE ()
   B_SPLINE_SURFACE (2, 1, ((#165, #166), (#167, #168), (#169, #170), (#171, #172), (#173, #174), (#175, #176), (#177, #178), (#179, #180), (#181, #182)), .UNSPECIFIED., .T., .F., .U.)
   B_SPLINE_SURFACE_WITH_KNOTS ((3, 2, 2, 2, 3), (2, 2), (0., 0.25, 0.5, 0.75, 1.), (0., 1.), .UNSPECIFIED.)
   GEOMETRIC_REPRESENTATION_ITEM ()
   RATIONAL_B_SPLINE_SURFACE (((1., 1.), (0.707106781186548, 0.707106781186548), (1., 1.), (0.707106781186548, 0.707106781186548), (1., 1.), (0.707106781186548, 0.707106781186548), (1., 1.), (0.707106781186548, 0.707106781186548), (1., 1.)))
   REPRESENTATION_ITEM ('')
   SURFACE ()
);
#165 = CARTESIAN_POINT('', (-10., 0., -57.0238));
#166 = CARTESIAN_POINT('', (-10., 0., -152.7262));
#167 = CARTESIAN_POINT('', (-10., 10., -57.0238));
#168 = CARTESIAN_POINT('', (-10., 10., -152.7262));
#169 = CARTESIAN_POINT('', (-1.94459102912386E-15, 10., -57.0238));
#170 = CARTESIAN_POINT('', (-1.94459102912386E-15, 10., -152.7262));
#171 = CARTESIAN_POINT('', (10., 10., -57.0238));
#172 = CARTESIAN_POINT('', (10., 10., -152.7262));
#173 = CARTESIAN_POINT('', (10., 3.0010036385476E-15, -57.0238));
#174 = CARTESIAN_POINT('', (10., 3.0010036385476E-15, -152.7262));
#175 = CARTESIAN_POINT('', (10., -10., -57.0238));
#176 = CARTESIAN_POINT('', (10., -10., -152.7262));
#177 = CARTESIAN_POINT('', (2.28105940857109E-15, -10., -57.0238));
#178 = CARTESIAN_POINT('', (2.28105940857109E-15, -10., -152.7262));
#179 = CARTESIAN_POINT('', (-10., -10., -57.0238));
#180 = CARTESIAN_POINT('', (-10., -10., -152.7262));
#181 = CARTESIAN_POINT('', (-10., 0., -57.0238));
#182 = CARTESIAN_POINT('', (-10., 0., -152.7262));
#183 = ADVANCED_FACE('', (#184), #195, .T.);
#184 = FACE_OUTER_BOUND('', #185, .T.);
#185 = EDGE_LOOP('', (#186));
#186 = ORIENTED_EDGE('', *, *, #187, .T.);
#187 = EDGE_CURVE('', #188, #188, #190, .T.);
#188 = VERTEX_POINT('', #189);
#189 = CARTESIAN_POINT('', (9.75, 0., -145.));
#190 = CIRCLE('', #191, 9.75);
#191 = AXIS2_PLACEMENT_3D('', #192, #193, #194);
#192 = CARTESIAN_POINT('', (-1.38777878078145E-16, 2.22044604925031E-16, -145.));
#193 = DIRECTION('', (-2.25949691031157E-31, -9.92147270724088E-15, -1.));
#194 = DIRECTION('', (1., -2.27738056333365E-17, 0.));
#195 = B_SPLINE_SURFACE_WITH_KNOTS('', 1, 1, ((#196, #197), (#198, #199)), .UNSPECIFIED., .F., .F., .U., (2, 2), (2, 2), (-9.751, 9.751), (-19.751, -0.248999999999999), .UNSPECIFIED.);
#196 = CARTESIAN_POINT('', (9.751, -9.751, -145.));
#197 = CARTESIAN_POINT('', (9.751, 9.751, -145.));
#198 = CARTESIAN_POINT('', (-9.751, -9.751, -145.));
#199 = CARTESIAN_POINT('', (-9.751, 9.751, -145.));
#200 = ADVANCED_FACE('', (#201), #213, .T.);
#201 = FACE_OUTER_BOUND('', #202, .T.);
#202 = EDGE_LOOP('', (#203, #209, #210, #211, #212));
#203 = ORIENTED_EDGE('', *, *, #204, .T.);
#204 = EDGE_CURVE('', #150, #188, #205, .T.);
#205 = LINE('', #206, #207);
#206 = CARTESIAN_POINT('', (10., 2.84082431270356E-15, -144.75));
#207 = VECTOR('', #208, 0.353553390593274);
#208 = DIRECTION('', (-0.25, -2.8295062875533E-15, -0.25));
#209 = ORIENTED_EDGE('', *, *, #187, .F.);
#210 = ORIENTED_EDGE('', *, *, #204, .F.);
#211 = ORIENTED_EDGE('', *, *, #149, .F.);
#212 = ORIENTED_EDGE('', *, *, #158, .F.);
#213 = (
   BOUNDED_SURFACE ()
   B_SPLINE_SURFACE (2, 1, ((#214, #215), (#216, #217), (#218, #219), (#220, #221), (#222, #223), (#224, #225), (#226, #227), (#228, #229), (#230, #231)), .UNSPECIFIED., .T., .F., .U.)
   B_SPLINE_SURFACE_WITH_KNOTS ((3, 2, 2, 2, 3), (2, 2), (0., 0.25, 0.5, 0.75, 1.), (0., 1.), .UNSPECIFIED.)
   GEOMETRIC_REPRESENTATION_ITEM ()
   RATIONAL_B_SPLINE_SURFACE (((1., 1.), (0.707106781186548, 0.707106781186548), (1., 1.), (0.707106781186548, 0.707106781186548), (1., 1.), (0.707106781186548, 0.707106781186548), (1., 1.), (0.707106781186548, 0.707106781186548), (1., 1.)))
   REPRESENTATION_ITEM ('')
   SURFACE ()
);
#214 = CARTESIAN_POINT('', (9.749, -3.94430452610506E-31, -145.001));
#215 = CARTESIAN_POINT('', (10.001, 2.85214233785383E-15, -144.749));
#216 = CARTESIAN_POINT('', (9.749, 9.749, -145.001));
#217 = CARTESIAN_POINT('', (10.001, 10.001, -144.749));
#218 = CARTESIAN_POINT('', (4.28844563912302E-15, 9.749, -145.001));
#219 = CARTESIAN_POINT('', (4.33831371496385E-15, 10.001, -144.749));
#220 = CARTESIAN_POINT('', (-9.74899999999999, 9.749, -145.001));
#221 = CARTESIAN_POINT('', (-10.001, 10.001, -144.749));
#222 = CARTESIAN_POINT('', (-9.74899999999999, 3.85844342358913E-15, -145.001));
#223 = CARTESIAN_POINT('', (-10.001, 6.81032191312462E-15, -144.749));
#224 = CARTESIAN_POINT('', (-9.749, -9.74899999999999, -145.001));
#225 = CARTESIAN_POINT('', (-10.001, -10.001, -144.749));
#226 = CARTESIAN_POINT('', (-7.63905948954862E-16, -9.74899999999999, -145.001));
#227 = CARTESIAN_POINT('', (-8.44635124134205E-16, -10.001, -144.749));
#228 = CARTESIAN_POINT('', (9.74899999999999, -9.749, -145.001));
#229 = CARTESIAN_POINT('', (10.001, -10.001, -144.749));
#230 = CARTESIAN_POINT('', (9.749, -3.94430452610506E-31, -145.001));
#231 = CARTESIAN_POINT('', (10.001, 2.85214233785383E-15, -144.749));
#232 = PRESENTATION_STYLE_ASSIGNMENT((#233));
#233 = SURFACE_STYLE_USAGE(.POSITIVE., #234);
#234 = SURFACE_SIDE_STYLE('', (#235));
#235 = SURFACE_STYLE_FILL_AREA(#236);
#236 = FILL_AREA_STYLE('', (#237));
#237 = FILL_AREA_STYLE_COLOUR('', #238);
#238 = COLOUR_RGB('', 0.8, 0.8, 0.8);
#239 = STYLED_ITEM('', (#232), #116);
#240 = TRIMMED_CURVE('cutting part line', #241, (#245), (#246), .T., .CARTESIAN.);
#241 = LINE('', #242, #243);
#242 = CARTESIAN_POINT('', (9.74999999999997, 1.3846917909898E-15, -145.));
#243 = VECTOR('', #244, 0.353553390593393);
#244 = DIRECTION('', (0.250000000000083, 2.86323434913841E-15, 0.250000000000085));
#245 = CARTESIAN_POINT('', (9.74999999999997, 1.3846917909898E-15, -145.));
#246 = CARTESIAN_POINT('', (10.0000000000001, 4.24792614012821E-15, -144.75));
#247 = TRIMMED_CURVE('cutting part line', #248, (#252), (#253), .T., .CARTESIAN.);
#248 = LINE('', #249, #250);
#249 = CARTESIAN_POINT('', (10., 0., -144.75));
#250 = VECTOR('', #251, 79.75);
#251 = DIRECTION('', (0., 0., 79.75));
#252 = CARTESIAN_POINT('', (10., 0., -144.75));
#253 = CARTESIAN_POINT('', (10., 0., -65.));
#254 = TRIMMED_CURVE('cutting part line', #255, (#259), (#260), .T., .CARTESIAN.);
#255 = LINE('', #256, #257);
#256 = CARTESIAN_POINT('', (10., 0., -65.));
#257 = VECTOR('', #258, 10.);
#258 = DIRECTION('', (-10., 0., 0.));
#259 = CARTESIAN_POINT('', (10., 0., -65.));
#260 = CARTESIAN_POINT('', (0., 0., -65.));
#261 = TRIMMED_CURVE('cutting part line', #262, (#266), (#267), .T., .CARTESIAN.);
#262 = LINE('', #263, #264);
#263 = CARTESIAN_POINT('', (0., 0., -65.));
#264 = VECTOR('', #265, 80.0000000000001);
#265 = DIRECTION('', (0., 0., -80.0000000000001));
#266 = CARTESIAN_POINT('', (0., 0., -65.));
#267 = CARTESIAN_POINT('', (0., 0., -145.));
#268 = TRIMMED_CURVE('cutting part line', #269, (#273), (#274), .T., .CARTESIAN.);
#269 = LINE('', #270, #271);
#270 = CARTESIAN_POINT('', (1.11022302462516E-16, 0., -145.));
#271 = VECTOR('', #272, 9.75);
#272 = DIRECTION('', (9.75, 0., 0.));
#273 = CARTESIAN_POINT('', (1.11022302462516E-16, 0., -145.));
#274 = CARTESIAN_POINT('', (9.75, 0., -145.));
#275 = COMPOSITE_CURVE('cutting part line', (#276, #277, #278, #279, #280), .U.);
#276 = COMPOSITE_CURVE_SEGMENT(.CONTINUOUS., .T., #240);
#277 = COMPOSITE_CURVE_SEGMENT(.CONTINUOUS., .T., #247);
#278 = COMPOSITE_CURVE_SEGMENT(.CONTINUOUS., .T., #254);
#279 = COMPOSITE_CURVE_SEGMENT(.CONTINUOUS., .T., #261);
#280 = COMPOSITE_CURVE_SEGMENT(.CONTINUOUS., .T., #268);
#281 = GEOMETRIC_SET('', (#275, #324));
#282 = PRESENTATION_STYLE_ASSIGNMENT((#283));
#283 = CURVE_STYLE('', #285, POSITIVE_LENGTH_MEASURE(1.E-6), #284);
#284 = COLOUR_RGB('', 0., 0., 1.);
#285 = DRAUGHTING_PRE_DEFINED_CURVE_FONT('continuous');
#286 = STYLED_ITEM('', (#282), #275);
#287 = PRESENTATION_STYLE_ASSIGNMENT((#288));
#288 = CURVE_STYLE('', #290, POSITIVE_LENGTH_MEASURE(1.E-6), #289);
#289 = COLOUR_RGB('', 0., 0., 1.);
#290 = DRAUGHTING_PRE_DEFINED_CURVE_FONT('continuous');
#291 = OVER_RIDING_STYLED_ITEM('', (#287), #240, #286);
#292 = PRESENTATION_STYLE_ASSIGNMENT((#293));
#293 = CURVE_STYLE('', #295, POSITIVE_LENGTH_MEASURE(1.E-6), #294);
#294 = COLOUR_RGB('', 0., 0., 1.);
#295 = DRAUGHTING_PRE_DEFINED_CURVE_FONT('continuous');
#296 = OVER_RIDING_STYLED_ITEM('', (#292), #247, #286);
#297 = PRESENTATION_STYLE_ASSIGNMENT((#298));
#298 = CURVE_STYLE('', #300, POSITIVE_LENGTH_MEASURE(1.E-6), #299);
#299 = COLOUR_RGB('', 0., 0., 1.);
#300 = DRAUGHTING_PRE_DEFINED_CURVE_FONT('continuous');
#301 = OVER_RIDING_STYLED_ITEM('', (#297), #254, #286);
#302 = PRESENTATION_STYLE_ASSIGNMENT((#303));
#303 = CURVE_STYLE('', #305, POSITIVE_LENGTH_MEASURE(1.E-6), #304);
#304 = COLOUR_RGB('', 0., 0., 1.);
#305 = DRAUGHTING_PRE_DEFINED_CURVE_FONT('continuous');
#306 = OVER_RIDING_STYLED_ITEM('', (#302), #261, #286);
#307 = PRESENTATION_STYLE_ASSIGNMENT((#308));
#308 = CURVE_STYLE('', #310, POSITIVE_LENGTH_MEASURE(1.E-6), #309);
#309 = COLOUR_RGB('', 0., 0., 1.);
#310 = DRAUGHTING_PRE_DEFINED_CURVE_FONT('continuous');
#311 = OVER_RIDING_STYLED_ITEM('', (#307), #268, #286);
#312 = AXIS2_PLACEMENT_3D('MCS', #313, #314, #315);
#313 = CARTESIAN_POINT('', (0., 0., -50.));
#314 = DIRECTION('', (0., 0., 1.));
#315 = DIRECTION('', (1., 0., 0.));
#316 = AXIS2_PLACEMENT_3D('PCS', #317, #318, #319);
#317 = CARTESIAN_POINT('', (0., 0., 0.));
#318 = DIRECTION('', (0., 0., 1.));
#319 = DIRECTION('', (1., 0., 0.));
#320 = AXIS2_PLACEMENT_3D('CIP', #321, #322, #323);
#321 = CARTESIAN_POINT('', (0., 0., -145.));
#322 = DIRECTION('', (0., 0., 1.));
#323 = DIRECTION('', (1., 0., 0.));
#324 = CARTESIAN_POINT('CRP', (10.0000000000001, 0., -145.));
#325 = (
   GEOMETRIC_REPRESENTATION_CONTEXT (3)
   GLOBAL_UNCERTAINTY_ASSIGNED_CONTEXT ((#327))
   GLOBAL_UNIT_ASSIGNED_CONTEXT ((#326, #328, #329))
   REPRESENTATION_CONTEXT ('', '3D')
);
#326 = (
   LENGTH_UNIT ()
   NAMED_UNIT (*)
   SI_UNIT (.MILLI., .METRE.)
);
#327 = UNCERTAINTY_MEASURE_WITH_UNIT(LENGTH_MEASURE(1.E-6), #326, 'DISTANCE_ACCURACY_VALUE', '');
#328 = (
   NAMED_UNIT (*)
   SI_UNIT ($, .STERADIAN.)
   SOLID_ANGLE_UNIT ()
);
#329 = (
   NAMED_UNIT (*)
   PLANE_ANGLE_UNIT ()
   SI_UNIT ($, .RADIAN.)
);
#330 = SHAPE_REPRESENTATION('', (), #325);
#331 = PRODUCT_DEFINITION_SHAPE('', '', #332);
#332 = PRODUCT_DEFINITION('', '', #335, #339);
#333 = APPLICATION_CONTEXT('configuration controlled 3D designs of mechanical parts and assemblies');
#334 = APPLICATION_PROTOCOL_DEFINITION('International Standard', 'automotive_design', 2002, #333);
#335 = PRODUCT_DEFINITION_FORMATION_WITH_SPECIFIED_SOURCE('', '', #336, .NOT_KNOWN.);
#336 = PRODUCT('pr98046CF45Auwb7', '2P370-2000-PB       1740', '', (#337));
#337 = PRODUCT_CONTEXT('', #333, 'mechanical');
#338 = PRODUCT_RELATED_PRODUCT_CATEGORY('detail', '', (#336));
#339 = PRODUCT_DEFINITION_CONTEXT('part definition', #333, 'design');
#340 = SHAPE_DEFINITION_REPRESENTATION(#331, #330);
#341 = CONSTRUCTIVE_GEOMETRY_REPRESENTATION('supplemental geometry', (#312, #316, #320), #325);
#342 = CONSTRUCTIVE_GEOMETRY_REPRESENTATION_RELATIONSHIP('', '', #330, #341);
#343 = SHAPE_REPRESENTATION_RELATIONSHIP('', '', #330, #344);
#344 = SHAPE_REPRESENTATION('', (#281), #325);
#345 = SHAPE_REPRESENTATION_RELATIONSHIP('', '', #330, #346);
#346 = ADVANCED_BREP_SHAPE_REPRESENTATION('', (#1, #116), #325);
ENDSEC;
END-ISO-10303-21;
