ISO-10303-21;
HEADER;
FILE_DESCRIPTION(('STEP'), '1');
FILE_NAME('C:\\Users\\ds2002\\OneDrive - Sandvik\\HomeShare\\Documents\\Batchrepair\\CorSRT2\\NEW_MILSQ_SLD\\Output\\MOD000000000000000020082277200000.stp', '2019-01-02T12:05:38', (''), (''), 'Express v3.0.0.0', 'Express Tool', 'Unknown');
FILE_SCHEMA(('AUTOMOTIVE_DESIGN'));
ENDSEC;

DATA;
#1 = MANIFOLD_SOLID_BREP('NOCUT', #2);
#2 = CLOSED_SHELL('', (#3, #50, #59, #98));
#3 = ADVANCED_FACE('', (#4), #31, .T.);
#4 = FACE_OUTER_BOUND('', #5, .T.);
#5 = EDGE_LOOP('', (#6, #16, #23, #24));
#6 = ORIENTED_EDGE('', *, *, #7, .T.);
#7 = EDGE_CURVE('', #8, #10, #12, .T.);
#8 = VERTEX_POINT('', #9);
#9 = CARTESIAN_POINT('', (-6.35, 4.27707894602213E-16, -0.634999999999998));
#10 = VERTEX_POINT('', #11);
#11 = CARTESIAN_POINT('', (-5.715, 3.49942822856356E-16, 0.));
#12 = LINE('', #13, #14);
#13 = CARTESIAN_POINT('', (-6.35, 4.27707894602213E-16, -0.634999999999998));
#14 = VECTOR('', #15, 0.898025612106914);
#15 = DIRECTION('', (0.635, -7.7765071745857E-17, 0.634999999999998));
#16 = ORIENTED_EDGE('', *, *, #17, .T.);
#17 = EDGE_CURVE('', #10, #10, #18, .T.);
#18 = CIRCLE('', #19, 5.715);
#19 = AXIS2_PLACEMENT_3D('', #20, #21, #22);
#20 = CARTESIAN_POINT('', (-6.93889390390723E-16, -1.33226762955019E-15, -5.54667823983524E-32));
#21 = DIRECTION('', (8.31826769960494E-33, 6.12323399573676E-17, -1.));
#22 = DIRECTION('', (-1., 2.94350035416718E-16, 9.70547373549474E-33));
#23 = ORIENTED_EDGE('', *, *, #7, .F.);
#24 = ORIENTED_EDGE('', *, *, #25, .F.);
#25 = EDGE_CURVE('', #8, #8, #26, .T.);
#26 = CIRCLE('', #27, 6.35);
#27 = AXIS2_PLACEMENT_3D('', #28, #29, #30);
#28 = CARTESIAN_POINT('', (1.02695629777827E-15, -8.88178419700125E-16, -0.634999999999998));
#29 = DIRECTION('', (0., 0., -1.));
#30 = DIRECTION('', (-1., -3.77031686007567E-17, 0.));
#31 = (
   BOUNDED_SURFACE ()
   B_SPLINE_SURFACE (1, 2, ((#32, #33, #34, #35, #36, #37, #38, #39, #40), (#41, #42, #43, #44, #45, #46, #47, #48, #49)), .UNSPECIFIED., .F., .T., .U.)
   B_SPLINE_SURFACE_WITH_KNOTS ((2, 2), (3, 2, 2, 2, 3), (0., 1.), (0., 0.25, 0.5, 0.75, 1.), .UNSPECIFIED.)
   GEOMETRIC_REPRESENTATION_ITEM ()
   RATIONAL_B_SPLINE_SURFACE (((1., 0.707106781186548, 1., 0.707106781186548, 1., 0.707106781186548, 1., 0.707106781186548, 1.), (1., 0.707106781186548, 1., 0.707106781186548, 1., 0.707106781186548, 1., 0.707106781186548, 1.)))
   REPRESENTATION_ITEM ('')
   SURFACE ()
);
#32 = CARTESIAN_POINT('', (-6.35, -1.37519566928624E-15, -0.634999999999998));
#33 = CARTESIAN_POINT('', (-6.35, 6.35, -0.635000000000017));
#34 = CARTESIAN_POINT('', (3.48178276333834E-15, 6.35, -0.635000000000017));
#35 = CARTESIAN_POINT('', (6.35, 6.35, -0.635000000000017));
#36 = CARTESIAN_POINT('', (6.35, -3.84235794623103E-15, -0.634999999999998));
#37 = CARTESIAN_POINT('', (6.35, -6.35, -0.634999999999979));
#38 = CARTESIAN_POINT('', (1.79227120385212E-15, -6.35, -0.634999999999979));
#39 = CARTESIAN_POINT('', (-6.35, -6.35, -0.634999999999979));
#40 = CARTESIAN_POINT('', (-6.35, -1.37519566928624E-15, -0.634999999999998));
#41 = CARTESIAN_POINT('', (-5.715, 3.49942822856355E-16, 0.));
#42 = CARTESIAN_POINT('', (-5.715, 5.715, -1.6986412276765E-14));
#43 = CARTESIAN_POINT('', (3.3584246494911E-15, 5.715, -1.6986412276765E-14));
#44 = CARTESIAN_POINT('', (5.71500000000001, 5.715, -1.6986412276765E-14));
#45 = CARTESIAN_POINT('', (5.715, -1.87050322639396E-15, -2.19116910717046E-30));
#46 = CARTESIAN_POINT('', (5.715, -5.715, 1.6986412276765E-14));
#47 = CARTESIAN_POINT('', (1.8378642459535E-15, -5.715, 1.6986412276765E-14));
#48 = CARTESIAN_POINT('', (-5.715, -5.715, 1.6986412276765E-14));
#49 = CARTESIAN_POINT('', (-5.715, 3.49942822856355E-16, 0.));
#50 = ADVANCED_FACE('', (#51), #54, .T.);
#51 = FACE_OUTER_BOUND('', #52, .T.);
#52 = EDGE_LOOP('', (#53));
#53 = ORIENTED_EDGE('', *, *, #17, .F.);
#54 = B_SPLINE_SURFACE_WITH_KNOTS('', 1, 1, ((#55, #56), (#57, #58)), .UNSPECIFIED., .F., .F., .U., (2, 2), (2, 2), (3.17545355985846, 14.6054535598585), (3.17545355985846, 14.6054535598585), .UNSPECIFIED.);
#55 = CARTESIAN_POINT('', (5.715, -5.715, -7.45537018045735E-15));
#56 = CARTESIAN_POINT('', (-5.715, -5.715, 6.75548453474463E-15));
#57 = CARTESIAN_POINT('', (5.715, 5.715, -6.75548453474463E-15));
#58 = CARTESIAN_POINT('', (-5.715, 5.715, 7.45537018045734E-15));
#59 = ADVANCED_FACE('', (#60), #79, .T.);
#60 = FACE_OUTER_BOUND('', #61, .T.);
#61 = EDGE_LOOP('', (#62, #71, #77, #78));
#62 = ORIENTED_EDGE('', *, *, #63, .F.);
#63 = EDGE_CURVE('', #64, #64, #66, .T.);
#64 = VERTEX_POINT('', #65);
#65 = CARTESIAN_POINT('', (-6.35, 4.1313459769236E-15, -61.12));
#66 = CIRCLE('', #67, 6.35);
#67 = AXIS2_PLACEMENT_3D('', #68, #69, #70);
#68 = CARTESIAN_POINT('', (8.32667268468867E-17, 4.88498130835069E-15, -61.12));
#69 = DIRECTION('', (0., 0., -1.));
#70 = DIRECTION('', (-1., -1.18682729358597E-16, 0.));
#71 = ORIENTED_EDGE('', *, *, #72, .T.);
#72 = EDGE_CURVE('', #64, #8, #73, .T.);
#73 = LINE('', #74, #75);
#74 = CARTESIAN_POINT('', (-6.35, 4.1313459769236E-15, -61.12));
#75 = VECTOR('', #76, 60.485);
#76 = DIRECTION('', (0., -3.70363808232139E-15, 60.485));
#77 = ORIENTED_EDGE('', *, *, #25, .T.);
#78 = ORIENTED_EDGE('', *, *, #72, .F.);
#79 = (
   BOUNDED_SURFACE ()
   B_SPLINE_SURFACE (1, 2, ((#80, #81, #82, #83, #84, #85, #86, #87, #88), (#89, #90, #91, #92, #93, #94, #95, #96, #97)), .UNSPECIFIED., .F., .T., .U.)
   B_SPLINE_SURFACE_WITH_KNOTS ((2, 2), (3, 2, 2, 2, 3), (-0.354192320608978, 1.), (0., 0.25, 0.5, 0.75, 1.), .UNSPECIFIED.)
   GEOMETRIC_REPRESENTATION_ITEM ()
   RATIONAL_B_SPLINE_SURFACE (((1., 0.707106781186548, 1., 0.707106781186548, 1., 0.707106781186548, 1., 0.707106781186548, 1.), (1., 0.707106781186548, 1., 0.707106781186548, 1., 0.707106781186548, 1., 0.707106781186548, 1.)))
   REPRESENTATION_ITEM ('')
   SURFACE ()
);
#80 = CARTESIAN_POINT('', (-6.35, 2.64815394385253E-15, -61.12));
#81 = CARTESIAN_POINT('', (-6.35, 6.35, -61.12));
#82 = CARTESIAN_POINT('', (-4.92936549932465E-15, 6.35, -61.12));
#83 = CARTESIAN_POINT('', (6.34999999999999, 6.35000000000001, -61.12));
#84 = CARTESIAN_POINT('', (6.35, 9.00968241493258E-15, -61.12));
#85 = CARTESIAN_POINT('', (6.35, -6.34999999999999, -61.12));
#86 = CARTESIAN_POINT('', (2.20981368921397E-15, -6.34999999999999, -61.12));
#87 = CARTESIAN_POINT('', (-6.34999999999999, -6.35, -61.12));
#88 = CARTESIAN_POINT('', (-6.35, 2.64815394385253E-15, -61.12));
#89 = CARTESIAN_POINT('', (-6.35, 4.27707894602213E-16, -0.634999999999998));
#90 = CARTESIAN_POINT('', (-6.35, 6.35, -0.634999999999998));
#91 = CARTESIAN_POINT('', (-4.92936549932465E-15, 6.35, -0.634999999999998));
#92 = CARTESIAN_POINT('', (6.34999999999999, 6.35, -0.634999999999998));
#93 = CARTESIAN_POINT('', (6.35, 6.78923636568226E-15, -0.634999999999998));
#94 = CARTESIAN_POINT('', (6.35, -6.34999999999999, -0.634999999999998));
#95 = CARTESIAN_POINT('', (2.20981368921397E-15, -6.34999999999999, -0.634999999999998));
#96 = CARTESIAN_POINT('', (-6.34999999999999, -6.35, -0.634999999999998));
#97 = CARTESIAN_POINT('', (-6.35, 4.27707894602213E-16, -0.634999999999998));
#98 = ADVANCED_FACE('', (#99), #102, .T.);
#99 = FACE_OUTER_BOUND('', #100, .T.);
#100 = EDGE_LOOP('', (#101));
#101 = ORIENTED_EDGE('', *, *, #63, .T.);
#102 = B_SPLINE_SURFACE_WITH_KNOTS('', 1, 1, ((#103, #104), (#105, #106)), .UNSPECIFIED., .F., .F., .U., (2, 2), (2, 2), (86.7275752978365, 99.4275752978365), (81.9647168691687, 94.6647168691687), .UNSPECIFIED.);
#103 = CARTESIAN_POINT('', (-6.34999999999999, 6.35000000000001, -61.12));
#104 = CARTESIAN_POINT('', (-6.34999999999999, -6.34999999999999, -61.12));
#105 = CARTESIAN_POINT('', (6.35, 6.35000000000001, -61.12));
#106 = CARTESIAN_POINT('', (6.35, -6.34999999999999, -61.12));
#107 = DRAUGHTING_MODEL('', (#115, #229, #276, #281, #286, #291, #296, #301), #315);
#108 = PRESENTATION_STYLE_ASSIGNMENT((#109));
#109 = SURFACE_STYLE_USAGE(.POSITIVE., #110);
#110 = SURFACE_SIDE_STYLE('', (#111));
#111 = SURFACE_STYLE_FILL_AREA(#112);
#112 = FILL_AREA_STYLE('', (#113));
#113 = FILL_AREA_STYLE_COLOUR('', #114);
#114 = COLOUR_RGB('', 0.50196078431373, 0.50196078431373, 0.50196078431373);
#115 = STYLED_ITEM('', (#108), #1);
#116 = MANIFOLD_SOLID_BREP('CUT', #117);
#117 = CLOSED_SHELL('', (#118, #135, #174, #213));
#118 = ADVANCED_FACE('', (#119), #130, .T.);
#119 = FACE_OUTER_BOUND('', #120, .T.);
#120 = EDGE_LOOP('', (#121));
#121 = ORIENTED_EDGE('', *, *, #122, .F.);
#122 = EDGE_CURVE('', #123, #123, #125, .T.);
#123 = VERTEX_POINT('', #124);
#124 = CARTESIAN_POINT('', (-6.35, 4.1313459769236E-15, -61.12));
#125 = CIRCLE('', #126, 6.35);
#126 = AXIS2_PLACEMENT_3D('', #127, #128, #129);
#127 = CARTESIAN_POINT('', (8.32667268468867E-17, 4.88498130835069E-15, -61.12));
#128 = DIRECTION('', (0., 0., -1.));
#129 = DIRECTION('', (-1., -1.18682729358597E-16, 0.));
#130 = B_SPLINE_SURFACE_WITH_KNOTS('', 1, 1, ((#131, #132), (#133, #134)), .UNSPECIFIED., .F., .F., .U., (2, 2), (2, 2), (81.9647168691687, 94.6647168691687), (86.7275752978365, 99.4275752978365), .UNSPECIFIED.);
#131 = CARTESIAN_POINT('', (-6.34999999999999, 6.35000000000001, -61.12));
#132 = CARTESIAN_POINT('', (6.34999999999999, 6.35000000000001, -61.12));
#133 = CARTESIAN_POINT('', (-6.34999999999999, -6.34999999999999, -61.12));
#134 = CARTESIAN_POINT('', (6.34999999999999, -6.34999999999999, -61.12));
#135 = ADVANCED_FACE('', (#136), #155, .T.);
#136 = FACE_OUTER_BOUND('', #137, .T.);
#137 = EDGE_LOOP('', (#138, #139, #147, #154));
#138 = ORIENTED_EDGE('', *, *, #122, .T.);
#139 = ORIENTED_EDGE('', *, *, #140, .F.);
#140 = EDGE_CURVE('', #141, #123, #143, .T.);
#141 = VERTEX_POINT('', #142);
#142 = CARTESIAN_POINT('', (-6.35, 5.82307306526575E-15, -88.748));
#143 = LINE('', #144, #145);
#144 = CARTESIAN_POINT('', (-6.35, 5.82307306526575E-15, -88.748));
#145 = VECTOR('', #146, 27.628);
#146 = DIRECTION('', (0., -1.69172708834215E-15, 27.628));
#147 = ORIENTED_EDGE('', *, *, #148, .F.);
#148 = EDGE_CURVE('', #141, #141, #149, .T.);
#149 = CIRCLE('', #150, 6.35);
#150 = AXIS2_PLACEMENT_3D('', #151, #152, #153);
#151 = CARTESIAN_POINT('', (2.41473507855972E-15, 5.32907051820075E-15, -88.748));
#152 = DIRECTION('', (2.23792987640976E-15, -7.28069435464763E-15, -1.));
#153 = DIRECTION('', (-1., 7.77956767031494E-17, -2.23792987640976E-15));
#154 = ORIENTED_EDGE('', *, *, #140, .T.);
#155 = (
   BOUNDED_SURFACE ()
   B_SPLINE_SURFACE (1, 2, ((#156, #157, #158, #159, #160, #161, #162, #163, #164), (#165, #166, #167, #168, #169, #170, #171, #172, #173)), .UNSPECIFIED., .F., .T., .U.)
   B_SPLINE_SURFACE_WITH_KNOTS ((2, 2), (3, 2, 2, 2, 3), (-0.972752714653532, -0.354192320608978), (0., 0.25, 0.5, 0.75, 1.), .UNSPECIFIED.)
   GEOMETRIC_REPRESENTATION_ITEM ()
   RATIONAL_B_SPLINE_SURFACE (((1., 0.707106781186548, 1., 0.707106781186548, 1., 0.707106781186548, 1., 0.707106781186548, 1.), (1., 0.707106781186548, 1., 0.707106781186548, 1., 0.707106781186548, 1., 0.707106781186548, 1.)))
   REPRESENTATION_ITEM ('')
   SURFACE ()
);
#156 = CARTESIAN_POINT('', (-6.35, 5.5746359089363E-15, -88.748));
#157 = CARTESIAN_POINT('', (-6.35, 6.35, -88.748));
#158 = CARTESIAN_POINT('', (-3.14086213448166E-15, 6.35000000000001, -88.748));
#159 = CARTESIAN_POINT('', (6.35, 6.35000000000001, -88.748));
#160 = CARTESIAN_POINT('', (6.35, 9.41386952372427E-15, -88.748));
#161 = CARTESIAN_POINT('', (6.35, -6.34999999999999, -88.748));
#162 = CARTESIAN_POINT('', (1.47602219776488E-15, -6.34999999999999, -88.748));
#163 = CARTESIAN_POINT('', (-6.35, -6.35, -88.748));
#164 = CARTESIAN_POINT('', (-6.35, 5.5746359089363E-15, -88.748));
#165 = CARTESIAN_POINT('', (-6.35, 4.1313459769236E-15, -61.12));
#166 = CARTESIAN_POINT('', (-6.35, 6.35, -61.12));
#167 = CARTESIAN_POINT('', (-3.14086213448166E-15, 6.35, -61.12));
#168 = CARTESIAN_POINT('', (6.35, 6.35000000000001, -61.12));
#169 = CARTESIAN_POINT('', (6.35, 7.97057959171157E-15, -61.12));
#170 = CARTESIAN_POINT('', (6.35, -6.34999999999999, -61.12));
#171 = CARTESIAN_POINT('', (1.47602219776488E-15, -6.34999999999999, -61.12));
#172 = CARTESIAN_POINT('', (-6.35, -6.35, -61.12));
#173 = CARTESIAN_POINT('', (-6.35, 4.1313459769236E-15, -61.12));
#174 = ADVANCED_FACE('', (#175), #194, .T.);
#175 = FACE_OUTER_BOUND('', #176, .T.);
#176 = EDGE_LOOP('', (#177, #185, #186, #187));
#177 = ORIENTED_EDGE('', *, *, #178, .F.);
#178 = EDGE_CURVE('', #141, #179, #181, .T.);
#179 = VERTEX_POINT('', #180);
#180 = CARTESIAN_POINT('', (-6.198, 5.82307306526575E-15, -88.9));
#181 = LINE('', #182, #183);
#182 = CARTESIAN_POINT('', (-6.35, 5.82307306526575E-15, -88.748));
#183 = VECTOR('', #184, 0.214960461480711);
#184 = DIRECTION('', (0.151999999999999, 0., -0.152000000000001));
#185 = ORIENTED_EDGE('', *, *, #148, .T.);
#186 = ORIENTED_EDGE('', *, *, #178, .T.);
#187 = ORIENTED_EDGE('', *, *, #188, .F.);
#188 = EDGE_CURVE('', #179, #179, #189, .T.);
#189 = CIRCLE('', #190, 6.198);
#190 = AXIS2_PLACEMENT_3D('', #191, #192, #193);
#191 = CARTESIAN_POINT('', (3.33066907387547E-16, 1.55431223447522E-15, -88.9));
#192 = DIRECTION('', (0., 0., -1.));
#193 = DIRECTION('', (-1., 6.88731983025255E-16, 0.));
#194 = (
   BOUNDED_SURFACE ()
   B_SPLINE_SURFACE (2, 1, ((#195, #196), (#197, #198), (#199, #200), (#201, #202), (#203, #204), (#205, #206), (#207, #208), (#209, #210), (#211, #212)), .UNSPECIFIED., .T., .F., .U.)
   B_SPLINE_SURFACE_WITH_KNOTS ((3, 2, 2, 2, 3), (2, 2), (0., 0.25, 0.5, 0.75, 1.), (0., 1.), .UNSPECIFIED.)
   GEOMETRIC_REPRESENTATION_ITEM ()
   RATIONAL_B_SPLINE_SURFACE (((1., 1.), (0.707106781186548, 0.707106781186548), (1., 1.), (0.707106781186548, 0.707106781186548), (1., 1.), (0.707106781186548, 0.707106781186548), (1., 1.), (0.707106781186548, 0.707106781186548), (1., 1.)))
   REPRESENTATION_ITEM ('')
   SURFACE ()
);
#195 = CARTESIAN_POINT('', (-6.35, 5.82307306526575E-15, -88.748));
#196 = CARTESIAN_POINT('', (-6.198, 3.79127926928313E-16, -88.9));
#197 = CARTESIAN_POINT('', (-6.35, 6.35, -88.7480000000002));
#198 = CARTESIAN_POINT('', (-6.198, 6.198, -88.9000000000002));
#199 = CARTESIAN_POINT('', (-3.36006897424303E-17, 6.35, -88.7480000000002));
#200 = CARTESIAN_POINT('', (-2.8145691743081E-17, 6.198, -88.9000000000002));
#201 = CARTESIAN_POINT('', (6.35, 6.35, -88.7480000000002));
#202 = CARTESIAN_POINT('', (6.198, 6.198, -88.9000000000002));
#203 = CARTESIAN_POINT('', (6.35, 6.27885250336942E-15, -88.748));
#204 = CARTESIAN_POINT('', (6.198, 8.23997369033279E-16, -88.9));
#205 = CARTESIAN_POINT('', (6.35, -6.34999999999999, -88.7479999999998));
#206 = CARTESIAN_POINT('', (6.198, -6.198, -88.8999999999998));
#207 = CARTESIAN_POINT('', (1.1998294658198E-15, -6.34999999999999, -88.7479999999998));
#208 = CARTESIAN_POINT('', (1.17575983647341E-15, -6.198, -88.8999999999998));
#209 = CARTESIAN_POINT('', (-6.35, -6.35, -88.7479999999998));
#210 = CARTESIAN_POINT('', (-6.198, -6.198, -88.8999999999998));
#211 = CARTESIAN_POINT('', (-6.35, 5.82307306526575E-15, -88.748));
#212 = CARTESIAN_POINT('', (-6.198, 3.79127926928313E-16, -88.9));
#213 = ADVANCED_FACE('', (#214), #217, .T.);
#214 = FACE_OUTER_BOUND('', #215, .T.);
#215 = EDGE_LOOP('', (#216));
#216 = ORIENTED_EDGE('', *, *, #188, .T.);
#217 = B_SPLINE_SURFACE_WITH_KNOTS('', 1, 1, ((#218, #219), (#220, #221)), .UNSPECIFIED., .F., .F., .U., (2, 2), (2, 2), (3.44382522554729, 15.8398252255473), (3.44382522554728, 15.8398252255473), .UNSPECIFIED.);
#218 = CARTESIAN_POINT('', (6.198, -6.198, -88.9));
#219 = CARTESIAN_POINT('', (6.198, 6.198, -88.9));
#220 = CARTESIAN_POINT('', (-6.198, -6.198, -88.9));
#221 = CARTESIAN_POINT('', (-6.198, 6.198, -88.9));
#222 = PRESENTATION_STYLE_ASSIGNMENT((#223));
#223 = SURFACE_STYLE_USAGE(.POSITIVE., #224);
#224 = SURFACE_SIDE_STYLE('', (#225));
#225 = SURFACE_STYLE_FILL_AREA(#226);
#226 = FILL_AREA_STYLE('', (#227));
#227 = FILL_AREA_STYLE_COLOUR('', #228);
#228 = COLOUR_RGB('', 0.8, 0.8, 0.8);
#229 = STYLED_ITEM('', (#222), #116);
#230 = TRIMMED_CURVE('cutting part line', #231, (#235), (#236), .T., .CARTESIAN.);
#231 = LINE('', #232, #233);
#232 = CARTESIAN_POINT('', (-6.87489884372196E-31, -3.74252061819431E-15, -61.12));
#233 = VECTOR('', #234, 6.35);
#234 = DIRECTION('', (6.35, -1.16647607618786E-15, 0.));
#235 = CARTESIAN_POINT('', (-6.87489884372196E-31, -3.74252061819431E-15, -61.12));
#236 = CARTESIAN_POINT('', (6.35, -4.90899669438217E-15, -61.12));
#237 = TRIMMED_CURVE('cutting part line', #238, (#242), (#243), .T., .CARTESIAN.);
#238 = LINE('', #239, #240);
#239 = CARTESIAN_POINT('', (6.35, -4.90899669438217E-15, -61.12));
#240 = VECTOR('', #241, 27.628);
#241 = DIRECTION('', (0., -1.69172708834215E-15, -27.628));
#242 = CARTESIAN_POINT('', (6.35, -4.90899669438217E-15, -61.12));
#243 = CARTESIAN_POINT('', (6.35, -6.60072378272432E-15, -88.748));
#244 = TRIMMED_CURVE('cutting part line', #245, (#249), (#250), .T., .CARTESIAN.);
#245 = LINE('', #246, #247);
#246 = CARTESIAN_POINT('', (6.35, -6.60072378272432E-15, -88.748));
#247 = VECTOR('', #248, 0.214960461480711);
#248 = DIRECTION('', (-0.151999999999999, 1.86146313470396E-17, -0.152000000000001));
#249 = CARTESIAN_POINT('', (6.35, -6.60072378272432E-15, -88.748));
#250 = CARTESIAN_POINT('', (6.198, -6.58210915137728E-15, -88.9));
#251 = TRIMMED_CURVE('cutting part line', #252, (#256), (#257), .T., .CARTESIAN.);
#252 = LINE('', #253, #254);
#253 = CARTESIAN_POINT('', (6.198, -6.58210915137728E-15, -88.9));
#254 = VECTOR('', #255, 6.198);
#255 = DIRECTION('', (-6.198, 1.13855412916729E-15, 0.));
#256 = CARTESIAN_POINT('', (6.198, -6.58210915137728E-15, -88.9));
#257 = CARTESIAN_POINT('', (-6.66643223393196E-31, -5.44355502220999E-15, -88.9));
#258 = TRIMMED_CURVE('cutting part line', #259, (#263), (#264), .T., .CARTESIAN.);
#259 = LINE('', #260, #261);
#260 = CARTESIAN_POINT('', (-9.99964835089794E-31, -5.44355502220999E-15, -88.9));
#261 = VECTOR('', #262, 27.78);
#262 = DIRECTION('', (3.12474950717599E-31, 1.70103440401568E-15, 27.78));
#263 = CARTESIAN_POINT('', (-9.99964835089794E-31, -5.44355502220999E-15, -88.9));
#264 = CARTESIAN_POINT('', (-6.87489884372196E-31, -3.74252061819431E-15, -61.12));
#265 = COMPOSITE_CURVE('cutting part line', (#266, #267, #268, #269, #270), .U.);
#266 = COMPOSITE_CURVE_SEGMENT(.CONTINUOUS., .T., #230);
#267 = COMPOSITE_CURVE_SEGMENT(.CONTINUOUS., .T., #237);
#268 = COMPOSITE_CURVE_SEGMENT(.CONTINUOUS., .T., #244);
#269 = COMPOSITE_CURVE_SEGMENT(.CONTINUOUS., .T., #251);
#270 = COMPOSITE_CURVE_SEGMENT(.CONTINUOUS., .T., #258);
#271 = GEOMETRIC_SET('', (#265, #314));
#272 = PRESENTATION_STYLE_ASSIGNMENT((#273));
#273 = CURVE_STYLE('', #275, POSITIVE_LENGTH_MEASURE(1.E-6), #274);
#274 = COLOUR_RGB('', 0., 0., 1.);
#275 = DRAUGHTING_PRE_DEFINED_CURVE_FONT('continuous');
#276 = STYLED_ITEM('', (#272), #265);
#277 = PRESENTATION_STYLE_ASSIGNMENT((#278));
#278 = CURVE_STYLE('', #280, POSITIVE_LENGTH_MEASURE(1.E-6), #279);
#279 = COLOUR_RGB('', 0., 0., 1.);
#280 = DRAUGHTING_PRE_DEFINED_CURVE_FONT('continuous');
#281 = OVER_RIDING_STYLED_ITEM('', (#277), #230, #276);
#282 = PRESENTATION_STYLE_ASSIGNMENT((#283));
#283 = CURVE_STYLE('', #285, POSITIVE_LENGTH_MEASURE(1.E-6), #284);
#284 = COLOUR_RGB('', 0., 0., 1.);
#285 = DRAUGHTING_PRE_DEFINED_CURVE_FONT('continuous');
#286 = OVER_RIDING_STYLED_ITEM('', (#282), #237, #276);
#287 = PRESENTATION_STYLE_ASSIGNMENT((#288));
#288 = CURVE_STYLE('', #290, POSITIVE_LENGTH_MEASURE(1.E-6), #289);
#289 = COLOUR_RGB('', 0., 0., 1.);
#290 = DRAUGHTING_PRE_DEFINED_CURVE_FONT('continuous');
#291 = OVER_RIDING_STYLED_ITEM('', (#287), #244, #276);
#292 = PRESENTATION_STYLE_ASSIGNMENT((#293));
#293 = CURVE_STYLE('', #295, POSITIVE_LENGTH_MEASURE(1.E-6), #294);
#294 = COLOUR_RGB('', 0., 0., 1.);
#295 = DRAUGHTING_PRE_DEFINED_CURVE_FONT('continuous');
#296 = OVER_RIDING_STYLED_ITEM('', (#292), #251, #276);
#297 = PRESENTATION_STYLE_ASSIGNMENT((#298));
#298 = CURVE_STYLE('', #300, POSITIVE_LENGTH_MEASURE(1.E-6), #299);
#299 = COLOUR_RGB('', 0., 0., 1.);
#300 = DRAUGHTING_PRE_DEFINED_CURVE_FONT('continuous');
#301 = OVER_RIDING_STYLED_ITEM('', (#297), #258, #276);
#302 = AXIS2_PLACEMENT_3D('CIP', #303, #304, #305);
#303 = CARTESIAN_POINT('', (3.33321611696598E-31, 5.44355502220998E-15, -88.9));
#304 = DIRECTION('', (-3.74939945665465E-33, -6.12323399573677E-17, 1.));
#305 = DIRECTION('', (1., -6.12323399573677E-17, 0.));
#306 = AXIS2_PLACEMENT_3D('MCS', #307, #308, #309);
#307 = CARTESIAN_POINT('', (1.69847795386455E-31, 2.77382500006876E-15, -45.3));
#308 = DIRECTION('', (-3.74939945665465E-33, -6.12323399573677E-17, 1.));
#309 = DIRECTION('', (1., -6.12323399573677E-17, 0.));
#310 = AXIS2_PLACEMENT_3D('PCS', #311, #312, #313);
#311 = CARTESIAN_POINT('', (0., 0., 0.));
#312 = DIRECTION('', (0., 0., 1.));
#313 = DIRECTION('', (1., 0., 0.));
#314 = CARTESIAN_POINT('CRP', (6.35, 0., -88.9));
#315 = (
   GEOMETRIC_REPRESENTATION_CONTEXT (3)
   GLOBAL_UNCERTAINTY_ASSIGNED_CONTEXT ((#317))
   GLOBAL_UNIT_ASSIGNED_CONTEXT ((#316, #318, #319))
   REPRESENTATION_CONTEXT ('', '3D')
);
#316 = (
   LENGTH_UNIT ()
   NAMED_UNIT (*)
   SI_UNIT (.MILLI., .METRE.)
);
#317 = UNCERTAINTY_MEASURE_WITH_UNIT(LENGTH_MEASURE(1.E-6), #316, 'DISTANCE_ACCURACY_VALUE', '');
#318 = (
   NAMED_UNIT (*)
   SI_UNIT ($, .STERADIAN.)
   SOLID_ANGLE_UNIT ()
);
#319 = (
   NAMED_UNIT (*)
   PLANE_ANGLE_UNIT ()
   SI_UNIT ($, .RADIAN.)
);
#320 = SHAPE_REPRESENTATION('', (), #315);
#321 = PRODUCT_DEFINITION_SHAPE('', '', #322);
#322 = PRODUCT_DEFINITION('', '', #325, #329);
#323 = APPLICATION_CONTEXT('configuration controlled 3D designs of mechanical parts and assemblies');
#324 = APPLICATION_PROTOCOL_DEFINITION('International Standard', 'automotive_design', 2002, #323);
#325 = PRODUCT_DEFINITION_FORMATION_WITH_SPECIFIED_SOURCE('', '', #326, .NOT_KNOWN.);
#326 = PRODUCT('NONE', '1P341-1270-XA       1630', '', (#327));
#327 = PRODUCT_CONTEXT('', #323, 'mechanical');
#328 = PRODUCT_RELATED_PRODUCT_CATEGORY('detail', '', (#326));
#329 = PRODUCT_DEFINITION_CONTEXT('part definition', #323, 'design');
#330 = SHAPE_DEFINITION_REPRESENTATION(#321, #320);
#331 = CONSTRUCTIVE_GEOMETRY_REPRESENTATION('supplemental geometry', (#302, #306, #310), #315);
#332 = CONSTRUCTIVE_GEOMETRY_REPRESENTATION_RELATIONSHIP('', '', #320, #331);
#333 = SHAPE_REPRESENTATION_RELATIONSHIP('', '', #320, #334);
#334 = SHAPE_REPRESENTATION('', (#271), #315);
#335 = SHAPE_REPRESENTATION_RELATIONSHIP('', '', #320, #336);
#336 = ADVANCED_BREP_SHAPE_REPRESENTATION('', (#1, #116), #315);
ENDSEC;
END-ISO-10303-21;
