ISO-10303-21;
HEADER;
FILE_DESCRIPTION(('STEP'), '1');
FILE_NAME('C:\\Users\\ds2002\\OneDrive - Sandvik\\HomeShare\\Documents\\Batchrepair\\CorSRT2\\NEW_MILSQ_SLD\\Output\\MOD000000000000000020082275500000.stp', '2019-01-02T12:11:27', (''), (''), 'Express v3.0.0.0', 'Express Tool', 'Unknown');
FILE_SCHEMA(('AUTOMOTIVE_DESIGN'));
ENDSEC;

DATA;
#1 = MANIFOLD_SOLID_BREP('NOCUT', #2);
#2 = CLOSED_SHELL('', (#3, #50, #59, #98));
#3 = ADVANCED_FACE('', (#4), #31, .T.);
#4 = FACE_OUTER_BOUND('', #5, .T.);
#5 = EDGE_LOOP('', (#6, #16, #23, #24));
#6 = ORIENTED_EDGE('', *, *, #7, .T.);
#7 = EDGE_CURVE('', #8, #10, #12, .T.);
#8 = VERTEX_POINT('', #9);
#9 = CARTESIAN_POINT('', (-12.7, 8.55415789204427E-16, -1.27));
#10 = VERTEX_POINT('', #11);
#11 = CARTESIAN_POINT('', (-11.43, 6.99885645712712E-16, 0.));
#12 = LINE('', #13, #14);
#13 = CARTESIAN_POINT('', (-12.7, 8.55415789204427E-16, -1.27));
#14 = VECTOR('', #15, 1.79605122421383);
#15 = DIRECTION('', (1.27, -1.55530143491715E-16, 1.27));
#16 = ORIENTED_EDGE('', *, *, #17, .T.);
#17 = EDGE_CURVE('', #10, #10, #18, .T.);
#18 = CIRCLE('', #19, 11.43);
#19 = AXIS2_PLACEMENT_3D('', #20, #21, #22);
#20 = CARTESIAN_POINT('', (1.88737914186277E-15, -3.33066907387547E-15, -1.97215226305253E-31));
#21 = DIRECTION('', (4.3381513999425E-33, 6.12323399573677E-17, -1.));
#22 = DIRECTION('', (-1., 1.07700099452085E-16, 2.25657770314986E-33));
#23 = ORIENTED_EDGE('', *, *, #7, .F.);
#24 = ORIENTED_EDGE('', *, *, #25, .F.);
#25 = EDGE_CURVE('', #8, #8, #26, .T.);
#26 = CIRCLE('', #27, 12.7);
#27 = AXIS2_PLACEMENT_3D('', #28, #29, #30);
#28 = CARTESIAN_POINT('', (6.43929354282591E-15, -1.99840144432528E-15, -1.27));
#29 = DIRECTION('', (0., 0., -1.));
#30 = DIRECTION('', (-1., 2.24710018388166E-16, 0.));
#31 = (
   BOUNDED_SURFACE ()
   B_SPLINE_SURFACE (1, 2, ((#32, #33, #34, #35, #36, #37, #38, #39, #40), (#41, #42, #43, #44, #45, #46, #47, #48, #49)), .UNSPECIFIED., .F., .T., .U.)
   B_SPLINE_SURFACE_WITH_KNOTS ((2, 2), (3, 2, 2, 2, 3), (0., 1.), (0., 0.25, 0.5, 0.75, 1.), .UNSPECIFIED.)
   GEOMETRIC_REPRESENTATION_ITEM ()
   RATIONAL_B_SPLINE_SURFACE (((1., 0.707106781186548, 1., 0.707106781186548, 1., 0.707106781186548, 1., 0.707106781186548, 1.), (1., 0.707106781186548, 1., 0.707106781186548, 1., 0.707106781186548, 1., 0.707106781186548, 1.)))
   REPRESENTATION_ITEM ('')
   SURFACE ()
);
#32 = CARTESIAN_POINT('', (-12.7, -2.75039133857249E-15, -1.27));
#33 = CARTESIAN_POINT('', (-12.7, 12.7, -1.27000000000004));
#34 = CARTESIAN_POINT('', (6.96356552667667E-15, 12.7, -1.27000000000004));
#35 = CARTESIAN_POINT('', (12.7, 12.7, -1.27000000000004));
#36 = CARTESIAN_POINT('', (12.7, -7.68471589246207E-15, -1.27));
#37 = CARTESIAN_POINT('', (12.7, -12.7, -1.26999999999996));
#38 = CARTESIAN_POINT('', (3.58454240770423E-15, -12.7, -1.26999999999996));
#39 = CARTESIAN_POINT('', (-12.7, -12.7, -1.26999999999996));
#40 = CARTESIAN_POINT('', (-12.7, -2.75039133857249E-15, -1.27));
#41 = CARTESIAN_POINT('', (-11.43, 6.99885645712711E-16, -8.75811540203011E-47));
#42 = CARTESIAN_POINT('', (-11.43, 11.43, -3.39728245535298E-14));
#43 = CARTESIAN_POINT('', (6.7168492989822E-15, 11.43, -3.39728245535298E-14));
#44 = CARTESIAN_POINT('', (11.43, 11.43, -3.39728245535298E-14));
#45 = CARTESIAN_POINT('', (11.43, -3.74100645278791E-15, -4.60420534393431E-30));
#46 = CARTESIAN_POINT('', (11.43, -11.43, 3.39728245535298E-14));
#47 = CARTESIAN_POINT('', (3.675728491907E-15, -11.43, 3.39728245535298E-14));
#48 = CARTESIAN_POINT('', (-11.43, -11.43, 3.39728245535298E-14));
#49 = CARTESIAN_POINT('', (-11.43, 6.99885645712711E-16, -8.75811540203011E-47));
#50 = ADVANCED_FACE('', (#51), #54, .T.);
#51 = FACE_OUTER_BOUND('', #52, .T.);
#52 = EDGE_LOOP('', (#53));
#53 = ORIENTED_EDGE('', *, *, #17, .F.);
#54 = B_SPLINE_SURFACE_WITH_KNOTS('', 1, 1, ((#55, #56), (#57, #58)), .UNSPECIFIED., .F., .F., .U., (2, 2), (2, 2), (6.3509071197169, 29.2109071197169), (6.3509071197169, 29.2109071197169), .UNSPECIFIED.);
#55 = CARTESIAN_POINT('', (11.43, -11.43, -6.99885645712718E-16));
#56 = CARTESIAN_POINT('', (-11.43, -11.43, -6.99885645712718E-16));
#57 = CARTESIAN_POINT('', (11.43, 11.43, 6.99885645712708E-16));
#58 = CARTESIAN_POINT('', (-11.43, 11.43, 6.99885645712708E-16));
#59 = ADVANCED_FACE('', (#60), #79, .T.);
#60 = FACE_OUTER_BOUND('', #61, .T.);
#61 = EDGE_LOOP('', (#62, #71, #77, #78));
#62 = ORIENTED_EDGE('', *, *, #63, .F.);
#63 = EDGE_CURVE('', #64, #64, #66, .T.);
#64 = VERTEX_POINT('', #65);
#65 = CARTESIAN_POINT('', (-12.7, 5.29782205311145E-15, -73.82));
#66 = CIRCLE('', #67, 12.7);
#67 = AXIS2_PLACEMENT_3D('', #68, #69, #70);
#68 = CARTESIAN_POINT('', (1.22124532708767E-15, 6.66133814775094E-16, -73.82));
#69 = DIRECTION('', (-4.56138687914719E-31, -3.80843932659854E-15, -1.));
#70 = DIRECTION('', (-1., 1.19770501456856E-16, 0.));
#71 = ORIENTED_EDGE('', *, *, #72, .F.);
#72 = EDGE_CURVE('', #8, #64, #73, .T.);
#73 = LINE('', #74, #75);
#74 = CARTESIAN_POINT('', (-12.7, 8.55415789204427E-16, -1.27));
#75 = VECTOR('', #76, 72.55);
#76 = DIRECTION('', (0., 4.44240626390702E-15, -72.55));
#77 = ORIENTED_EDGE('', *, *, #25, .T.);
#78 = ORIENTED_EDGE('', *, *, #72, .T.);
#79 = (
   BOUNDED_SURFACE ()
   B_SPLINE_SURFACE (1, 2, ((#80, #81, #82, #83, #84, #85, #86, #87, #88), (#89, #90, #91, #92, #93, #94, #95, #96, #97)), .UNSPECIFIED., .F., .T., .U.)
   B_SPLINE_SURFACE_WITH_KNOTS ((2, 2), (3, 2, 2, 2, 3), (-0.278864798166755, 1.), (0., 0.25, 0.5, 0.75, 1.), .UNSPECIFIED.)
   GEOMETRIC_REPRESENTATION_ITEM ()
   RATIONAL_B_SPLINE_SURFACE (((1., 0.707106781186548, 1., 0.707106781186548, 1., 0.707106781186548, 1., 0.707106781186548, 1.), (1., 0.707106781186548, 1., 0.707106781186548, 1., 0.707106781186548, 1., 0.707106781186548, 1.)))
   REPRESENTATION_ITEM ('')
   SURFACE ()
);
#80 = CARTESIAN_POINT('', (-12.7, 5.07426328278002E-15, -73.82));
#81 = CARTESIAN_POINT('', (-12.7, 12.7, -73.82));
#82 = CARTESIAN_POINT('', (-7.13868458831766E-15, 12.7, -73.82));
#83 = CARTESIAN_POINT('', (12.7, 12.7, -73.82));
#84 = CARTESIAN_POINT('', (12.7, 1.91295878544903E-14, -73.82));
#85 = CARTESIAN_POINT('', (12.7, -12.7, -73.82));
#86 = CARTESIAN_POINT('', (8.47194141830977E-15, -12.7, -73.82));
#87 = CARTESIAN_POINT('', (-12.7, -12.7, -73.82));
#88 = CARTESIAN_POINT('', (-12.7, 5.07426328278002E-15, -73.82));
#89 = CARTESIAN_POINT('', (-12.7, 8.55415789204427E-16, -1.27));
#90 = CARTESIAN_POINT('', (-12.7, 12.7, -1.27));
#91 = CARTESIAN_POINT('', (-7.13868458831766E-15, 12.7, -1.27));
#92 = CARTESIAN_POINT('', (12.7, 12.7, -1.27));
#93 = CARTESIAN_POINT('', (12.7, 1.49107403609147E-14, -1.27));
#94 = CARTESIAN_POINT('', (12.7, -12.7, -1.27));
#95 = CARTESIAN_POINT('', (8.47194141830977E-15, -12.7, -1.27));
#96 = CARTESIAN_POINT('', (-12.7, -12.7, -1.27));
#97 = CARTESIAN_POINT('', (-12.7, 8.55415789204427E-16, -1.27));
#98 = ADVANCED_FACE('', (#99), #102, .T.);
#99 = FACE_OUTER_BOUND('', #100, .T.);
#100 = EDGE_LOOP('', (#101));
#101 = ORIENTED_EDGE('', *, *, #63, .T.);
#102 = B_SPLINE_SURFACE_WITH_KNOTS('', 1, 1, ((#103, #104), (#105, #106)), .UNSPECIFIED., .F., .F., .U., (2, 2), (2, 2), (121.346277185383, 146.746277185383), (117.21827666532, 142.61827666532), .UNSPECIFIED.);
#103 = CARTESIAN_POINT('', (-12.7, 12.7, -73.82));
#104 = CARTESIAN_POINT('', (-12.7, -12.7, -73.82));
#105 = CARTESIAN_POINT('', (12.7, 12.7, -73.82));
#106 = CARTESIAN_POINT('', (12.7, -12.7, -73.82));
#107 = DRAUGHTING_MODEL('', (#115, #229, #276, #281, #286, #291, #296, #301), #315);
#108 = PRESENTATION_STYLE_ASSIGNMENT((#109));
#109 = SURFACE_STYLE_USAGE(.POSITIVE., #110);
#110 = SURFACE_SIDE_STYLE('', (#111));
#111 = SURFACE_STYLE_FILL_AREA(#112);
#112 = FILL_AREA_STYLE('', (#113));
#113 = FILL_AREA_STYLE_COLOUR('', #114);
#114 = COLOUR_RGB('', 0.50196078431373, 0.50196078431373, 0.50196078431373);
#115 = STYLED_ITEM('', (#108), #1);
#116 = MANIFOLD_SOLID_BREP('CUT', #117);
#117 = CLOSED_SHELL('', (#118, #135, #174, #213));
#118 = ADVANCED_FACE('', (#119), #130, .T.);
#119 = FACE_OUTER_BOUND('', #120, .T.);
#120 = EDGE_LOOP('', (#121));
#121 = ORIENTED_EDGE('', *, *, #122, .F.);
#122 = EDGE_CURVE('', #123, #123, #125, .T.);
#123 = VERTEX_POINT('', #124);
#124 = CARTESIAN_POINT('', (-12.7, 5.29782205311145E-15, -73.82));
#125 = CIRCLE('', #126, 12.7);
#126 = AXIS2_PLACEMENT_3D('', #127, #128, #129);
#127 = CARTESIAN_POINT('', (1.22124532708767E-15, 6.66133814775094E-16, -73.82));
#128 = DIRECTION('', (-4.56138687914719E-31, -3.80843932659854E-15, -1.));
#129 = DIRECTION('', (-1., 1.19770501456856E-16, 0.));
#130 = B_SPLINE_SURFACE_WITH_KNOTS('', 1, 1, ((#131, #132), (#133, #134)), .UNSPECIFIED., .F., .F., .U., (2, 2), (2, 2), (117.21827666532, 142.61827666532), (121.346277185383, 146.746277185383), .UNSPECIFIED.);
#131 = CARTESIAN_POINT('', (-12.7, 12.7, -73.82));
#132 = CARTESIAN_POINT('', (12.7, 12.7, -73.82));
#133 = CARTESIAN_POINT('', (-12.7, -12.7, -73.82));
#134 = CARTESIAN_POINT('', (12.7, -12.7, -73.82));
#135 = ADVANCED_FACE('', (#136), #155, .T.);
#136 = FACE_OUTER_BOUND('', #137, .T.);
#137 = EDGE_LOOP('', (#138, #139, #147, #154));
#138 = ORIENTED_EDGE('', *, *, #122, .T.);
#139 = ORIENTED_EDGE('', *, *, #140, .T.);
#140 = EDGE_CURVE('', #123, #141, #143, .T.);
#141 = VERTEX_POINT('', #142);
#142 = CARTESIAN_POINT('', (-12.7, 8.50560064645807E-15, -126.207));
#143 = LINE('', #144, #145);
#144 = CARTESIAN_POINT('', (-12.7, 5.29782205311145E-15, -73.82));
#145 = VECTOR('', #146, 52.387);
#146 = DIRECTION('', (0., 3.20777859334662E-15, -52.387));
#147 = ORIENTED_EDGE('', *, *, #148, .F.);
#148 = EDGE_CURVE('', #141, #141, #149, .T.);
#149 = CIRCLE('', #150, 12.7);
#150 = AXIS2_PLACEMENT_3D('', #151, #152, #153);
#151 = CARTESIAN_POINT('', (5.38458166943201E-15, 9.76996261670138E-15, -126.207));
#152 = DIRECTION('', (1.11896493820488E-15, -3.64034717732382E-15, -1.));
#153 = DIRECTION('', (-1., -9.95560606490793E-17, -1.11896493820488E-15));
#154 = ORIENTED_EDGE('', *, *, #140, .F.);
#155 = (
   BOUNDED_SURFACE ()
   B_SPLINE_SURFACE (1, 2, ((#156, #157, #158, #159, #160, #161, #162, #163, #164), (#165, #166, #167, #168, #169, #170, #171, #172, #173)), .UNSPECIFIED., .F., .T., .U.)
   B_SPLINE_SURFACE_WITH_KNOTS ((2, 2), (3, 2, 2, 2, 3), (-1.20230918385334, -0.278864798166755), (0., 0.25, 0.5, 0.75, 1.), .UNSPECIFIED.)
   GEOMETRIC_REPRESENTATION_ITEM ()
   RATIONAL_B_SPLINE_SURFACE (((1., 0.707106781186548, 1., 0.707106781186548, 1., 0.707106781186548, 1., 0.707106781186548, 1.), (1., 0.707106781186548, 1., 0.707106781186548, 1., 0.707106781186548, 1., 0.707106781186548, 1.)))
   REPRESENTATION_ITEM ('')
   SURFACE ()
);
#156 = CARTESIAN_POINT('', (-12.7, -4.75337674939367E-16, -126.207));
#157 = CARTESIAN_POINT('', (-12.7, 12.7, -126.207));
#158 = CARTESIAN_POINT('', (-7.02614812044875E-15, 12.7, -126.207));
#159 = CARTESIAN_POINT('', (12.7, 12.7, -126.207));
#160 = CARTESIAN_POINT('', (12.7, 1.31328693561081E-14, -126.207));
#161 = CARTESIAN_POINT('', (12.7, -12.7, -126.207));
#162 = CARTESIAN_POINT('', (8.13736034551583E-15, -12.7, -126.207));
#163 = CARTESIAN_POINT('', (-12.7, -12.7, -126.207));
#164 = CARTESIAN_POINT('', (-12.7, -4.75337674939367E-16, -126.207));
#165 = CARTESIAN_POINT('', (-12.7, 5.29782205311145E-15, -73.82));
#166 = CARTESIAN_POINT('', (-12.7, 12.7, -73.82));
#167 = CARTESIAN_POINT('', (-7.02614812044875E-15, 12.7, -73.82));
#168 = CARTESIAN_POINT('', (12.7, 12.7, -73.82));
#169 = CARTESIAN_POINT('', (12.7, 1.89060290841589E-14, -73.82));
#170 = CARTESIAN_POINT('', (12.7, -12.7, -73.82));
#171 = CARTESIAN_POINT('', (8.13736034551582E-15, -12.7, -73.82));
#172 = CARTESIAN_POINT('', (-12.7, -12.7, -73.82));
#173 = CARTESIAN_POINT('', (-12.7, 5.29782205311145E-15, -73.82));
#174 = ADVANCED_FACE('', (#175), #194, .T.);
#175 = FACE_OUTER_BOUND('', #176, .T.);
#176 = EDGE_LOOP('', (#177, #185, #186, #187));
#177 = ORIENTED_EDGE('', *, *, #178, .F.);
#178 = EDGE_CURVE('', #141, #179, #181, .T.);
#179 = VERTEX_POINT('', #180);
#180 = CARTESIAN_POINT('', (-12.1447354221997, 8.52015774265011E-15, -127.));
#181 = LINE('', #182, #183);
#182 = CARTESIAN_POINT('', (-12.7, 8.50560064645807E-15, -126.207));
#183 = VECTOR('', #184, 0.96807424888784);
#184 = DIRECTION('', (0.555264577800299, 1.45570961920403E-17, -0.793000000000006));
#185 = ORIENTED_EDGE('', *, *, #148, .T.);
#186 = ORIENTED_EDGE('', *, *, #178, .T.);
#187 = ORIENTED_EDGE('', *, *, #188, .F.);
#188 = EDGE_CURVE('', #179, #179, #189, .T.);
#189 = CIRCLE('', #190, 12.1447354221997);
#190 = AXIS2_PLACEMENT_3D('', #191, #192, #193);
#191 = CARTESIAN_POINT('', (1.4432899320127E-15, -1.77635683940025E-15, -127.));
#192 = DIRECTION('', (0., 0., -1.));
#193 = DIRECTION('', (-1., 8.47817117796496E-16, 0.));
#194 = (
   BOUNDED_SURFACE ()
   B_SPLINE_SURFACE (2, 1, ((#195, #196), (#197, #198), (#199, #200), (#201, #202), (#203, #204), (#205, #206), (#207, #208), (#209, #210), (#211, #212)), .UNSPECIFIED., .T., .F., .U.)
   B_SPLINE_SURFACE_WITH_KNOTS ((3, 2, 2, 2, 3), (2, 2), (0., 0.25, 0.5, 0.75, 1.), (0., 1.), .UNSPECIFIED.)
   GEOMETRIC_REPRESENTATION_ITEM ()
   RATIONAL_B_SPLINE_SURFACE (((1., 1.), (0.707106781186548, 0.707106781186548), (1., 1.), (0.707106781186548, 0.707106781186548), (1., 1.), (0.707106781186548, 0.707106781186548), (1., 1.), (0.707106781186548, 0.707106781186548), (1., 1.)))
   REPRESENTATION_ITEM ('')
   SURFACE ()
);
#195 = CARTESIAN_POINT('', (-12.7, 8.50560064645807E-15, -126.207));
#196 = CARTESIAN_POINT('', (-12.1447354221997, 1.28718382214234E-14, -127.));
#197 = CARTESIAN_POINT('', (-12.7, 12.7, -126.207));
#198 = CARTESIAN_POINT('', (-12.1447354221997, 12.1447354221997, -127.));
#199 = CARTESIAN_POINT('', (1.81085352092447E-14, 12.7, -126.207));
#200 = CARTESIAN_POINT('', (1.74017470203285E-14, 12.1447354221997, -127.));
#201 = CARTESIAN_POINT('', (12.7, 12.7, -126.207));
#202 = CARTESIAN_POINT('', (12.1447354221997, 12.1447354221997, -127.));
#203 = CARTESIAN_POINT('', (12.7, -2.38256891858433E-14, -126.207));
#204 = CARTESIAN_POINT('', (12.1447354221997, -1.80458752330455E-14, -127.));
#205 = CARTESIAN_POINT('', (12.7, -12.7, -126.207));
#206 = CARTESIAN_POINT('', (12.1447354221997, -12.1447354221997, -127.));
#207 = CARTESIAN_POINT('', (-1.26674531881395E-14, -12.7, -126.207));
#208 = CARTESIAN_POINT('', (-1.20286652980116E-14, -12.1447354221997, -127.));
#209 = CARTESIAN_POINT('', (-12.7, -12.7, -126.207));
#210 = CARTESIAN_POINT('', (-12.1447354221997, -12.1447354221997, -127.));
#211 = CARTESIAN_POINT('', (-12.7, 8.50560064645807E-15, -126.207));
#212 = CARTESIAN_POINT('', (-12.1447354221997, 1.28718382214234E-14, -127.));
#213 = ADVANCED_FACE('', (#214), #217, .T.);
#214 = FACE_OUTER_BOUND('', #215, .T.);
#215 = EDGE_LOOP('', (#216));
#216 = ORIENTED_EDGE('', *, *, #188, .T.);
#217 = B_SPLINE_SURFACE_WITH_KNOTS('', 1, 1, ((#218, #219), (#220, #221)), .UNSPECIFIED., .F., .F., .U., (2, 2), (2, 2), (6.7480390778588, 31.0375099222582), (6.7480390778588, 31.0375099222582), .UNSPECIFIED.);
#218 = CARTESIAN_POINT('', (12.1447354221997, -12.1447354221997, -127.));
#219 = CARTESIAN_POINT('', (12.1447354221997, 12.1447354221997, -127.));
#220 = CARTESIAN_POINT('', (-12.1447354221997, -12.1447354221997, -127.));
#221 = CARTESIAN_POINT('', (-12.1447354221997, 12.1447354221997, -127.));
#222 = PRESENTATION_STYLE_ASSIGNMENT((#223));
#223 = SURFACE_STYLE_USAGE(.POSITIVE., #224);
#224 = SURFACE_SIDE_STYLE('', (#225));
#225 = SURFACE_STYLE_FILL_AREA(#226);
#226 = FILL_AREA_STYLE('', (#227));
#227 = FILL_AREA_STYLE_COLOUR('', #228);
#228 = COLOUR_RGB('', 0.8, 0.8, 0.8);
#229 = STYLED_ITEM('', (#222), #116);
#230 = TRIMMED_CURVE('cutting part line', #231, (#235), (#236), .T., .CARTESIAN.);
#231 = LINE('', #232, #233);
#232 = CARTESIAN_POINT('', (-8.30342003670738E-31, -4.52017133565288E-15, -73.82));
#233 = VECTOR('', #234, 12.7);
#234 = DIRECTION('', (12.7, -2.33295215237571E-15, 0.));
#235 = CARTESIAN_POINT('', (-8.30342003670738E-31, -4.52017133565288E-15, -73.82));
#236 = CARTESIAN_POINT('', (12.7, -6.85312348802859E-15, -73.82));
#237 = TRIMMED_CURVE('cutting part line', #238, (#242), (#243), .T., .CARTESIAN.);
#238 = LINE('', #239, #240);
#239 = CARTESIAN_POINT('', (12.7, -6.85312348802859E-15, -73.82));
#240 = VECTOR('', #241, 52.387);
#241 = DIRECTION('', (0., -3.20777859334662E-15, -52.387));
#242 = CARTESIAN_POINT('', (12.7, -6.85312348802859E-15, -73.82));
#243 = CARTESIAN_POINT('', (12.7, -1.00609020813752E-14, -126.207));
#244 = TRIMMED_CURVE('cutting part line', #245, (#249), (#250), .T., .CARTESIAN.);
#245 = LINE('', #246, #247);
#246 = CARTESIAN_POINT('', (12.7, -1.00609020813752E-14, -126.207));
#247 = VECTOR('', #248, 0.96807424888784);
#248 = DIRECTION('', (-0.555264577800299, 5.34432025962633E-17, -0.793000000000006));
#249 = CARTESIAN_POINT('', (12.7, -1.00609020813752E-14, -126.207));
#250 = CARTESIAN_POINT('', (12.1447354221997, -1.00074588787789E-14, -127.));
#251 = TRIMMED_CURVE('cutting part line', #252, (#256), (#257), .T., .CARTESIAN.);
#252 = LINE('', #253, #254);
#253 = CARTESIAN_POINT('', (12.1447354221997, -1.00074588787789E-14, -127.));
#254 = VECTOR('', #255, 12.1447354221997);
#255 = DIRECTION('', (-12.1447354221997, 2.23095170419325E-15, 0.));
#256 = CARTESIAN_POINT('', (12.1447354221997, -1.00074588787789E-14, -127.));
#257 = CARTESIAN_POINT('', (-9.52347461990279E-31, -7.77650717458569E-15, -127.));
#258 = TRIMMED_CURVE('cutting part line', #259, (#263), (#264), .T., .CARTESIAN.);
#259 = LINE('', #260, #261);
#260 = CARTESIAN_POINT('', (-1.42852119298542E-30, -7.77650717458569E-15, -127.));
#261 = VECTOR('', #262, 53.18);
#262 = DIRECTION('', (5.98179189314682E-31, 3.25633583893281E-15, 53.18));
#263 = CARTESIAN_POINT('', (-1.42852119298542E-30, -7.77650717458569E-15, -127.));
#264 = CARTESIAN_POINT('', (-8.30342003670738E-31, -4.52017133565288E-15, -73.82));
#265 = COMPOSITE_CURVE('cutting part line', (#266, #267, #268, #269, #270), .U.);
#266 = COMPOSITE_CURVE_SEGMENT(.CONTINUOUS., .T., #230);
#267 = COMPOSITE_CURVE_SEGMENT(.CONTINUOUS., .T., #237);
#268 = COMPOSITE_CURVE_SEGMENT(.CONTINUOUS., .T., #244);
#269 = COMPOSITE_CURVE_SEGMENT(.CONTINUOUS., .T., #251);
#270 = COMPOSITE_CURVE_SEGMENT(.CONTINUOUS., .T., #258);
#271 = GEOMETRIC_SET('', (#265, #314));
#272 = PRESENTATION_STYLE_ASSIGNMENT((#273));
#273 = CURVE_STYLE('', #275, POSITIVE_LENGTH_MEASURE(1.E-6), #274);
#274 = COLOUR_RGB('', 0., 0., 1.);
#275 = DRAUGHTING_PRE_DEFINED_CURVE_FONT('continuous');
#276 = STYLED_ITEM('', (#272), #265);
#277 = PRESENTATION_STYLE_ASSIGNMENT((#278));
#278 = CURVE_STYLE('', #280, POSITIVE_LENGTH_MEASURE(1.E-6), #279);
#279 = COLOUR_RGB('', 0., 0., 1.);
#280 = DRAUGHTING_PRE_DEFINED_CURVE_FONT('continuous');
#281 = OVER_RIDING_STYLED_ITEM('', (#277), #230, #276);
#282 = PRESENTATION_STYLE_ASSIGNMENT((#283));
#283 = CURVE_STYLE('', #285, POSITIVE_LENGTH_MEASURE(1.E-6), #284);
#284 = COLOUR_RGB('', 0., 0., 1.);
#285 = DRAUGHTING_PRE_DEFINED_CURVE_FONT('continuous');
#286 = OVER_RIDING_STYLED_ITEM('', (#282), #237, #276);
#287 = PRESENTATION_STYLE_ASSIGNMENT((#288));
#288 = CURVE_STYLE('', #290, POSITIVE_LENGTH_MEASURE(1.E-6), #289);
#289 = COLOUR_RGB('', 0., 0., 1.);
#290 = DRAUGHTING_PRE_DEFINED_CURVE_FONT('continuous');
#291 = OVER_RIDING_STYLED_ITEM('', (#287), #244, #276);
#292 = PRESENTATION_STYLE_ASSIGNMENT((#293));
#293 = CURVE_STYLE('', #295, POSITIVE_LENGTH_MEASURE(1.E-6), #294);
#294 = COLOUR_RGB('', 0., 0., 1.);
#295 = DRAUGHTING_PRE_DEFINED_CURVE_FONT('continuous');
#296 = OVER_RIDING_STYLED_ITEM('', (#292), #251, #276);
#297 = PRESENTATION_STYLE_ASSIGNMENT((#298));
#298 = CURVE_STYLE('', #300, POSITIVE_LENGTH_MEASURE(1.E-6), #299);
#299 = COLOUR_RGB('', 0., 0., 1.);
#300 = DRAUGHTING_PRE_DEFINED_CURVE_FONT('continuous');
#301 = OVER_RIDING_STYLED_ITEM('', (#297), #258, #276);
#302 = AXIS2_PLACEMENT_3D('CIP', #303, #304, #305);
#303 = CARTESIAN_POINT('', (4.7617373099514E-31, 7.77650717458569E-15, -127.));
#304 = DIRECTION('', (-3.74939945665465E-33, -6.12323399573677E-17, 1.));
#305 = DIRECTION('', (1., -6.12323399573677E-17, 0.));
#306 = AXIS2_PLACEMENT_3D('MCS', #307, #308, #309);
#307 = CARTESIAN_POINT('', (2.17465168485969E-31, 3.55147571752732E-15, -58.));
#308 = DIRECTION('', (-3.74939945665465E-33, -6.12323399573677E-17, 1.));
#309 = DIRECTION('', (1., -6.12323399573677E-17, 0.));
#310 = AXIS2_PLACEMENT_3D('PCS', #311, #312, #313);
#311 = CARTESIAN_POINT('', (0., 0., 0.));
#312 = DIRECTION('', (0., 0., 1.));
#313 = DIRECTION('', (1., 0., 0.));
#314 = CARTESIAN_POINT('CRP', (12.7, 0., -127.));
#315 = (
   GEOMETRIC_REPRESENTATION_CONTEXT (3)
   GLOBAL_UNCERTAINTY_ASSIGNED_CONTEXT ((#317))
   GLOBAL_UNIT_ASSIGNED_CONTEXT ((#316, #318, #319))
   REPRESENTATION_CONTEXT ('', '3D')
);
#316 = (
   LENGTH_UNIT ()
   NAMED_UNIT (*)
   SI_UNIT (.MILLI., .METRE.)
);
#317 = UNCERTAINTY_MEASURE_WITH_UNIT(LENGTH_MEASURE(1.E-6), #316, 'DISTANCE_ACCURACY_VALUE', '');
#318 = (
   NAMED_UNIT (*)
   SI_UNIT ($, .STERADIAN.)
   SOLID_ANGLE_UNIT ()
);
#319 = (
   NAMED_UNIT (*)
   PLANE_ANGLE_UNIT ()
   SI_UNIT ($, .RADIAN.)
);
#320 = SHAPE_REPRESENTATION('', (), #315);
#321 = PRODUCT_DEFINITION_SHAPE('', '', #322);
#322 = PRODUCT_DEFINITION('', '', #325, #329);
#323 = APPLICATION_CONTEXT('configuration controlled 3D designs of mechanical parts and assemblies');
#324 = APPLICATION_PROTOCOL_DEFINITION('International Standard', 'automotive_design', 2002, #323);
#325 = PRODUCT_DEFINITION_FORMATION_WITH_SPECIFIED_SOURCE('', '', #326, .NOT_KNOWN.);
#326 = PRODUCT('NONE', '1P340-2540-XA       1640', '', (#327));
#327 = PRODUCT_CONTEXT('', #323, 'mechanical');
#328 = PRODUCT_RELATED_PRODUCT_CATEGORY('detail', '', (#326));
#329 = PRODUCT_DEFINITION_CONTEXT('part definition', #323, 'design');
#330 = SHAPE_DEFINITION_REPRESENTATION(#321, #320);
#331 = CONSTRUCTIVE_GEOMETRY_REPRESENTATION('supplemental geometry', (#302, #306, #310), #315);
#332 = CONSTRUCTIVE_GEOMETRY_REPRESENTATION_RELATIONSHIP('', '', #320, #331);
#333 = SHAPE_REPRESENTATION_RELATIONSHIP('', '', #320, #334);
#334 = SHAPE_REPRESENTATION('', (#271), #315);
#335 = SHAPE_REPRESENTATION_RELATIONSHIP('', '', #320, #336);
#336 = ADVANCED_BREP_SHAPE_REPRESENTATION('', (#1, #116), #315);
ENDSEC;
END-ISO-10303-21;
