ISO-10303-21;
HEADER;
FILE_DESCRIPTION(('STEP'), '1');
FILE_NAME('C:\\Users\\ds2002\\OneDrive - Sandvik\\HomeShare\\Documents\\Batchrepair\\CorSRT2\\NEW_MILSQ_SLD\\Output\\MOD000000000000000020082275300000.stp', '2019-01-02T12:11:26', (''), (''), 'Express v3.0.0.0', 'Express Tool', 'Unknown');
FILE_SCHEMA(('AUTOMOTIVE_DESIGN'));
ENDSEC;

DATA;
#1 = MANIFOLD_SOLID_BREP('NOCUT', #2);
#2 = CLOSED_SHELL('', (#3, #50, #59, #98));
#3 = ADVANCED_FACE('', (#4), #31, .T.);
#4 = FACE_OUTER_BOUND('', #5, .T.);
#5 = EDGE_LOOP('', (#6, #16, #23, #24));
#6 = ORIENTED_EDGE('', *, *, #7, .T.);
#7 = EDGE_CURVE('', #8, #10, #12, .T.);
#8 = VERTEX_POINT('', #9);
#9 = CARTESIAN_POINT('', (-9.525, 6.4156184190332E-16, -0.952500000000001));
#10 = VERTEX_POINT('', #11);
#11 = CARTESIAN_POINT('', (-8.5725, 5.24914234284534E-16, 0.));
#12 = LINE('', #13, #14);
#13 = CARTESIAN_POINT('', (-9.525, 6.4156184190332E-16, -0.952500000000001));
#14 = VECTOR('', #15, 1.34703841816037);
#15 = DIRECTION('', (0.952500000000001, -1.16647607618786E-16, 0.952500000000001));
#16 = ORIENTED_EDGE('', *, *, #17, .T.);
#17 = EDGE_CURVE('', #10, #10, #18, .T.);
#18 = CIRCLE('', #19, 8.5725);
#19 = AXIS2_PLACEMENT_3D('', #20, #21, #22);
#20 = CARTESIAN_POINT('', (4.16333634234434E-16, 4.44089209850063E-15, 2.83496887813801E-31));
#21 = DIRECTION('', (5.09914260327739E-33, 6.12323399573676E-17, -1.));
#22 = DIRECTION('', (-1., -7.01736343115104E-16, -4.80681009253414E-32));
#23 = ORIENTED_EDGE('', *, *, #7, .F.);
#24 = ORIENTED_EDGE('', *, *, #25, .F.);
#25 = EDGE_CURVE('', #8, #8, #26, .T.);
#26 = CIRCLE('', #27, 9.525);
#27 = AXIS2_PLACEMENT_3D('', #28, #29, #30);
#28 = CARTESIAN_POINT('', (-3.60822483003176E-16, -2.66453525910038E-15, -0.952500000000001));
#29 = DIRECTION('', (2.3311769545935E-17, -3.61693232088461E-17, -1.));
#30 = DIRECTION('', (-1., 3.47096808504325E-16, -2.3311769545935E-17));
#31 = (
   BOUNDED_SURFACE ()
   B_SPLINE_SURFACE (1, 2, ((#32, #33, #34, #35, #36, #37, #38, #39, #40), (#41, #42, #43, #44, #45, #46, #47, #48, #49)), .UNSPECIFIED., .F., .T., .U.)
   B_SPLINE_SURFACE_WITH_KNOTS ((2, 2), (3, 2, 2, 2, 3), (0., 1.), (0., 0.25, 0.5, 0.75, 1.), .UNSPECIFIED.)
   GEOMETRIC_REPRESENTATION_ITEM ()
   RATIONAL_B_SPLINE_SURFACE (((1., 0.707106781186548, 1., 0.707106781186548, 1., 0.707106781186548, 1., 0.707106781186548, 1.), (1., 0.707106781186548, 1., 0.707106781186548, 1., 0.707106781186548, 1., 0.707106781186548, 1.)))
   REPRESENTATION_ITEM ('')
   SURFACE ()
);
#32 = CARTESIAN_POINT('', (-9.52500000000001, 3.71653412981382E-15, -0.952500000000002));
#33 = CARTESIAN_POINT('', (-9.525, 9.52500000000001, -0.952499999999978));
#34 = CARTESIAN_POINT('', (3.82718548211062E-15, 9.525, -0.952499999999978));
#35 = CARTESIAN_POINT('', (9.52500000000001, 9.52499999999999, -0.952499999999978));
#36 = CARTESIAN_POINT('', (9.525, -1.0099574621077E-14, -0.952500000000002));
#37 = CARTESIAN_POINT('', (9.52499999999999, -9.52500000000001, -0.952500000000027));
#38 = CARTESIAN_POINT('', (-8.82244719259238E-15, -9.52500000000001, -0.952500000000027));
#39 = CARTESIAN_POINT('', (-9.52500000000001, -9.525, -0.952500000000027));
#40 = CARTESIAN_POINT('', (-9.52500000000001, 3.71653412981382E-15, -0.952500000000002));
#41 = CARTESIAN_POINT('', (-8.57250000000001, 5.24914234284538E-16, 2.18952885050753E-46));
#42 = CARTESIAN_POINT('', (-8.5725, 8.5725, 2.19824158875781E-14));
#43 = CARTESIAN_POINT('', (3.13638004456607E-15, 8.5725, 2.19824158875781E-14));
#44 = CARTESIAN_POINT('', (8.57250000000001, 8.57249999999999, 2.19824158875781E-14));
#45 = CARTESIAN_POINT('', (8.5725, -1.19095836415172E-14, 1.95251242678014E-30));
#46 = CARTESIAN_POINT('', (8.57249999999999, -8.57250000000001, -2.19824158875781E-14));
#47 = CARTESIAN_POINT('', (-8.24828936266662E-15, -8.57250000000001, -2.19824158875781E-14));
#48 = CARTESIAN_POINT('', (-8.57250000000001, -8.5725, -2.19824158875781E-14));
#49 = CARTESIAN_POINT('', (-8.57250000000001, 5.24914234284538E-16, 2.18952885050753E-46));
#50 = ADVANCED_FACE('', (#51), #54, .T.);
#51 = FACE_OUTER_BOUND('', #52, .T.);
#52 = EDGE_LOOP('', (#53));
#53 = ORIENTED_EDGE('', *, *, #17, .F.);
#54 = B_SPLINE_SURFACE_WITH_KNOTS('', 1, 1, ((#55, #56), (#57, #58)), .UNSPECIFIED., .F., .F., .U., (2, 2), (2, 2), (4.7631803397877, 21.9081803397877), (4.7631803397877, 21.9081803397877), .UNSPECIFIED.);
#55 = CARTESIAN_POINT('', (8.5725, -8.5725, 1.36859404809175E-14));
#56 = CARTESIAN_POINT('', (-8.5725, -8.5725, -5.24914234284522E-16));
#57 = CARTESIAN_POINT('', (8.5725, 8.5725, 5.24914234284537E-16));
#58 = CARTESIAN_POINT('', (-8.5725, 8.5725, -1.36859404809175E-14));
#59 = ADVANCED_FACE('', (#60), #79, .T.);
#60 = FACE_OUTER_BOUND('', #61, .T.);
#61 = EDGE_LOOP('', (#62, #71, #77, #78));
#62 = ORIENTED_EDGE('', *, *, #63, .F.);
#63 = EDGE_CURVE('', #64, #64, #66, .T.);
#64 = VERTEX_POINT('', #65);
#65 = CARTESIAN_POINT('', (-9.525, 4.37413220485456E-15, -61.91));
#66 = CIRCLE('', #67, 9.525);
#67 = AXIS2_PLACEMENT_3D('', #68, #69, #70);
#68 = CARTESIAN_POINT('', (1.88737914186277E-15, -2.88657986402541E-15, -61.91));
#69 = DIRECTION('', (0., 0., -1.));
#70 = DIRECTION('', (-1., 7.62279482297109E-16, 0.));
#71 = ORIENTED_EDGE('', *, *, #72, .T.);
#72 = EDGE_CURVE('', #64, #8, #73, .T.);
#73 = LINE('', #74, #75);
#74 = CARTESIAN_POINT('', (-9.525, 4.37413220485456E-15, -61.91));
#75 = VECTOR('', #76, 60.9575);
#76 = DIRECTION('', (0., -3.73257036295124E-15, 60.9575));
#77 = ORIENTED_EDGE('', *, *, #25, .T.);
#78 = ORIENTED_EDGE('', *, *, #72, .F.);
#79 = (
   BOUNDED_SURFACE ()
   B_SPLINE_SURFACE (1, 2, ((#80, #81, #82, #83, #84, #85, #86, #87, #88), (#89, #90, #91, #92, #93, #94, #95, #96, #97)), .UNSPECIFIED., .F., .T., .U.)
   B_SPLINE_SURFACE_WITH_KNOTS ((2, 2), (3, 2, 2, 2, 3), (-0.203563848166247, 1.), (0., 0.25, 0.5, 0.75, 1.), .UNSPECIFIED.)
   GEOMETRIC_REPRESENTATION_ITEM ()
   RATIONAL_B_SPLINE_SURFACE (((1., 0.707106781186548, 1., 0.707106781186548, 1., 0.707106781186548, 1., 0.707106781186548, 1.), (1., 0.707106781186548, 1., 0.707106781186548, 1., 0.707106781186548, 1., 0.707106781186548, 1.)))
   REPRESENTATION_ITEM ('')
   SURFACE ()
);
#80 = CARTESIAN_POINT('', (-9.52500000000001, 3.97223091577879E-15, -61.91));
#81 = CARTESIAN_POINT('', (-9.525, 9.525, -61.91));
#82 = CARTESIAN_POINT('', (-2.65579267514399E-15, 9.525, -61.91));
#83 = CARTESIAN_POINT('', (9.525, 9.525, -61.91));
#84 = CARTESIAN_POINT('', (9.52499999999999, -3.24984404944099E-15, -61.91));
#85 = CARTESIAN_POINT('', (9.52499999999999, -9.525, -61.91));
#86 = CARTESIAN_POINT('', (-8.71139156417592E-15, -9.525, -61.91));
#87 = CARTESIAN_POINT('', (-9.52500000000001, -9.525, -61.91));
#88 = CARTESIAN_POINT('', (-9.52500000000001, 3.97223091577879E-15, -61.91));
#89 = CARTESIAN_POINT('', (-9.525, 6.41561841903319E-16, -0.952500000000001));
#90 = CARTESIAN_POINT('', (-9.525, 9.525, -0.9525));
#91 = CARTESIAN_POINT('', (6.58088407348219E-15, 9.525, -0.952500000000002));
#92 = CARTESIAN_POINT('', (9.52500000000001, 9.525, -0.952500000000003));
#93 = CARTESIAN_POINT('', (9.52500000000001, -6.58051312331647E-15, -0.952500000000004));
#94 = CARTESIAN_POINT('', (9.525, -9.52500000000001, -0.952500000000004));
#95 = CARTESIAN_POINT('', (5.25285184450255E-16, -9.52500000000001, -0.952500000000003));
#96 = CARTESIAN_POINT('', (-9.525, -9.525, -0.952500000000002));
#97 = CARTESIAN_POINT('', (-9.525, 6.41561841903319E-16, -0.952500000000001));
#98 = ADVANCED_FACE('', (#99), #102, .T.);
#99 = FACE_OUTER_BOUND('', #100, .T.);
#100 = EDGE_LOOP('', (#101));
#101 = ORIENTED_EDGE('', *, *, #63, .T.);
#102 = B_SPLINE_SURFACE_WITH_KNOTS('', 1, 1, ((#103, #104), (#105, #106)), .UNSPECIFIED., .F., .F., .U., (2, 2), (2, 2), (97.669333690181, 116.719333690181), (93.503082979403, 112.553082979403), .UNSPECIFIED.);
#103 = CARTESIAN_POINT('', (-9.525, 9.52500000000001, -61.91));
#104 = CARTESIAN_POINT('', (-9.525, -9.52500000000001, -61.91));
#105 = CARTESIAN_POINT('', (9.52500000000001, 9.52500000000001, -61.91));
#106 = CARTESIAN_POINT('', (9.52500000000001, -9.52500000000001, -61.91));
#107 = DRAUGHTING_MODEL('', (#115, #229, #276, #281, #286, #291, #296, #301), #315);
#108 = PRESENTATION_STYLE_ASSIGNMENT((#109));
#109 = SURFACE_STYLE_USAGE(.POSITIVE., #110);
#110 = SURFACE_SIDE_STYLE('', (#111));
#111 = SURFACE_STYLE_FILL_AREA(#112);
#112 = FILL_AREA_STYLE('', (#113));
#113 = FILL_AREA_STYLE_COLOUR('', #114);
#114 = COLOUR_RGB('', 0.50196078431373, 0.50196078431373, 0.50196078431373);
#115 = STYLED_ITEM('', (#108), #1);
#116 = MANIFOLD_SOLID_BREP('CUT', #117);
#117 = CLOSED_SHELL('', (#118, #135, #174, #213));
#118 = ADVANCED_FACE('', (#119), #130, .T.);
#119 = FACE_OUTER_BOUND('', #120, .T.);
#120 = EDGE_LOOP('', (#121));
#121 = ORIENTED_EDGE('', *, *, #122, .F.);
#122 = EDGE_CURVE('', #123, #123, #125, .T.);
#123 = VERTEX_POINT('', #124);
#124 = CARTESIAN_POINT('', (-9.525, 4.37413220485456E-15, -61.91));
#125 = CIRCLE('', #126, 9.525);
#126 = AXIS2_PLACEMENT_3D('', #127, #128, #129);
#127 = CARTESIAN_POINT('', (1.88737914186277E-15, -2.88657986402541E-15, -61.91));
#128 = DIRECTION('', (0., 0., -1.));
#129 = DIRECTION('', (-1., 7.62279482297109E-16, 0.));
#130 = B_SPLINE_SURFACE_WITH_KNOTS('', 1, 1, ((#131, #132), (#133, #134)), .UNSPECIFIED., .F., .F., .U., (2, 2), (2, 2), (93.503082979403, 112.553082979403), (97.669333690181, 116.719333690181), .UNSPECIFIED.);
#131 = CARTESIAN_POINT('', (-9.52500000000001, 9.52500000000001, -61.91));
#132 = CARTESIAN_POINT('', (9.52500000000001, 9.52500000000001, -61.91));
#133 = CARTESIAN_POINT('', (-9.52500000000001, -9.52500000000001, -61.91));
#134 = CARTESIAN_POINT('', (9.52500000000001, -9.52500000000001, -61.91));
#135 = ADVANCED_FACE('', (#136), #155, .T.);
#136 = FACE_OUTER_BOUND('', #137, .T.);
#137 = EDGE_LOOP('', (#138, #139, #147, #154));
#138 = ORIENTED_EDGE('', *, *, #122, .T.);
#139 = ORIENTED_EDGE('', *, *, #140, .F.);
#140 = EDGE_CURVE('', #141, #123, #143, .T.);
#141 = VERTEX_POINT('', #142);
#142 = CARTESIAN_POINT('', (-9.525, 6.77027613206627E-15, -101.042));
#143 = LINE('', #144, #145);
#144 = CARTESIAN_POINT('', (-9.525, 6.77027613206627E-15, -101.042));
#145 = VECTOR('', #146, 39.132);
#146 = DIRECTION('', (0., -2.39614392721171E-15, 39.132));
#147 = ORIENTED_EDGE('', *, *, #148, .F.);
#148 = EDGE_CURVE('', #141, #141, #149, .T.);
#149 = CIRCLE('', #150, 9.52500000000001);
#150 = AXIS2_PLACEMENT_3D('', #151, #152, #153);
#151 = CARTESIAN_POINT('', (6.93889390390723E-16, 1.55431223447522E-15, -101.042));
#152 = DIRECTION('', (0., 0., -1.));
#153 = DIRECTION('', (-1., 3.02678398447805E-16, 0.));
#154 = ORIENTED_EDGE('', *, *, #140, .T.);
#155 = (
   BOUNDED_SURFACE ()
   B_SPLINE_SURFACE (1, 2, ((#156, #157, #158, #159, #160, #161, #162, #163, #164), (#165, #166, #167, #168, #169, #170, #171, #172, #173)), .UNSPECIFIED., .F., .T., .U.)
   B_SPLINE_SURFACE_WITH_KNOTS ((2, 2), (3, 2, 2, 2, 3), (-0.97619823288415, -0.203563848166247), (0., 0.25, 0.5, 0.75, 1.), .UNSPECIFIED.)
   GEOMETRIC_REPRESENTATION_ITEM ()
   RATIONAL_B_SPLINE_SURFACE (((1., 0.707106781186548, 1., 0.707106781186548, 1., 0.707106781186548, 1., 0.707106781186548, 1.), (1., 0.707106781186548, 1., 0.707106781186548, 1., 0.707106781186548, 1., 0.707106781186548, 1.)))
   REPRESENTATION_ITEM ('')
   SURFACE ()
);
#156 = CARTESIAN_POINT('', (-9.525, 7.26071206887997E-15, -101.042));
#157 = CARTESIAN_POINT('', (-9.525, 9.52500000000001, -101.042));
#158 = CARTESIAN_POINT('', (6.81625190886418E-15, 9.52500000000001, -101.042));
#159 = CARTESIAN_POINT('', (9.52500000000001, 9.525, -101.042));
#160 = CARTESIAN_POINT('', (9.52500000000001, -7.65165474491359E-16, -101.042));
#161 = CARTESIAN_POINT('', (9.525, -9.525, -101.042));
#162 = CARTESIAN_POINT('', (-4.31495583192869E-17, -9.525, -101.042));
#163 = CARTESIAN_POINT('', (-9.525, -9.525, -101.042));
#164 = CARTESIAN_POINT('', (-9.525, 7.26071206887997E-15, -101.042));
#165 = CARTESIAN_POINT('', (-9.525, 4.37413220485456E-15, -61.91));
#166 = CARTESIAN_POINT('', (-9.525, 9.52500000000001, -61.91));
#167 = CARTESIAN_POINT('', (6.81625190886418E-15, 9.525, -61.91));
#168 = CARTESIAN_POINT('', (9.52500000000001, 9.525, -61.91));
#169 = CARTESIAN_POINT('', (9.52500000000001, -3.65174533851677E-15, -61.91));
#170 = CARTESIAN_POINT('', (9.525, -9.52500000000001, -61.91));
#171 = CARTESIAN_POINT('', (-4.31495583192885E-17, -9.525, -61.91));
#172 = CARTESIAN_POINT('', (-9.525, -9.525, -61.91));
#173 = CARTESIAN_POINT('', (-9.525, 4.37413220485456E-15, -61.91));
#174 = ADVANCED_FACE('', (#175), #194, .T.);
#175 = FACE_OUTER_BOUND('', #176, .T.);
#176 = EDGE_LOOP('', (#177, #185, #186, #187));
#177 = ORIENTED_EDGE('', *, *, #178, .F.);
#178 = EDGE_CURVE('', #141, #179, #181, .T.);
#179 = VERTEX_POINT('', #180);
#180 = CARTESIAN_POINT('', (-9.13428419367898, 6.78051933468312E-15, -101.6));
#181 = LINE('', #182, #183);
#182 = CARTESIAN_POINT('', (-9.525, 6.77027613206627E-15, -101.042));
#183 = VECTOR('', #184, 0.681192220528888);
#184 = DIRECTION('', (0.390715806321021, 1.02432026168506E-17, -0.557999999999993));
#185 = ORIENTED_EDGE('', *, *, #148, .T.);
#186 = ORIENTED_EDGE('', *, *, #178, .T.);
#187 = ORIENTED_EDGE('', *, *, #188, .F.);
#188 = EDGE_CURVE('', #179, #179, #189, .T.);
#189 = CIRCLE('', #190, 9.13428419367898);
#190 = AXIS2_PLACEMENT_3D('', #191, #192, #193);
#191 = CARTESIAN_POINT('', (3.52495810318487E-15, -1.99840144432528E-15, -101.6));
#192 = DIRECTION('', (0., 0., -1.));
#193 = DIRECTION('', (-1., 9.61095647219243E-16, 0.));
#194 = (
   BOUNDED_SURFACE ()
   B_SPLINE_SURFACE (2, 1, ((#195, #196), (#197, #198), (#199, #200), (#201, #202), (#203, #204), (#205, #206), (#207, #208), (#209, #210), (#211, #212)), .UNSPECIFIED., .T., .F., .U.)
   B_SPLINE_SURFACE_WITH_KNOTS ((3, 2, 2, 2, 3), (2, 2), (0., 0.25, 0.5, 0.75, 1.), (0., 1.), .UNSPECIFIED.)
   GEOMETRIC_REPRESENTATION_ITEM ()
   RATIONAL_B_SPLINE_SURFACE (((1., 1.), (0.707106781186548, 0.707106781186548), (1., 1.), (0.707106781186548, 0.707106781186548), (1., 1.), (0.707106781186548, 0.707106781186548), (1., 1.), (0.707106781186548, 0.707106781186548), (1., 1.)))
   REPRESENTATION_ITEM ('')
   SURFACE ()
);
#195 = CARTESIAN_POINT('', (-9.525, 6.77027613206627E-15, -101.042));
#196 = CARTESIAN_POINT('', (-9.13428419367898, 5.50985203846253E-15, -101.6));
#197 = CARTESIAN_POINT('', (-9.525, 9.52500000000001, -101.042));
#198 = CARTESIAN_POINT('', (-9.13428419367897, 9.13428419367899, -101.6));
#199 = CARTESIAN_POINT('', (5.93723791343168E-15, 9.52500000000001, -101.042));
#200 = CARTESIAN_POINT('', (5.81096128753246E-15, 9.13428419367898, -101.6));
#201 = CARTESIAN_POINT('', (9.52500000000001, 9.52500000000001, -101.042));
#202 = CARTESIAN_POINT('', (9.13428419367899, 9.13428419367898, -101.6));
#203 = CARTESIAN_POINT('', (9.52500000000001, 6.13448882022461E-16, -101.042));
#204 = CARTESIAN_POINT('', (9.13428419367898, -3.94421959782843E-16, -101.6));
#205 = CARTESIAN_POINT('', (9.52500000000001, -9.525, -101.042));
#206 = CARTESIAN_POINT('', (9.13428419367898, -9.13428419367898, -101.6));
#207 = CARTESIAN_POINT('', (9.46886739575728E-16, -9.525, -101.042));
#208 = CARTESIAN_POINT('', (1.02531447931621E-15, -9.13428419367898, -101.6));
#209 = CARTESIAN_POINT('', (-9.525, -9.525, -101.042));
#210 = CARTESIAN_POINT('', (-9.13428419367898, -9.13428419367898, -101.6));
#211 = CARTESIAN_POINT('', (-9.525, 6.77027613206627E-15, -101.042));
#212 = CARTESIAN_POINT('', (-9.13428419367898, 5.50985203846253E-15, -101.6));
#213 = ADVANCED_FACE('', (#214), #217, .T.);
#214 = FACE_OUTER_BOUND('', #215, .T.);
#215 = EDGE_LOOP('', (#216));
#216 = ORIENTED_EDGE('', *, *, #188, .T.);
#217 = B_SPLINE_SURFACE_WITH_KNOTS('', 1, 1, ((#218, #219), (#220, #221)), .UNSPECIFIED., .F., .F., .U., (2, 2), (2, 2), (5.07532725451912, 23.3438956418771), (5.07532725451912, 23.3438956418771), .UNSPECIFIED.);
#218 = CARTESIAN_POINT('', (9.13428419367898, -9.13428419367898, -101.6));
#219 = CARTESIAN_POINT('', (9.13428419367898, 9.13428419367899, -101.6));
#220 = CARTESIAN_POINT('', (-9.13428419367898, -9.13428419367898, -101.6));
#221 = CARTESIAN_POINT('', (-9.13428419367898, 9.13428419367899, -101.6));
#222 = PRESENTATION_STYLE_ASSIGNMENT((#223));
#223 = SURFACE_STYLE_USAGE(.POSITIVE., #224);
#224 = SURFACE_SIDE_STYLE('', (#225));
#225 = SURFACE_STYLE_FILL_AREA(#226);
#226 = FILL_AREA_STYLE('', (#227));
#227 = FILL_AREA_STYLE_COLOUR('', #228);
#228 = COLOUR_RGB('', 0.8, 0.8, 0.8);
#229 = STYLED_ITEM('', (#222), #116);
#230 = TRIMMED_CURVE('cutting part line', #231, (#235), (#236), .T., .CARTESIAN.);
#231 = LINE('', #232, #233);
#232 = CARTESIAN_POINT('', (-6.96375961084467E-31, -3.79089416676063E-15, -61.91));
#233 = VECTOR('', #234, 9.525);
#234 = DIRECTION('', (9.525, -1.74971411428178E-15, 0.));
#235 = CARTESIAN_POINT('', (-6.96375961084467E-31, -3.79089416676063E-15, -61.91));
#236 = CARTESIAN_POINT('', (9.525, -5.54060828104241E-15, -61.91));
#237 = TRIMMED_CURVE('cutting part line', #238, (#242), (#243), .T., .CARTESIAN.);
#238 = LINE('', #239, #240);
#239 = CARTESIAN_POINT('', (9.525, -5.54060828104241E-15, -61.91));
#240 = VECTOR('', #241, 39.132);
#241 = DIRECTION('', (0., -2.39614392721171E-15, -39.132));
#242 = CARTESIAN_POINT('', (9.525, -5.54060828104241E-15, -61.91));
#243 = CARTESIAN_POINT('', (9.525, -7.93675220825412E-15, -101.042));
#244 = TRIMMED_CURVE('cutting part line', #245, (#249), (#250), .T., .CARTESIAN.);
#245 = LINE('', #246, #247);
#246 = CARTESIAN_POINT('', (9.525, -7.93675220825412E-15, -101.042));
#247 = VECTOR('', #248, 0.681192220528888);
#248 = DIRECTION('', (-0.390715806321021, 3.76056835418808E-17, -0.557999999999993));
#249 = CARTESIAN_POINT('', (9.525, -7.93675220825412E-15, -101.042));
#250 = CARTESIAN_POINT('', (9.13428419367898, -7.89914652471224E-15, -101.6));
#251 = TRIMMED_CURVE('cutting part line', #252, (#256), (#257), .T., .CARTESIAN.);
#252 = LINE('', #253, #254);
#253 = CARTESIAN_POINT('', (9.13428419367898, -7.89914652471224E-15, -101.6));
#254 = VECTOR('', #255, 9.13428419367898);
#255 = DIRECTION('', (-9.13428419367898, 1.67794078504369E-15, 0.));
#256 = CARTESIAN_POINT('', (9.13428419367898, -7.89914652471224E-15, -101.6));
#257 = CARTESIAN_POINT('', (-7.61877969592223E-31, -6.22120573966855E-15, -101.6));
#258 = TRIMMED_CURVE('cutting part line', #259, (#263), (#264), .T., .CARTESIAN.);
#259 = LINE('', #260, #261);
#260 = CARTESIAN_POINT('', (-1.14281695438834E-30, -6.22120573966855E-15, -101.6));
#261 = VECTOR('', #262, 39.69);
#262 = DIRECTION('', (4.46440993303868E-31, 2.43031157290792E-15, 39.69));
#263 = CARTESIAN_POINT('', (-1.14281695438834E-30, -6.22120573966855E-15, -101.6));
#264 = CARTESIAN_POINT('', (-6.96375961084467E-31, -3.79089416676063E-15, -61.91));
#265 = COMPOSITE_CURVE('cutting part line', (#266, #267, #268, #269, #270), .U.);
#266 = COMPOSITE_CURVE_SEGMENT(.CONTINUOUS., .T., #230);
#267 = COMPOSITE_CURVE_SEGMENT(.CONTINUOUS., .T., #237);
#268 = COMPOSITE_CURVE_SEGMENT(.CONTINUOUS., .T., #244);
#269 = COMPOSITE_CURVE_SEGMENT(.CONTINUOUS., .T., #251);
#270 = COMPOSITE_CURVE_SEGMENT(.CONTINUOUS., .T., #258);
#271 = GEOMETRIC_SET('', (#265, #314));
#272 = PRESENTATION_STYLE_ASSIGNMENT((#273));
#273 = CURVE_STYLE('', #275, POSITIVE_LENGTH_MEASURE(1.E-6), #274);
#274 = COLOUR_RGB('', 0., 0., 1.);
#275 = DRAUGHTING_PRE_DEFINED_CURVE_FONT('continuous');
#276 = STYLED_ITEM('', (#272), #265);
#277 = PRESENTATION_STYLE_ASSIGNMENT((#278));
#278 = CURVE_STYLE('', #280, POSITIVE_LENGTH_MEASURE(1.E-6), #279);
#279 = COLOUR_RGB('', 0., 0., 1.);
#280 = DRAUGHTING_PRE_DEFINED_CURVE_FONT('continuous');
#281 = OVER_RIDING_STYLED_ITEM('', (#277), #230, #276);
#282 = PRESENTATION_STYLE_ASSIGNMENT((#283));
#283 = CURVE_STYLE('', #285, POSITIVE_LENGTH_MEASURE(1.E-6), #284);
#284 = COLOUR_RGB('', 0., 0., 1.);
#285 = DRAUGHTING_PRE_DEFINED_CURVE_FONT('continuous');
#286 = OVER_RIDING_STYLED_ITEM('', (#282), #237, #276);
#287 = PRESENTATION_STYLE_ASSIGNMENT((#288));
#288 = CURVE_STYLE('', #290, POSITIVE_LENGTH_MEASURE(1.E-6), #289);
#289 = COLOUR_RGB('', 0., 0., 1.);
#290 = DRAUGHTING_PRE_DEFINED_CURVE_FONT('continuous');
#291 = OVER_RIDING_STYLED_ITEM('', (#287), #244, #276);
#292 = PRESENTATION_STYLE_ASSIGNMENT((#293));
#293 = CURVE_STYLE('', #295, POSITIVE_LENGTH_MEASURE(1.E-6), #294);
#294 = COLOUR_RGB('', 0., 0., 1.);
#295 = DRAUGHTING_PRE_DEFINED_CURVE_FONT('continuous');
#296 = OVER_RIDING_STYLED_ITEM('', (#292), #251, #276);
#297 = PRESENTATION_STYLE_ASSIGNMENT((#298));
#298 = CURVE_STYLE('', #300, POSITIVE_LENGTH_MEASURE(1.E-6), #299);
#299 = COLOUR_RGB('', 0., 0., 1.);
#300 = DRAUGHTING_PRE_DEFINED_CURVE_FONT('continuous');
#301 = OVER_RIDING_STYLED_ITEM('', (#297), #258, #276);
#302 = AXIS2_PLACEMENT_3D('CIP', #303, #304, #305);
#303 = CARTESIAN_POINT('', (3.80938984796112E-31, 6.22120573966855E-15, -101.6));
#304 = DIRECTION('', (-3.74939945665465E-33, -6.12323399573677E-17, 1.));
#305 = DIRECTION('', (1., -6.12323399573677E-17, 0.));
#306 = AXIS2_PLACEMENT_3D('MCS', #307, #308, #309);
#307 = CARTESIAN_POINT('', (1.9346901196338E-31, 3.15958874180017E-15, -51.6));
#308 = DIRECTION('', (-3.74939945665465E-33, -6.12323399573677E-17, 1.));
#309 = DIRECTION('', (1., -6.12323399573677E-17, 0.));
#310 = AXIS2_PLACEMENT_3D('PCS', #311, #312, #313);
#311 = CARTESIAN_POINT('', (0., 0., 0.));
#312 = DIRECTION('', (0., 0., 1.));
#313 = DIRECTION('', (1., 0., 0.));
#314 = CARTESIAN_POINT('CRP', (9.525, 0., -101.6));
#315 = (
   GEOMETRIC_REPRESENTATION_CONTEXT (3)
   GLOBAL_UNCERTAINTY_ASSIGNED_CONTEXT ((#317))
   GLOBAL_UNIT_ASSIGNED_CONTEXT ((#316, #318, #319))
   REPRESENTATION_CONTEXT ('', '3D')
);
#316 = (
   LENGTH_UNIT ()
   NAMED_UNIT (*)
   SI_UNIT (.MILLI., .METRE.)
);
#317 = UNCERTAINTY_MEASURE_WITH_UNIT(LENGTH_MEASURE(1.E-6), #316, 'DISTANCE_ACCURACY_VALUE', '');
#318 = (
   NAMED_UNIT (*)
   SI_UNIT ($, .STERADIAN.)
   SOLID_ANGLE_UNIT ()
);
#319 = (
   NAMED_UNIT (*)
   PLANE_ANGLE_UNIT ()
   SI_UNIT ($, .RADIAN.)
);
#320 = SHAPE_REPRESENTATION('', (), #315);
#321 = PRODUCT_DEFINITION_SHAPE('', '', #322);
#322 = PRODUCT_DEFINITION('', '', #325, #329);
#323 = APPLICATION_CONTEXT('configuration controlled 3D designs of mechanical parts and assemblies');
#324 = APPLICATION_PROTOCOL_DEFINITION('International Standard', 'automotive_design', 2002, #323);
#325 = PRODUCT_DEFINITION_FORMATION_WITH_SPECIFIED_SOURCE('', '', #326, .NOT_KNOWN.);
#326 = PRODUCT('NONE', '1P340-1905-XA       1640', '', (#327));
#327 = PRODUCT_CONTEXT('', #323, 'mechanical');
#328 = PRODUCT_RELATED_PRODUCT_CATEGORY('detail', '', (#326));
#329 = PRODUCT_DEFINITION_CONTEXT('part definition', #323, 'design');
#330 = SHAPE_DEFINITION_REPRESENTATION(#321, #320);
#331 = CONSTRUCTIVE_GEOMETRY_REPRESENTATION('supplemental geometry', (#302, #306, #310), #315);
#332 = CONSTRUCTIVE_GEOMETRY_REPRESENTATION_RELATIONSHIP('', '', #320, #331);
#333 = SHAPE_REPRESENTATION_RELATIONSHIP('', '', #320, #334);
#334 = SHAPE_REPRESENTATION('', (#271), #315);
#335 = SHAPE_REPRESENTATION_RELATIONSHIP('', '', #320, #336);
#336 = ADVANCED_BREP_SHAPE_REPRESENTATION('', (#1, #116), #315);
ENDSEC;
END-ISO-10303-21;
