ISO-10303-21;
HEADER;
FILE_DESCRIPTION(('STEP'), '1');
FILE_NAME('C:\\Users\\ds2002\\OneDrive - Sandvik\\HomeShare\\Documents\\Batchrepair\\CorSRT2\\NEW_MILSQ_SLD\\Output\\MOD000000000000000020082323400000.stp', '2019-01-02T12:07:51', (''), (''), 'Express v3.0.0.0', 'Express Tool', 'Unknown');
FILE_SCHEMA(('AUTOMOTIVE_DESIGN'));
ENDSEC;

DATA;
#1 = MANIFOLD_SOLID_BREP('NOCUT', #2);
#2 = CLOSED_SHELL('', (#3, #50, #59, #98));
#3 = ADVANCED_FACE('', (#4), #31, .T.);
#4 = FACE_OUTER_BOUND('', #5, .T.);
#5 = EDGE_LOOP('', (#6, #16, #23, #24));
#6 = ORIENTED_EDGE('', *, *, #7, .T.);
#7 = EDGE_CURVE('', #8, #10, #12, .T.);
#8 = VERTEX_POINT('', #9);
#9 = CARTESIAN_POINT('', (-10., 6.73555739531044E-16, -1.));
#10 = VERTEX_POINT('', #11);
#11 = CARTESIAN_POINT('', (-9., 5.51091059616309E-16, 0.));
#12 = LINE('', #13, #14);
#13 = CARTESIAN_POINT('', (-10., 6.73555739531044E-16, -1.));
#14 = VECTOR('', #15, 1.4142135623731);
#15 = DIRECTION('', (1., -1.22464679914735E-16, 1.));
#16 = ORIENTED_EDGE('', *, *, #17, .T.);
#17 = EDGE_CURVE('', #10, #10, #18, .T.);
#18 = CIRCLE('', #19, 9.);
#19 = AXIS2_PLACEMENT_3D('', #20, #21, #22);
#20 = CARTESIAN_POINT('', (-1.80411241501588E-15, -1.11022302462516E-15, -4.93038065763132E-32));
#21 = DIRECTION('', (5.82470468954701E-33, 6.12323399573676E-17, -1.));
#22 = DIRECTION('', (-1., 1.84590453804607E-16, 5.47820073070147E-33));
#23 = ORIENTED_EDGE('', *, *, #7, .F.);
#24 = ORIENTED_EDGE('', *, *, #25, .F.);
#25 = EDGE_CURVE('', #8, #8, #26, .T.);
#26 = CIRCLE('', #27, 10.);
#27 = AXIS2_PLACEMENT_3D('', #28, #29, #30);
#28 = CARTESIAN_POINT('', (6.66133814775094E-16, -4.44089209850063E-15, -1.));
#29 = DIRECTION('', (2.22044604925031E-17, -3.44512803564274E-17, -1.));
#30 = DIRECTION('', (-1., 2.66515423973697E-16, -2.22044604925031E-17));
#31 = (
   BOUNDED_SURFACE ()
   B_SPLINE_SURFACE (1, 2, ((#32, #33, #34, #35, #36, #37, #38, #39, #40), (#41, #42, #43, #44, #45, #46, #47, #48, #49)), .UNSPECIFIED., .F., .T., .U.)
   B_SPLINE_SURFACE_WITH_KNOTS ((2, 2), (3, 2, 2, 2, 3), (0., 1.), (0., 0.25, 0.5, 0.75, 1.), .UNSPECIFIED.)
   GEOMETRIC_REPRESENTATION_ITEM ()
   RATIONAL_B_SPLINE_SURFACE (((1., 0.707106781186548, 1., 0.707106781186548, 1., 0.707106781186548, 1., 0.707106781186548, 1.), (1., 0.707106781186548, 1., 0.707106781186548, 1., 0.707106781186548, 1., 0.707106781186548, 1.)))
   REPRESENTATION_ITEM ('')
   SURFACE ()
);
#32 = CARTESIAN_POINT('', (-9.99999999999999, -5.38288093340217E-15, -1.));
#33 = CARTESIAN_POINT('', (-9.99999999999999, 9.99999999999999, -1.00000000000006));
#34 = CARTESIAN_POINT('', (4.57966997657877E-15, 9.99999999999999, -1.00000000000006));
#35 = CARTESIAN_POINT('', (10., 9.99999999999999, -1.00000000000006));
#36 = CARTESIAN_POINT('', (10., -5.38288093340217E-15, -1.));
#37 = CARTESIAN_POINT('', (10., -10., -0.99999999999994));
#38 = CARTESIAN_POINT('', (5.80431677572612E-15, -10., -0.99999999999994));
#39 = CARTESIAN_POINT('', (-9.99999999999999, -10., -0.99999999999994));
#40 = CARTESIAN_POINT('', (-9.99999999999999, -5.38288093340217E-15, -1.));
#41 = CARTESIAN_POINT('', (-9., 5.51091059616309E-16, 0.));
#42 = CARTESIAN_POINT('', (-9., 9., -5.39568389967826E-14));
#43 = CARTESIAN_POINT('', (4.57966997657877E-15, 9., -5.39568389967826E-14));
#44 = CARTESIAN_POINT('', (9.00000000000001, 9., -5.39568389967826E-14));
#45 = CARTESIAN_POINT('', (9.00000000000001, 5.51091059616309E-16, -6.60780701695189E-30));
#46 = CARTESIAN_POINT('', (9.00000000000001, -9., 5.39568389967826E-14));
#47 = CARTESIAN_POINT('', (5.68185209581139E-15, -9., 5.39568389967826E-14));
#48 = CARTESIAN_POINT('', (-8.99999999999999, -9., 5.39568389967826E-14));
#49 = CARTESIAN_POINT('', (-9., 5.51091059616309E-16, 0.));
#50 = ADVANCED_FACE('', (#51), #54, .T.);
#51 = FACE_OUTER_BOUND('', #52, .T.);
#52 = EDGE_LOOP('', (#53));
#53 = ORIENTED_EDGE('', *, *, #17, .F.);
#54 = B_SPLINE_SURFACE_WITH_KNOTS('', 1, 1, ((#55, #56), (#57, #58)), .UNSPECIFIED., .F., .F., .U., (2, 2), (2, 2), (5.0007142674936, 23.0007142674936), (5.0007142674936, 23.0007142674936), .UNSPECIFIED.);
#55 = CARTESIAN_POINT('', (9., -9., -7.65651841721733E-15));
#56 = CARTESIAN_POINT('', (-9., -9., -7.65651841721733E-15));
#57 = CARTESIAN_POINT('', (9., 9., 7.65651841721728E-15));
#58 = CARTESIAN_POINT('', (-9., 9., 7.65651841721728E-15));
#59 = ADVANCED_FACE('', (#60), #79, .T.);
#60 = FACE_OUTER_BOUND('', #61, .T.);
#61 = EDGE_LOOP('', (#62, #71, #77, #78));
#62 = ORIENTED_EDGE('', *, *, #63, .F.);
#63 = EDGE_CURVE('', #64, #64, #66, .T.);
#64 = VERTEX_POINT('', #65);
#65 = CARTESIAN_POINT('', (-10., 4.40872847693047E-15, -62.));
#66 = CIRCLE('', #67, 10.);
#67 = AXIS2_PLACEMENT_3D('', #68, #69, #70);
#68 = CARTESIAN_POINT('', (-4.32986979603811E-15, -6.66133814775094E-16, -62.));
#69 = DIRECTION('', (1.22728387567898E-30, 2.41835897238999E-15, -1.));
#70 = DIRECTION('', (-1., 5.07486229170559E-16, 0.));
#71 = ORIENTED_EDGE('', *, *, #72, .T.);
#72 = EDGE_CURVE('', #64, #8, #73, .T.);
#73 = LINE('', #74, #75);
#74 = CARTESIAN_POINT('', (-10., 4.40872847693047E-15, -62.));
#75 = VECTOR('', #76, 61.);
#76 = DIRECTION('', (0., -3.73517273739943E-15, 61.));
#77 = ORIENTED_EDGE('', *, *, #25, .T.);
#78 = ORIENTED_EDGE('', *, *, #72, .F.);
#79 = (
   BOUNDED_SURFACE ()
   B_SPLINE_SURFACE (1, 2, ((#80, #81, #82, #83, #84, #85, #86, #87, #88), (#89, #90, #91, #92, #93, #94, #95, #96, #97)), .UNSPECIFIED., .F., .T., .U.)
   B_SPLINE_SURFACE_WITH_KNOTS ((2, 2), (3, 2, 2, 2, 3), (-2.22044604925031E-16, 1.), (0., 0.25, 0.5, 0.75, 1.), .UNSPECIFIED.)
   GEOMETRIC_REPRESENTATION_ITEM ()
   RATIONAL_B_SPLINE_SURFACE (((1., 0.707106781186548, 1., 0.707106781186548, 1., 0.707106781186548, 1., 0.707106781186548, 1.), (1., 0.707106781186548, 1., 0.707106781186548, 1., 0.707106781186548, 1., 0.707106781186548, 1.)))
   REPRESENTATION_ITEM ('')
   SURFACE ()
);
#80 = CARTESIAN_POINT('', (-10., -3.61858486780241E-14, -62.));
#81 = CARTESIAN_POINT('', (-10., 9.99999999999996, -62.));
#82 = CARTESIAN_POINT('', (-4.23936961217085E-14, 10., -62.));
#83 = CARTESIAN_POINT('', (9.99999999999995, 10., -62.));
#84 = CARTESIAN_POINT('', (9.99999999999999, 3.87427631067217E-14, -62.));
#85 = CARTESIAN_POINT('', (10., -9.99999999999996, -62.));
#86 = CARTESIAN_POINT('', (3.37595624621847E-14, -10., -62.));
#87 = CARTESIAN_POINT('', (-9.99999999999996, -10., -62.));
#88 = CARTESIAN_POINT('', (-10., -3.61858486780241E-14, -62.));
#89 = CARTESIAN_POINT('', (-10., 6.7355573953105E-16, -1.));
#90 = CARTESIAN_POINT('', (-10., 10., -1.00000000000001));
#91 = CARTESIAN_POINT('', (-3.96847519416232E-14, 10., -1.00000000000001));
#92 = CARTESIAN_POINT('', (9.99999999999996, 10.0000000000001, -1.00000000000001));
#93 = CARTESIAN_POINT('', (9.99999999999999, 7.56021675242769E-14, -1.));
#94 = CARTESIAN_POINT('', (10., -9.99999999999992, -0.999999999999995));
#95 = CARTESIAN_POINT('', (3.646850664227E-14, -9.99999999999996, -0.999999999999994));
#96 = CARTESIAN_POINT('', (-9.99999999999996, -10., -0.999999999999994));
#97 = CARTESIAN_POINT('', (-10., 6.7355573953105E-16, -1.));
#98 = ADVANCED_FACE('', (#99), #102, .T.);
#99 = FACE_OUTER_BOUND('', #100, .T.);
#100 = EDGE_LOOP('', (#101));
#101 = ORIENTED_EDGE('', *, *, #63, .T.);
#102 = B_SPLINE_SURFACE_WITH_KNOTS('', 1, 1, ((#103, #104), (#105, #106)), .UNSPECIFIED., .F., .F., .U., (2, 2), (2, 2), (99.700631260529, 119.700631260529), (95.854476793073, 115.854476793073), .UNSPECIFIED.);
#103 = CARTESIAN_POINT('', (-10., 10., -62.));
#104 = CARTESIAN_POINT('', (-10., -10., -62.));
#105 = CARTESIAN_POINT('', (10., 10., -62.));
#106 = CARTESIAN_POINT('', (10., -10., -62.));
#107 = DRAUGHTING_MODEL('', (#115, #229, #276, #281, #286, #291, #296, #301), #315);
#108 = PRESENTATION_STYLE_ASSIGNMENT((#109));
#109 = SURFACE_STYLE_USAGE(.POSITIVE., #110);
#110 = SURFACE_SIDE_STYLE('', (#111));
#111 = SURFACE_STYLE_FILL_AREA(#112);
#112 = FILL_AREA_STYLE('', (#113));
#113 = FILL_AREA_STYLE_COLOUR('', #114);
#114 = COLOUR_RGB('', 0.50196078431373, 0.50196078431373, 0.50196078431373);
#115 = STYLED_ITEM('', (#108), #1);
#116 = MANIFOLD_SOLID_BREP('CUT', #117);
#117 = CLOSED_SHELL('', (#118, #135, #174, #213));
#118 = ADVANCED_FACE('', (#119), #130, .T.);
#119 = FACE_OUTER_BOUND('', #120, .T.);
#120 = EDGE_LOOP('', (#121));
#121 = ORIENTED_EDGE('', *, *, #122, .F.);
#122 = EDGE_CURVE('', #123, #123, #125, .T.);
#123 = VERTEX_POINT('', #124);
#124 = CARTESIAN_POINT('', (-10., 4.40872847693047E-15, -62.));
#125 = CIRCLE('', #126, 10.);
#126 = AXIS2_PLACEMENT_3D('', #127, #128, #129);
#127 = CARTESIAN_POINT('', (-4.32986979603811E-15, -6.66133814775094E-16, -62.));
#128 = DIRECTION('', (1.22728387567898E-30, 2.41835897238999E-15, -1.));
#129 = DIRECTION('', (-1., 5.07486229170559E-16, 0.));
#130 = B_SPLINE_SURFACE_WITH_KNOTS('', 1, 1, ((#131, #132), (#133, #134)), .UNSPECIFIED., .F., .F., .U., (2, 2), (2, 2), (95.854476793073, 115.854476793073), (99.700631260529, 119.700631260529), .UNSPECIFIED.);
#131 = CARTESIAN_POINT('', (-10., 10., -62.));
#132 = CARTESIAN_POINT('', (10., 10., -62.));
#133 = CARTESIAN_POINT('', (-10., -10., -62.));
#134 = CARTESIAN_POINT('', (10., -10., -62.));
#135 = ADVANCED_FACE('', (#136), #155, .T.);
#136 = FACE_OUTER_BOUND('', #137, .T.);
#137 = EDGE_LOOP('', (#138, #139, #147, #154));
#138 = ORIENTED_EDGE('', *, *, #122, .T.);
#139 = ORIENTED_EDGE('', *, *, #140, .F.);
#140 = EDGE_CURVE('', #141, #123, #143, .T.);
#141 = VERTEX_POINT('', #142);
#142 = CARTESIAN_POINT('', (-10., 6.96517867015057E-15, -103.75));
#143 = LINE('', #144, #145);
#144 = CARTESIAN_POINT('', (-10., 6.96517867015057E-15, -103.75));
#145 = VECTOR('', #146, 41.75);
#146 = DIRECTION('', (0., -2.5564501932201E-15, 41.75));
#147 = ORIENTED_EDGE('', *, *, #148, .F.);
#148 = EDGE_CURVE('', #141, #141, #149, .T.);
#149 = CIRCLE('', #150, 10.);
#150 = AXIS2_PLACEMENT_3D('', #151, #152, #153);
#151 = CARTESIAN_POINT('', (-1.38777878078145E-16, 5.32907051820075E-15, -103.75));
#152 = DIRECTION('', (7.9133936581365E-31, 4.83671794477998E-15, -1.));
#153 = DIRECTION('', (-1., 1.63610815194982E-16, 0.));
#154 = ORIENTED_EDGE('', *, *, #140, .T.);
#155 = (
   BOUNDED_SURFACE ()
   B_SPLINE_SURFACE (1, 2, ((#156, #157, #158, #159, #160, #161, #162, #163, #164), (#165, #166, #167, #168, #169, #170, #171, #172, #173)), .UNSPECIFIED., .F., .T., .U.)
   B_SPLINE_SURFACE_WITH_KNOTS ((2, 2), (3, 2, 2, 2, 3), (-0.684426229508197, 0.), (0., 0.25, 0.5, 0.75, 1.), .UNSPECIFIED.)
   GEOMETRIC_REPRESENTATION_ITEM ()
   RATIONAL_B_SPLINE_SURFACE (((1., 0.707106781186548, 1., 0.707106781186548, 1., 0.707106781186548, 1., 0.707106781186548, 1.), (1., 0.707106781186548, 1., 0.707106781186548, 1., 0.707106781186548, 1., 0.707106781186548, 1.)))
   REPRESENTATION_ITEM ('')
   SURFACE ()
);
#156 = CARTESIAN_POINT('', (-10., -7.80372479394625E-15, -103.75));
#157 = CARTESIAN_POINT('', (-10., 9.99999999999998, -103.75));
#158 = CARTESIAN_POINT('', (-5.55722390511015E-15, 9.99999999999998, -103.75));
#159 = CARTESIAN_POINT('', (9.99999999999999, 9.99999999999999, -103.75));
#160 = CARTESIAN_POINT('', (9.99999999999999, -6.51475075165859E-15, -103.75));
#161 = CARTESIAN_POINT('', (9.99999999999999, -10., -103.75));
#162 = CARTESIAN_POINT('', (-3.04360306367513E-15, -10., -103.75));
#163 = CARTESIAN_POINT('', (-9.99999999999999, -10., -103.75));
#164 = CARTESIAN_POINT('', (-10., -7.80372479394625E-15, -103.75));
#165 = CARTESIAN_POINT('', (-10., 4.40872847693047E-15, -62.));
#166 = CARTESIAN_POINT('', (-10., 10., -62.));
#167 = CARTESIAN_POINT('', (-5.55722390511015E-15, 10., -62.));
#168 = CARTESIAN_POINT('', (9.99999999999999, 10., -62.));
#169 = CARTESIAN_POINT('', (9.99999999999999, 5.69770251921813E-15, -62.));
#170 = CARTESIAN_POINT('', (9.99999999999999, -9.99999999999998, -62.));
#171 = CARTESIAN_POINT('', (-3.04360306367513E-15, -9.99999999999999, -62.));
#172 = CARTESIAN_POINT('', (-9.99999999999999, -9.99999999999999, -62.));
#173 = CARTESIAN_POINT('', (-10., 4.40872847693047E-15, -62.));
#174 = ADVANCED_FACE('', (#175), #194, .T.);
#175 = FACE_OUTER_BOUND('', #176, .T.);
#176 = EDGE_LOOP('', (#177, #185, #186, #187));
#177 = ORIENTED_EDGE('', *, *, #178, .F.);
#178 = EDGE_CURVE('', #141, #179, #181, .T.);
#179 = VERTEX_POINT('', #180);
#180 = CARTESIAN_POINT('', (-9.75, 6.96517867015057E-15, -104.));
#181 = LINE('', #182, #183);
#182 = CARTESIAN_POINT('', (-10., 6.96517867015057E-15, -103.75));
#183 = VECTOR('', #184, 0.353553390593274);
#184 = DIRECTION('', (0.25, 0., -0.25));
#185 = ORIENTED_EDGE('', *, *, #148, .T.);
#186 = ORIENTED_EDGE('', *, *, #178, .T.);
#187 = ORIENTED_EDGE('', *, *, #188, .F.);
#188 = EDGE_CURVE('', #179, #179, #189, .T.);
#189 = CIRCLE('', #190, 9.75);
#190 = AXIS2_PLACEMENT_3D('', #191, #192, #193);
#191 = CARTESIAN_POINT('', (-5.55111512312578E-17, 1.04360964314765E-14, -104.));
#192 = DIRECTION('', (0., 0., -1.));
#193 = DIRECTION('', (-1., -3.55991565264195E-16, 0.));
#194 = (
   BOUNDED_SURFACE ()
   B_SPLINE_SURFACE (2, 1, ((#195, #196), (#197, #198), (#199, #200), (#201, #202), (#203, #204), (#205, #206), (#207, #208), (#209, #210), (#211, #212)), .UNSPECIFIED., .T., .F., .U.)
   B_SPLINE_SURFACE_WITH_KNOTS ((3, 2, 2, 2, 3), (2, 2), (0., 0.25, 0.5, 0.75, 1.), (0., 1.), .UNSPECIFIED.)
   GEOMETRIC_REPRESENTATION_ITEM ()
   RATIONAL_B_SPLINE_SURFACE (((1., 1.), (0.707106781186548, 0.707106781186548), (1., 1.), (0.707106781186548, 0.707106781186548), (1., 1.), (0.707106781186548, 0.707106781186548), (1., 1.), (0.707106781186548, 0.707106781186548), (1., 1.)))
   REPRESENTATION_ITEM ('')
   SURFACE ()
);
#195 = CARTESIAN_POINT('', (-10., 6.96517867015057E-15, -103.75));
#196 = CARTESIAN_POINT('', (-9.75, 1.0504745220768E-14, -104.));
#197 = CARTESIAN_POINT('', (-10., 10., -103.75));
#198 = CARTESIAN_POINT('', (-9.75, 9.75000000000001, -104.));
#199 = CARTESIAN_POINT('', (-2.36239547273059E-15, 10., -103.75));
#200 = CARTESIAN_POINT('', (-2.36023451592436E-15, 9.75000000000001, -104.));
#201 = CARTESIAN_POINT('', (9.99999999999999, 10., -103.75));
#202 = CARTESIAN_POINT('', (9.75, 9.75000000000001, -104.));
#203 = CARTESIAN_POINT('', (9.99999999999999, 7.1380552146486E-15, -103.75));
#204 = CARTESIAN_POINT('', (9.75, 1.06732998516535E-14, -104.));
#205 = CARTESIAN_POINT('', (10., -9.99999999999999, -103.75));
#206 = CARTESIAN_POINT('', (9.75, -9.74999999999999, -104.));
#207 = CARTESIAN_POINT('', (-9.64872129085204E-16, -9.99999999999999, -103.75));
#208 = CARTESIAN_POINT('', (-9.97649255870113E-16, -9.74999999999999, -104.));
#209 = CARTESIAN_POINT('', (-10., -9.99999999999999, -103.75));
#210 = CARTESIAN_POINT('', (-9.75, -9.74999999999999, -104.));
#211 = CARTESIAN_POINT('', (-10., 6.96517867015057E-15, -103.75));
#212 = CARTESIAN_POINT('', (-9.75, 1.0504745220768E-14, -104.));
#213 = ADVANCED_FACE('', (#214), #217, .T.);
#214 = FACE_OUTER_BOUND('', #215, .T.);
#215 = EDGE_LOOP('', (#216));
#216 = ORIENTED_EDGE('', *, *, #188, .T.);
#217 = B_SPLINE_SURFACE_WITH_KNOTS('', 1, 1, ((#218, #219), (#220, #221)), .UNSPECIFIED., .F., .F., .U., (2, 2), (2, 2), (5.4174404564514, 24.9174404564514), (5.41744045645141, 24.9174404564514), .UNSPECIFIED.);
#218 = CARTESIAN_POINT('', (9.75, -9.74999999999999, -104.));
#219 = CARTESIAN_POINT('', (9.75, 9.75000000000001, -104.));
#220 = CARTESIAN_POINT('', (-9.75, -9.74999999999999, -104.));
#221 = CARTESIAN_POINT('', (-9.75, 9.75000000000001, -104.));
#222 = PRESENTATION_STYLE_ASSIGNMENT((#223));
#223 = SURFACE_STYLE_USAGE(.POSITIVE., #224);
#224 = SURFACE_SIDE_STYLE('', (#225));
#225 = SURFACE_STYLE_FILL_AREA(#226);
#226 = FILL_AREA_STYLE('', (#227));
#227 = FILL_AREA_STYLE_COLOUR('', #228);
#228 = COLOUR_RGB('', 0.8, 0.8, 0.8);
#229 = STYLED_ITEM('', (#222), #116);
#230 = TRIMMED_CURVE('cutting part line', #231, (#235), (#236), .T., .CARTESIAN.);
#231 = LINE('', #232, #233);
#232 = CARTESIAN_POINT('', (-6.97388298937764E-31, -3.7964050773568E-15, -62.));
#233 = VECTOR('', #234, 10.);
#234 = DIRECTION('', (10., -1.83697019872102E-15, 0.));
#235 = CARTESIAN_POINT('', (-6.97388298937764E-31, -3.7964050773568E-15, -62.));
#236 = CARTESIAN_POINT('', (10., -5.63337527607782E-15, -62.));
#237 = TRIMMED_CURVE('cutting part line', #238, (#242), (#243), .T., .CARTESIAN.);
#238 = LINE('', #239, #240);
#239 = CARTESIAN_POINT('', (10., -5.63337527607782E-15, -62.));
#240 = VECTOR('', #241, 41.75);
#241 = DIRECTION('', (0., -2.5564501932201E-15, -41.75));
#242 = CARTESIAN_POINT('', (10., -5.63337527607782E-15, -62.));
#243 = CARTESIAN_POINT('', (10., -8.18982546929792E-15, -103.75));
#244 = TRIMMED_CURVE('cutting part line', #245, (#249), (#250), .T., .CARTESIAN.);
#245 = LINE('', #246, #247);
#246 = CARTESIAN_POINT('', (10., -8.18982546929792E-15, -103.75));
#247 = VECTOR('', #248, 0.353553390593274);
#248 = DIRECTION('', (-0.25, 3.06161699786838E-17, -0.25));
#249 = CARTESIAN_POINT('', (10., -8.18982546929792E-15, -103.75));
#250 = CARTESIAN_POINT('', (9.75, -8.15920929931924E-15, -104.));
#251 = TRIMMED_CURVE('cutting part line', #252, (#256), (#257), .T., .CARTESIAN.);
#252 = LINE('', #253, #254);
#253 = CARTESIAN_POINT('', (9.75, -8.15920929931924E-15, -104.));
#254 = VECTOR('', #255, 9.75);
#255 = DIRECTION('', (-9.75, 1.791045943753E-15, 0.));
#256 = CARTESIAN_POINT('', (9.75, -8.15920929931924E-15, -104.));
#257 = CARTESIAN_POINT('', (-7.79875086984166E-31, -6.36816335556624E-15, -104.));
#258 = TRIMMED_CURVE('cutting part line', #259, (#263), (#264), .T., .CARTESIAN.);
#259 = LINE('', #260, #261);
#260 = CARTESIAN_POINT('', (-1.16981263047625E-30, -6.36816335556624E-15, -104.));
#261 = VECTOR('', #262, 42.);
#262 = DIRECTION('', (4.72424331538485E-31, 2.57175827820944E-15, 42.));
#263 = CARTESIAN_POINT('', (-1.16981263047625E-30, -6.36816335556624E-15, -104.));
#264 = CARTESIAN_POINT('', (-6.97388298937764E-31, -3.7964050773568E-15, -62.));
#265 = COMPOSITE_CURVE('cutting part line', (#266, #267, #268, #269, #270), .U.);
#266 = COMPOSITE_CURVE_SEGMENT(.CONTINUOUS., .T., #230);
#267 = COMPOSITE_CURVE_SEGMENT(.CONTINUOUS., .T., #237);
#268 = COMPOSITE_CURVE_SEGMENT(.CONTINUOUS., .T., #244);
#269 = COMPOSITE_CURVE_SEGMENT(.CONTINUOUS., .T., #251);
#270 = COMPOSITE_CURVE_SEGMENT(.CONTINUOUS., .T., #258);
#271 = GEOMETRIC_SET('', (#265, #314));
#272 = PRESENTATION_STYLE_ASSIGNMENT((#273));
#273 = CURVE_STYLE('', #275, POSITIVE_LENGTH_MEASURE(1.E-6), #274);
#274 = COLOUR_RGB('', 0., 0., 1.);
#275 = DRAUGHTING_PRE_DEFINED_CURVE_FONT('continuous');
#276 = STYLED_ITEM('', (#272), #265);
#277 = PRESENTATION_STYLE_ASSIGNMENT((#278));
#278 = CURVE_STYLE('', #280, POSITIVE_LENGTH_MEASURE(1.E-6), #279);
#279 = COLOUR_RGB('', 0., 0., 1.);
#280 = DRAUGHTING_PRE_DEFINED_CURVE_FONT('continuous');
#281 = OVER_RIDING_STYLED_ITEM('', (#277), #230, #276);
#282 = PRESENTATION_STYLE_ASSIGNMENT((#283));
#283 = CURVE_STYLE('', #285, POSITIVE_LENGTH_MEASURE(1.E-6), #284);
#284 = COLOUR_RGB('', 0., 0., 1.);
#285 = DRAUGHTING_PRE_DEFINED_CURVE_FONT('continuous');
#286 = OVER_RIDING_STYLED_ITEM('', (#282), #237, #276);
#287 = PRESENTATION_STYLE_ASSIGNMENT((#288));
#288 = CURVE_STYLE('', #290, POSITIVE_LENGTH_MEASURE(1.E-6), #289);
#289 = COLOUR_RGB('', 0., 0., 1.);
#290 = DRAUGHTING_PRE_DEFINED_CURVE_FONT('continuous');
#291 = OVER_RIDING_STYLED_ITEM('', (#287), #244, #276);
#292 = PRESENTATION_STYLE_ASSIGNMENT((#293));
#293 = CURVE_STYLE('', #295, POSITIVE_LENGTH_MEASURE(1.E-6), #294);
#294 = COLOUR_RGB('', 0., 0., 1.);
#295 = DRAUGHTING_PRE_DEFINED_CURVE_FONT('continuous');
#296 = OVER_RIDING_STYLED_ITEM('', (#292), #251, #276);
#297 = PRESENTATION_STYLE_ASSIGNMENT((#298));
#298 = CURVE_STYLE('', #300, POSITIVE_LENGTH_MEASURE(1.E-6), #299);
#299 = COLOUR_RGB('', 0., 0., 1.);
#300 = DRAUGHTING_PRE_DEFINED_CURVE_FONT('continuous');
#301 = OVER_RIDING_STYLED_ITEM('', (#297), #258, #276);
#302 = AXIS2_PLACEMENT_3D('CIP', #303, #304, #305);
#303 = CARTESIAN_POINT('', (3.89937543492083E-31, 6.36816335556624E-15, -104.));
#304 = DIRECTION('', (-3.74939945665465E-33, -6.12323399573677E-17, 1.));
#305 = DIRECTION('', (1., -6.12323399573677E-17, 0.));
#306 = AXIS2_PLACEMENT_3D('MCS', #307, #308, #309);
#307 = CARTESIAN_POINT('', (1.87469972832732E-31, 3.06161699786838E-15, -50.));
#308 = DIRECTION('', (-3.74939945665465E-33, -6.12323399573677E-17, 1.));
#309 = DIRECTION('', (1., -6.12323399573677E-17, 0.));
#310 = AXIS2_PLACEMENT_3D('PCS', #311, #312, #313);
#311 = CARTESIAN_POINT('', (0., 0., 0.));
#312 = DIRECTION('', (0., 0., 1.));
#313 = DIRECTION('', (1., 0., 0.));
#314 = CARTESIAN_POINT('CRP', (10., 0., -104.));
#315 = (
   GEOMETRIC_REPRESENTATION_CONTEXT (3)
   GLOBAL_UNCERTAINTY_ASSIGNED_CONTEXT ((#317))
   GLOBAL_UNIT_ASSIGNED_CONTEXT ((#316, #318, #319))
   REPRESENTATION_CONTEXT ('', '3D')
);
#316 = (
   LENGTH_UNIT ()
   NAMED_UNIT (*)
   SI_UNIT (.MILLI., .METRE.)
);
#317 = UNCERTAINTY_MEASURE_WITH_UNIT(LENGTH_MEASURE(1.E-6), #316, 'DISTANCE_ACCURACY_VALUE', '');
#318 = (
   NAMED_UNIT (*)
   SI_UNIT ($, .STERADIAN.)
   SOLID_ANGLE_UNIT ()
);
#319 = (
   NAMED_UNIT (*)
   PLANE_ANGLE_UNIT ()
   SI_UNIT ($, .RADIAN.)
);
#320 = SHAPE_REPRESENTATION('', (), #315);
#321 = PRODUCT_DEFINITION_SHAPE('', '', #322);
#322 = PRODUCT_DEFINITION('', '', #325, #329);
#323 = APPLICATION_CONTEXT('configuration controlled 3D designs of mechanical parts and assemblies');
#324 = APPLICATION_PROTOCOL_DEFINITION('International Standard', 'automotive_design', 2002, #323);
#325 = PRODUCT_DEFINITION_FORMATION_WITH_SPECIFIED_SOURCE('', '', #326, .NOT_KNOWN.);
#326 = PRODUCT('NONE', '2P342-2000-CMA      1740', '', (#327));
#327 = PRODUCT_CONTEXT('', #323, 'mechanical');
#328 = PRODUCT_RELATED_PRODUCT_CATEGORY('detail', '', (#326));
#329 = PRODUCT_DEFINITION_CONTEXT('part definition', #323, 'design');
#330 = SHAPE_DEFINITION_REPRESENTATION(#321, #320);
#331 = CONSTRUCTIVE_GEOMETRY_REPRESENTATION('supplemental geometry', (#302, #306, #310), #315);
#332 = CONSTRUCTIVE_GEOMETRY_REPRESENTATION_RELATIONSHIP('', '', #320, #331);
#333 = SHAPE_REPRESENTATION_RELATIONSHIP('', '', #320, #334);
#334 = SHAPE_REPRESENTATION('', (#271), #315);
#335 = SHAPE_REPRESENTATION_RELATIONSHIP('', '', #320, #336);
#336 = ADVANCED_BREP_SHAPE_REPRESENTATION('', (#1, #116), #315);
ENDSEC;
END-ISO-10303-21;
