ISO-10303-21;
HEADER;
FILE_DESCRIPTION(('STEP'), '1');
FILE_NAME('C:\\Users\\ds2002\\OneDrive - Sandvik\\HomeShare\\Documents\\Batchrepair\\CorSRT2\\NEW_MILSQ_SLD\\Output\\MOD000000000000000020082274300000.stp', '2019-01-02T12:11:22', (''), (''), 'Express v3.0.0.0', 'Express Tool', 'Unknown');
FILE_SCHEMA(('AUTOMOTIVE_DESIGN'));
ENDSEC;

DATA;
#1 = MANIFOLD_SOLID_BREP('NOCUT', #2);
#2 = CLOSED_SHELL('', (#3, #50, #59, #98));
#3 = ADVANCED_FACE('', (#4), #31, .T.);
#4 = FACE_OUTER_BOUND('', #5, .T.);
#5 = EDGE_LOOP('', (#6, #16, #23, #24));
#6 = ORIENTED_EDGE('', *, *, #7, .T.);
#7 = EDGE_CURVE('', #8, #10, #12, .T.);
#8 = VERTEX_POINT('', #9);
#9 = CARTESIAN_POINT('', (-3.175, 2.13853947301107E-16, -0.317500000000003));
#10 = VERTEX_POINT('', #11);
#11 = CARTESIAN_POINT('', (-2.8575, 1.74971411428178E-16, 0.));
#12 = LINE('', #13, #14);
#13 = CARTESIAN_POINT('', (-3.175, 2.13853947301107E-16, -0.317500000000003));
#14 = VECTOR('', #15, 0.44901280605346);
#15 = DIRECTION('', (0.3175, -3.8882535872929E-17, 0.317500000000003));
#16 = ORIENTED_EDGE('', *, *, #17, .T.);
#17 = EDGE_CURVE('', #10, #10, #18, .T.);
#18 = CIRCLE('', #19, 2.8575);
#19 = AXIS2_PLACEMENT_3D('', #20, #21, #22);
#20 = CARTESIAN_POINT('', (-3.46944695195361E-16, -6.66133814775094E-16, -2.77333911991762E-32));
#21 = DIRECTION('', (8.31826769960494E-33, 6.12323399573676E-17, -1.));
#22 = DIRECTION('', (-1., 2.94350035416718E-16, 9.70547373549474E-33));
#23 = ORIENTED_EDGE('', *, *, #7, .F.);
#24 = ORIENTED_EDGE('', *, *, #25, .F.);
#25 = EDGE_CURVE('', #8, #8, #26, .T.);
#26 = CIRCLE('', #27, 3.17500000000001);
#27 = AXIS2_PLACEMENT_3D('', #28, #29, #30);
#28 = CARTESIAN_POINT('', (5.41233724504764E-16, 4.9960036108132E-16, -0.317500000000003));
#29 = DIRECTION('', (5.24514814783537E-17, 7.87931949724616E-18, -1.));
#30 = DIRECTION('', (-1., -3.34928230311427E-16, -5.24514814783537E-17));
#31 = (
   BOUNDED_SURFACE ()
   B_SPLINE_SURFACE (1, 2, ((#32, #33, #34, #35, #36, #37, #38, #39, #40), (#41, #42, #43, #44, #45, #46, #47, #48, #49)), .UNSPECIFIED., .F., .T., .U.)
   B_SPLINE_SURFACE_WITH_KNOTS ((2, 2), (3, 2, 2, 2, 3), (0., 1.), (0., 0.25, 0.5, 0.75, 1.), .UNSPECIFIED.)
   GEOMETRIC_REPRESENTATION_ITEM ()
   RATIONAL_B_SPLINE_SURFACE (((1., 0.707106781186548, 1., 0.707106781186548, 1., 0.707106781186548, 1., 0.707106781186548, 1.), (1., 0.707106781186548, 1., 0.707106781186548, 1., 0.707106781186548, 1., 0.707106781186548, 1.)))
   REPRESENTATION_ITEM ('')
   SURFACE ()
);
#32 = CARTESIAN_POINT('', (-3.175, -6.87597834643122E-16, -0.317500000000003));
#33 = CARTESIAN_POINT('', (-3.175, 3.175, -0.317500000000012));
#34 = CARTESIAN_POINT('', (1.74089138166917E-15, 3.175, -0.317500000000012));
#35 = CARTESIAN_POINT('', (3.175, 3.175, -0.317500000000012));
#36 = CARTESIAN_POINT('', (3.175, -1.92117897311552E-15, -0.317500000000003));
#37 = CARTESIAN_POINT('', (3.175, -3.175, -0.317499999999993));
#38 = CARTESIAN_POINT('', (8.96135601926058E-16, -3.175, -0.317499999999993));
#39 = CARTESIAN_POINT('', (-3.175, -3.175, -0.317499999999993));
#40 = CARTESIAN_POINT('', (-3.175, -6.87597834643122E-16, -0.317500000000003));
#41 = CARTESIAN_POINT('', (-2.8575, 1.74971411428178E-16, 0.));
#42 = CARTESIAN_POINT('', (-2.8575, 2.8575, -8.49320613838237E-15));
#43 = CARTESIAN_POINT('', (1.67921232474555E-15, 2.8575, -8.49320613838237E-15));
#44 = CARTESIAN_POINT('', (2.8575, 2.8575, -8.49320613838237E-15));
#45 = CARTESIAN_POINT('', (2.8575, -9.35251613196978E-16, -1.09558455358522E-30));
#46 = CARTESIAN_POINT('', (2.8575, -2.8575, 8.49320613838237E-15));
#47 = CARTESIAN_POINT('', (9.18932122976749E-16, -2.8575, 8.49320613838237E-15));
#48 = CARTESIAN_POINT('', (-2.8575, -2.8575, 8.49320613838237E-15));
#49 = CARTESIAN_POINT('', (-2.8575, 1.74971411428178E-16, 0.));
#50 = ADVANCED_FACE('', (#51), #54, .T.);
#51 = FACE_OUTER_BOUND('', #52, .T.);
#52 = EDGE_LOOP('', (#53));
#53 = ORIENTED_EDGE('', *, *, #17, .F.);
#54 = B_SPLINE_SURFACE_WITH_KNOTS('', 1, 1, ((#55, #56), (#57, #58)), .UNSPECIFIED., .F., .F., .U., (2, 2), (2, 2), (1.58772677992923, 7.30272677992923), (1.58772677992923, 7.30272677992923), .UNSPECIFIED.);
#55 = CARTESIAN_POINT('', (2.8575, -2.8575, 6.93045594617286E-15));
#56 = CARTESIAN_POINT('', (-2.8575, -2.8575, -7.28039876902917E-15));
#57 = CARTESIAN_POINT('', (2.8575, 2.8575, 7.28039876902922E-15));
#58 = CARTESIAN_POINT('', (-2.8575, 2.8575, -6.93045594617282E-15));
#59 = ADVANCED_FACE('', (#60), #79, .T.);
#60 = FACE_OUTER_BOUND('', #61, .T.);
#61 = EDGE_LOOP('', (#62, #71, #77, #78));
#62 = ORIENTED_EDGE('', *, *, #63, .F.);
#63 = EDGE_CURVE('', #64, #64, #66, .T.);
#64 = VERTEX_POINT('', #65);
#65 = CARTESIAN_POINT('', (-3.175, 3.2566420006326E-15, -50.01));
#66 = CIRCLE('', #67, 3.175);
#67 = AXIS2_PLACEMENT_3D('', #68, #69, #70);
#68 = CARTESIAN_POINT('', (8.18789480661053E-16, 2.22044604925031E-15, -50.01));
#69 = DIRECTION('', (0., 0., -1.));
#70 = DIRECTION('', (-1., 3.26360929569224E-16, 0.));
#71 = ORIENTED_EDGE('', *, *, #72, .T.);
#72 = EDGE_CURVE('', #64, #8, #73, .T.);
#73 = LINE('', #74, #75);
#74 = CARTESIAN_POINT('', (-3.175, 3.2566420006326E-15, -50.01));
#75 = VECTOR('', #76, 49.6925);
#76 = DIRECTION('', (0., -3.04278805333149E-15, 49.6925));
#77 = ORIENTED_EDGE('', *, *, #25, .T.);
#78 = ORIENTED_EDGE('', *, *, #72, .F.);
#79 = (
   BOUNDED_SURFACE ()
   B_SPLINE_SURFACE (1, 2, ((#80, #81, #82, #83, #84, #85, #86, #87, #88), (#89, #90, #91, #92, #93, #94, #95, #96, #97)), .UNSPECIFIED., .F., .T., .U.)
   B_SPLINE_SURFACE_WITH_KNOTS ((2, 2), (3, 2, 2, 2, 3), (-0.39262944020178, 1.), (0., 0.25, 0.5, 0.75, 1.), .UNSPECIFIED.)
   GEOMETRIC_REPRESENTATION_ITEM ()
   RATIONAL_B_SPLINE_SURFACE (((1., 0.707106781186548, 1., 0.707106781186548, 1., 0.707106781186548, 1., 0.707106781186548, 1.), (1., 0.707106781186548, 1., 0.707106781186548, 1., 0.707106781186548, 1., 0.707106781186548, 1.)))
   REPRESENTATION_ITEM ('')
   SURFACE ()
);
#80 = CARTESIAN_POINT('', (-3.175, 2.82287805517023E-15, -50.01));
#81 = CARTESIAN_POINT('', (-3.175, 3.175, -50.01));
#82 = CARTESIAN_POINT('', (-4.70409848373492E-17, 3.175, -50.01));
#83 = CARTESIAN_POINT('', (3.175, 3.175, -50.01));
#84 = CARTESIAN_POINT('', (3.175, 6.3367091980978E-15, -50.01));
#85 = CARTESIAN_POINT('', (3.175, -3.17499999999999, -50.01));
#86 = CARTESIAN_POINT('', (3.8556155168195E-15, -3.17499999999999, -50.01));
#87 = CARTESIAN_POINT('', (-3.17499999999999, -3.175, -50.01));
#88 = CARTESIAN_POINT('', (-3.175, 2.82287805517023E-15, -50.01));
#89 = CARTESIAN_POINT('', (-3.175, 2.13853947301108E-16, -0.317500000000003));
#90 = CARTESIAN_POINT('', (-3.175, 3.175, -0.317500000000003));
#91 = CARTESIAN_POINT('', (-1.78467114707941E-15, 3.175, -0.317500000000003));
#92 = CARTESIAN_POINT('', (3.175, 3.175, -0.317500000000003));
#93 = CARTESIAN_POINT('', (3.175, 3.72768509022868E-15, -0.317500000000003));
#94 = CARTESIAN_POINT('', (3.175, -3.17499999999999, -0.317500000000003));
#95 = CARTESIAN_POINT('', (2.11798535457744E-15, -3.175, -0.317500000000003));
#96 = CARTESIAN_POINT('', (-3.175, -3.175, -0.317500000000003));
#97 = CARTESIAN_POINT('', (-3.175, 2.13853947301108E-16, -0.317500000000003));
#98 = ADVANCED_FACE('', (#99), #102, .T.);
#99 = FACE_OUTER_BOUND('', #100, .T.);
#100 = EDGE_LOOP('', (#101));
#101 = ORIENTED_EDGE('', *, *, #63, .T.);
#102 = B_SPLINE_SURFACE_WITH_KNOTS('', 1, 1, ((#103, #104), (#105, #106)), .UNSPECIFIED., .F., .F., .U., (2, 2), (2, 2), (62.7828621465201, 69.1328621465201), (59.1308600760951, 65.4808600760951), .UNSPECIFIED.);
#103 = CARTESIAN_POINT('', (-3.175, 3.17500000000001, -50.01));
#104 = CARTESIAN_POINT('', (-3.175, -3.175, -50.01));
#105 = CARTESIAN_POINT('', (3.175, 3.17500000000001, -50.01));
#106 = CARTESIAN_POINT('', (3.175, -3.175, -50.01));
#107 = DRAUGHTING_MODEL('', (#115, #229, #276, #281, #286, #291, #296, #301), #315);
#108 = PRESENTATION_STYLE_ASSIGNMENT((#109));
#109 = SURFACE_STYLE_USAGE(.POSITIVE., #110);
#110 = SURFACE_SIDE_STYLE('', (#111));
#111 = SURFACE_STYLE_FILL_AREA(#112);
#112 = FILL_AREA_STYLE('', (#113));
#113 = FILL_AREA_STYLE_COLOUR('', #114);
#114 = COLOUR_RGB('', 0.50196078431373, 0.50196078431373, 0.50196078431373);
#115 = STYLED_ITEM('', (#108), #1);
#116 = MANIFOLD_SOLID_BREP('CUT', #117);
#117 = CLOSED_SHELL('', (#118, #135, #174, #213));
#118 = ADVANCED_FACE('', (#119), #130, .T.);
#119 = FACE_OUTER_BOUND('', #120, .T.);
#120 = EDGE_LOOP('', (#121));
#121 = ORIENTED_EDGE('', *, *, #122, .F.);
#122 = EDGE_CURVE('', #123, #123, #125, .T.);
#123 = VERTEX_POINT('', #124);
#124 = CARTESIAN_POINT('', (-3.175, 3.2566420006326E-15, -50.01));
#125 = CIRCLE('', #126, 3.175);
#126 = AXIS2_PLACEMENT_3D('', #127, #128, #129);
#127 = CARTESIAN_POINT('', (8.18789480661053E-16, 2.22044604925031E-15, -50.01));
#128 = DIRECTION('', (0., 0., -1.));
#129 = DIRECTION('', (-1., 3.26360929569224E-16, 0.));
#130 = B_SPLINE_SURFACE_WITH_KNOTS('', 1, 1, ((#131, #132), (#133, #134)), .UNSPECIFIED., .F., .F., .U., (2, 2), (2, 2), (59.1308600760951, 65.4808600760951), (62.7828621465201, 69.1328621465201), .UNSPECIFIED.);
#131 = CARTESIAN_POINT('', (-3.175, 3.17500000000001, -50.01));
#132 = CARTESIAN_POINT('', (3.175, 3.17500000000001, -50.01));
#133 = CARTESIAN_POINT('', (-3.175, -3.175, -50.01));
#134 = CARTESIAN_POINT('', (3.175, -3.175, -50.01));
#135 = ADVANCED_FACE('', (#136), #155, .T.);
#136 = FACE_OUTER_BOUND('', #137, .T.);
#137 = EDGE_LOOP('', (#138, #139, #147, #154));
#138 = ORIENTED_EDGE('', *, *, #122, .T.);
#139 = ORIENTED_EDGE('', *, *, #140, .F.);
#140 = EDGE_CURVE('', #141, #123, #143, .T.);
#141 = VERTEX_POINT('', #142);
#142 = CARTESIAN_POINT('', (-3.175, 4.06092878597262E-15, -63.145));
#143 = LINE('', #144, #145);
#144 = CARTESIAN_POINT('', (-3.175, 4.06092878597262E-15, -63.145));
#145 = VECTOR('', #146, 13.135);
#146 = DIRECTION('', (0., -8.0428678534002E-16, 13.135));
#147 = ORIENTED_EDGE('', *, *, #148, .F.);
#148 = EDGE_CURVE('', #141, #141, #149, .T.);
#149 = CIRCLE('', #150, 3.17500000000001);
#150 = AXIS2_PLACEMENT_3D('', #151, #152, #153);
#151 = CARTESIAN_POINT('', (8.32667268468867E-17, 4.55191440096314E-15, -63.145));
#152 = DIRECTION('', (0., 0., -1.));
#153 = DIRECTION('', (-1., -1.54641138579691E-16, 0.));
#154 = ORIENTED_EDGE('', *, *, #140, .T.);
#155 = (
   BOUNDED_SURFACE ()
   B_SPLINE_SURFACE (1, 2, ((#156, #157, #158, #159, #160, #161, #162, #163, #164), (#165, #166, #167, #168, #169, #170, #171, #172, #173)), .UNSPECIFIED., .F., .T., .U.)
   B_SPLINE_SURFACE_WITH_KNOTS ((2, 2), (3, 2, 2, 2, 3), (-0.760737055979822, -0.39262944020178), (0., 0.25, 0.5, 0.75, 1.), .UNSPECIFIED.)
   GEOMETRIC_REPRESENTATION_ITEM ()
   RATIONAL_B_SPLINE_SURFACE (((1., 0.707106781186548, 1., 0.707106781186548, 1., 0.707106781186548, 1., 0.707106781186548, 1.), (1., 0.707106781186548, 1., 0.707106781186548, 1., 0.707106781186548, 1., 0.707106781186548, 1.)))
   REPRESENTATION_ITEM ('')
   SURFACE ()
);
#156 = CARTESIAN_POINT('', (-3.175, 3.86726466417644E-15, -63.145));
#157 = CARTESIAN_POINT('', (-3.175, 3.175, -63.145));
#158 = CARTESIAN_POINT('', (-9.34573567382605E-16, 3.175, -63.145));
#159 = CARTESIAN_POINT('', (3.175, 3.175, -63.145));
#160 = CARTESIAN_POINT('', (3.175, 6.51356791617926E-15, -63.145));
#161 = CARTESIAN_POINT('', (3.175, -3.17499999999999, -63.145));
#162 = CARTESIAN_POINT('', (2.1005550433495E-15, -3.17499999999999, -63.145));
#163 = CARTESIAN_POINT('', (-3.175, -3.17499999999999, -63.145));
#164 = CARTESIAN_POINT('', (-3.175, 3.86726466417644E-15, -63.145));
#165 = CARTESIAN_POINT('', (-3.175, 3.2566420006326E-15, -50.01));
#166 = CARTESIAN_POINT('', (-3.175, 3.175, -50.01));
#167 = CARTESIAN_POINT('', (-9.34573567382605E-16, 3.175, -50.01));
#168 = CARTESIAN_POINT('', (3.175, 3.175, -50.01));
#169 = CARTESIAN_POINT('', (3.175, 5.90294525263542E-15, -50.01));
#170 = CARTESIAN_POINT('', (3.175, -3.17499999999999, -50.01));
#171 = CARTESIAN_POINT('', (2.1005550433495E-15, -3.17499999999999, -50.01));
#172 = CARTESIAN_POINT('', (-3.175, -3.175, -50.01));
#173 = CARTESIAN_POINT('', (-3.175, 3.2566420006326E-15, -50.01));
#174 = ADVANCED_FACE('', (#175), #194, .T.);
#175 = FACE_OUTER_BOUND('', #176, .T.);
#176 = EDGE_LOOP('', (#177, #185, #186, #187));
#177 = ORIENTED_EDGE('', *, *, #178, .F.);
#178 = EDGE_CURVE('', #141, #179, #181, .T.);
#179 = VERTEX_POINT('', #180);
#180 = CARTESIAN_POINT('', (-2.92642632393555, 4.06744551882026E-15, -63.5));
#181 = LINE('', #182, #183);
#182 = CARTESIAN_POINT('', (-3.175, 4.06092878597262E-15, -63.145));
#183 = VECTOR('', #184, 0.433374979010316);
#184 = DIRECTION('', (0.24857367606445, 6.51673284764011E-18, -0.354999999999997));
#185 = ORIENTED_EDGE('', *, *, #148, .T.);
#186 = ORIENTED_EDGE('', *, *, #178, .T.);
#187 = ORIENTED_EDGE('', *, *, #188, .F.);
#188 = EDGE_CURVE('', #179, #179, #189, .T.);
#189 = CIRCLE('', #190, 2.92642632393555);
#190 = AXIS2_PLACEMENT_3D('', #191, #192, #193);
#191 = CARTESIAN_POINT('', (6.10622663543836E-16, 1.16573417585641E-15, -63.5));
#192 = DIRECTION('', (0., 0., -1.));
#193 = DIRECTION('', (-1., 9.91554552127433E-16, 0.));
#194 = (
   BOUNDED_SURFACE ()
   B_SPLINE_SURFACE (2, 1, ((#195, #196), (#197, #198), (#199, #200), (#201, #202), (#203, #204), (#205, #206), (#207, #208), (#209, #210), (#211, #212)), .UNSPECIFIED., .T., .F., .U.)
   B_SPLINE_SURFACE_WITH_KNOTS ((3, 2, 2, 2, 3), (2, 2), (0., 0.25, 0.5, 0.75, 1.), (0., 1.), .UNSPECIFIED.)
   GEOMETRIC_REPRESENTATION_ITEM ()
   RATIONAL_B_SPLINE_SURFACE (((1., 1.), (0.707106781186548, 0.707106781186548), (1., 1.), (0.707106781186548, 0.707106781186548), (1., 1.), (0.707106781186548, 0.707106781186548), (1., 1.), (0.707106781186548, 0.707106781186548), (1., 1.)))
   REPRESENTATION_ITEM ('')
   SURFACE ()
);
#195 = CARTESIAN_POINT('', (-3.175, 4.06092878597262E-15, -63.145));
#196 = CARTESIAN_POINT('', (-2.92642632393555, 5.34412627611582E-15, -63.5));
#197 = CARTESIAN_POINT('', (-3.175, 3.175, -63.145));
#198 = CARTESIAN_POINT('', (-2.92642632393555, 2.92642632393556, -63.5));
#199 = CARTESIAN_POINT('', (4.39387204330493E-15, 3.175, -63.145));
#200 = CARTESIAN_POINT('', (4.08246689557889E-15, 2.92642632393555, -63.5));
#201 = CARTESIAN_POINT('', (3.175, 3.175, -63.145));
#202 = CARTESIAN_POINT('', (2.92642632393556, 2.92642632393555, -63.5));
#203 = CARTESIAN_POINT('', (3.175, -3.89414803216837E-15, -63.145));
#204 = CARTESIAN_POINT('', (2.92642632393555, -1.98814024657308E-15, -63.5));
#205 = CARTESIAN_POINT('', (3.175, -3.175, -63.145));
#206 = CARTESIAN_POINT('', (2.92642632393555, -2.92642632393555, -63.5));
#207 = CARTESIAN_POINT('', (-3.17237941610677E-15, -3.175, -63.145));
#208 = CARTESIAN_POINT('', (-2.89141576405519E-15, -2.92642632393555, -63.5));
#209 = CARTESIAN_POINT('', (-3.175, -3.175, -63.145));
#210 = CARTESIAN_POINT('', (-2.92642632393556, -2.92642632393555, -63.5));
#211 = CARTESIAN_POINT('', (-3.175, 4.06092878597262E-15, -63.145));
#212 = CARTESIAN_POINT('', (-2.92642632393555, 5.34412627611582E-15, -63.5));
#213 = ADVANCED_FACE('', (#214), #217, .T.);
#214 = FACE_OUTER_BOUND('', #215, .T.);
#215 = EDGE_LOOP('', (#216));
#216 = ORIENTED_EDGE('', *, *, #188, .T.);
#217 = B_SPLINE_SURFACE_WITH_KNOTS('', 1, 1, ((#218, #219), (#220, #221)), .UNSPECIFIED., .F., .F., .U., (2, 2), (2, 2), (1.62602465231928, 7.47887730019038), (1.62602465231928, 7.47887730019039), .UNSPECIFIED.);
#218 = CARTESIAN_POINT('', (2.92642632393555, -2.92642632393555, -63.5));
#219 = CARTESIAN_POINT('', (2.92642632393555, 2.92642632393556, -63.5));
#220 = CARTESIAN_POINT('', (-2.92642632393555, -2.92642632393555, -63.5));
#221 = CARTESIAN_POINT('', (-2.92642632393555, 2.92642632393556, -63.5));
#222 = PRESENTATION_STYLE_ASSIGNMENT((#223));
#223 = SURFACE_STYLE_USAGE(.POSITIVE., #224);
#224 = SURFACE_SIDE_STYLE('', (#225));
#225 = SURFACE_STYLE_FILL_AREA(#226);
#226 = FILL_AREA_STYLE('', (#227));
#227 = FILL_AREA_STYLE_COLOUR('', #228);
#228 = COLOUR_RGB('', 0.8, 0.8, 0.8);
#229 = STYLED_ITEM('', (#222), #116);
#230 = TRIMMED_CURVE('cutting part line', #231, (#235), (#236), .T., .CARTESIAN.);
#231 = LINE('', #232, #233);
#232 = CARTESIAN_POINT('', (-5.62522400481897E-31, -3.06222932126796E-15, -50.01));
#233 = VECTOR('', #234, 3.175);
#234 = DIRECTION('', (3.175, -5.83238038093924E-16, 0.));
#235 = CARTESIAN_POINT('', (-5.62522400481897E-31, -3.06222932126796E-15, -50.01));
#236 = CARTESIAN_POINT('', (3.175, -3.64546735936188E-15, -50.01));
#237 = TRIMMED_CURVE('cutting part line', #238, (#242), (#243), .T., .CARTESIAN.);
#238 = LINE('', #239, #240);
#239 = CARTESIAN_POINT('', (3.175, -3.64546735936188E-15, -50.01));
#240 = VECTOR('', #241, 13.135);
#241 = DIRECTION('', (0., -8.0428678534002E-16, -13.135));
#242 = CARTESIAN_POINT('', (3.175, -3.64546735936188E-15, -50.01));
#243 = CARTESIAN_POINT('', (3.175, -4.4497541447019E-15, -63.145));
#244 = TRIMMED_CURVE('cutting part line', #245, (#249), (#250), .T., .CARTESIAN.);
#245 = LINE('', #246, #247);
#246 = CARTESIAN_POINT('', (3.175, -4.4497541447019E-15, -63.145));
#247 = VECTOR('', #248, 0.433374979010316);
#248 = DIRECTION('', (-0.24857367606445, 2.39247628268213E-17, -0.354999999999997));
#249 = CARTESIAN_POINT('', (3.175, -4.4497541447019E-15, -63.145));
#250 = CARTESIAN_POINT('', (2.92642632393555, -4.42582938187508E-15, -63.5));
#251 = TRIMMED_CURVE('cutting part line', #252, (#256), (#257), .T., .CARTESIAN.);
#252 = LINE('', #253, #254);
#253 = CARTESIAN_POINT('', (2.92642632393555, -4.42582938187508E-15, -63.5));
#254 = VECTOR('', #255, 2.92642632393555);
#255 = DIRECTION('', (-2.92642632393555, 5.37575794582234E-16, 0.));
#256 = CARTESIAN_POINT('', (2.92642632393555, -4.42582938187508E-15, -63.5));
#257 = CARTESIAN_POINT('', (-4.7617373099514E-31, -3.88825358729285E-15, -63.5));
#258 = TRIMMED_CURVE('cutting part line', #259, (#263), (#264), .T., .CARTESIAN.);
#259 = LINE('', #260, #261);
#260 = CARTESIAN_POINT('', (-7.1426059649271E-31, -3.88825358729285E-15, -63.5));
#261 = VECTOR('', #262, 13.49);
#262 = DIRECTION('', (1.51738196010813E-31, 8.2602426602489E-16, 13.49));
#263 = CARTESIAN_POINT('', (-7.1426059649271E-31, -3.88825358729285E-15, -63.5));
#264 = CARTESIAN_POINT('', (-5.62522400481897E-31, -3.06222932126796E-15, -50.01));
#265 = COMPOSITE_CURVE('cutting part line', (#266, #267, #268, #269, #270), .U.);
#266 = COMPOSITE_CURVE_SEGMENT(.CONTINUOUS., .T., #230);
#267 = COMPOSITE_CURVE_SEGMENT(.CONTINUOUS., .T., #237);
#268 = COMPOSITE_CURVE_SEGMENT(.CONTINUOUS., .T., #244);
#269 = COMPOSITE_CURVE_SEGMENT(.CONTINUOUS., .T., #251);
#270 = COMPOSITE_CURVE_SEGMENT(.CONTINUOUS., .T., #258);
#271 = GEOMETRIC_SET('', (#265, #314));
#272 = PRESENTATION_STYLE_ASSIGNMENT((#273));
#273 = CURVE_STYLE('', #275, POSITIVE_LENGTH_MEASURE(1.E-6), #274);
#274 = COLOUR_RGB('', 0., 0., 1.);
#275 = DRAUGHTING_PRE_DEFINED_CURVE_FONT('continuous');
#276 = STYLED_ITEM('', (#272), #265);
#277 = PRESENTATION_STYLE_ASSIGNMENT((#278));
#278 = CURVE_STYLE('', #280, POSITIVE_LENGTH_MEASURE(1.E-6), #279);
#279 = COLOUR_RGB('', 0., 0., 1.);
#280 = DRAUGHTING_PRE_DEFINED_CURVE_FONT('continuous');
#281 = OVER_RIDING_STYLED_ITEM('', (#277), #230, #276);
#282 = PRESENTATION_STYLE_ASSIGNMENT((#283));
#283 = CURVE_STYLE('', #285, POSITIVE_LENGTH_MEASURE(1.E-6), #284);
#284 = COLOUR_RGB('', 0., 0., 1.);
#285 = DRAUGHTING_PRE_DEFINED_CURVE_FONT('continuous');
#286 = OVER_RIDING_STYLED_ITEM('', (#282), #237, #276);
#287 = PRESENTATION_STYLE_ASSIGNMENT((#288));
#288 = CURVE_STYLE('', #290, POSITIVE_LENGTH_MEASURE(1.E-6), #289);
#289 = COLOUR_RGB('', 0., 0., 1.);
#290 = DRAUGHTING_PRE_DEFINED_CURVE_FONT('continuous');
#291 = OVER_RIDING_STYLED_ITEM('', (#287), #244, #276);
#292 = PRESENTATION_STYLE_ASSIGNMENT((#293));
#293 = CURVE_STYLE('', #295, POSITIVE_LENGTH_MEASURE(1.E-6), #294);
#294 = COLOUR_RGB('', 0., 0., 1.);
#295 = DRAUGHTING_PRE_DEFINED_CURVE_FONT('continuous');
#296 = OVER_RIDING_STYLED_ITEM('', (#292), #251, #276);
#297 = PRESENTATION_STYLE_ASSIGNMENT((#298));
#298 = CURVE_STYLE('', #300, POSITIVE_LENGTH_MEASURE(1.E-6), #299);
#299 = COLOUR_RGB('', 0., 0., 1.);
#300 = DRAUGHTING_PRE_DEFINED_CURVE_FONT('continuous');
#301 = OVER_RIDING_STYLED_ITEM('', (#297), #258, #276);
#302 = AXIS2_PLACEMENT_3D('CIP', #303, #304, #305);
#303 = CARTESIAN_POINT('', (2.3808686549757E-31, 3.88825358729285E-15, -63.5));
#304 = DIRECTION('', (-3.74939945665465E-33, -6.12323399573677E-17, 1.));
#305 = DIRECTION('', (1., -6.12323399573677E-17, 0.));
#306 = AXIS2_PLACEMENT_3D('MCS', #307, #308, #309);
#307 = CARTESIAN_POINT('', (1.34978380439567E-31, 2.20436423846524E-15, -36.));
#308 = DIRECTION('', (-3.74939945665465E-33, -6.12323399573677E-17, 1.));
#309 = DIRECTION('', (1., -6.12323399573677E-17, 0.));
#310 = AXIS2_PLACEMENT_3D('PCS', #311, #312, #313);
#311 = CARTESIAN_POINT('', (0., 0., 0.));
#312 = DIRECTION('', (0., 0., 1.));
#313 = DIRECTION('', (1., 0., 0.));
#314 = CARTESIAN_POINT('CRP', (3.175, 0., -63.5));
#315 = (
   GEOMETRIC_REPRESENTATION_CONTEXT (3)
   GLOBAL_UNCERTAINTY_ASSIGNED_CONTEXT ((#317))
   GLOBAL_UNIT_ASSIGNED_CONTEXT ((#316, #318, #319))
   REPRESENTATION_CONTEXT ('', '3D')
);
#316 = (
   LENGTH_UNIT ()
   NAMED_UNIT (*)
   SI_UNIT (.MILLI., .METRE.)
);
#317 = UNCERTAINTY_MEASURE_WITH_UNIT(LENGTH_MEASURE(1.E-6), #316, 'DISTANCE_ACCURACY_VALUE', '');
#318 = (
   NAMED_UNIT (*)
   SI_UNIT ($, .STERADIAN.)
   SOLID_ANGLE_UNIT ()
);
#319 = (
   NAMED_UNIT (*)
   PLANE_ANGLE_UNIT ()
   SI_UNIT ($, .RADIAN.)
);
#320 = SHAPE_REPRESENTATION('', (), #315);
#321 = PRODUCT_DEFINITION_SHAPE('', '', #322);
#322 = PRODUCT_DEFINITION('', '', #325, #329);
#323 = APPLICATION_CONTEXT('configuration controlled 3D designs of mechanical parts and assemblies');
#324 = APPLICATION_PROTOCOL_DEFINITION('International Standard', 'automotive_design', 2002, #323);
#325 = PRODUCT_DEFINITION_FORMATION_WITH_SPECIFIED_SOURCE('', '', #326, .NOT_KNOWN.);
#326 = PRODUCT('NONE', '1P340-0635-XA       1640', '', (#327));
#327 = PRODUCT_CONTEXT('', #323, 'mechanical');
#328 = PRODUCT_RELATED_PRODUCT_CATEGORY('detail', '', (#326));
#329 = PRODUCT_DEFINITION_CONTEXT('part definition', #323, 'design');
#330 = SHAPE_DEFINITION_REPRESENTATION(#321, #320);
#331 = CONSTRUCTIVE_GEOMETRY_REPRESENTATION('supplemental geometry', (#302, #306, #310), #315);
#332 = CONSTRUCTIVE_GEOMETRY_REPRESENTATION_RELATIONSHIP('', '', #320, #331);
#333 = SHAPE_REPRESENTATION_RELATIONSHIP('', '', #320, #334);
#334 = SHAPE_REPRESENTATION('', (#271), #315);
#335 = SHAPE_REPRESENTATION_RELATIONSHIP('', '', #320, #336);
#336 = ADVANCED_BREP_SHAPE_REPRESENTATION('', (#1, #116), #315);
ENDSEC;
END-ISO-10303-21;
