ISO-10303-21;
HEADER;
FILE_DESCRIPTION(('STEP'), '1');
FILE_NAME('C:\\Users\\ds2002\\OneDrive - Sandvik\\HomeShare\\Documents\\Batchrepair\\CorSRT2\\NEW_MILSQ_SLD\\Output\\MOD000000000000000020082322500000.stp', '2019-01-02T12:06:11', (''), (''), 'Express v3.0.0.0', 'Express Tool', 'Unknown');
FILE_SCHEMA(('AUTOMOTIVE_DESIGN'));
ENDSEC;

DATA;
#1 = MANIFOLD_SOLID_BREP('NOCUT', #2);
#2 = CLOSED_SHELL('', (#3, #50, #59, #98));
#3 = ADVANCED_FACE('', (#4), #31, .T.);
#4 = FACE_OUTER_BOUND('', #5, .T.);
#5 = EDGE_LOOP('', (#6, #16, #23, #24));
#6 = ORIENTED_EDGE('', *, *, #7, .T.);
#7 = EDGE_CURVE('', #8, #10, #12, .T.);
#8 = VERTEX_POINT('', #9);
#9 = CARTESIAN_POINT('', (-6.35, 4.27707894602213E-16, -0.634999999999998));
#10 = VERTEX_POINT('', #11);
#11 = CARTESIAN_POINT('', (-5.715, 3.49942822856356E-16, 0.));
#12 = LINE('', #13, #14);
#13 = CARTESIAN_POINT('', (-6.35, 4.27707894602213E-16, -0.634999999999998));
#14 = VECTOR('', #15, 0.898025612106914);
#15 = DIRECTION('', (0.635, -7.7765071745857E-17, 0.634999999999998));
#16 = ORIENTED_EDGE('', *, *, #17, .T.);
#17 = EDGE_CURVE('', #10, #10, #18, .T.);
#18 = CIRCLE('', #19, 5.715);
#19 = AXIS2_PLACEMENT_3D('', #20, #21, #22);
#20 = CARTESIAN_POINT('', (-6.93889390390723E-16, -1.33226762955019E-15, -5.54667823983524E-32));
#21 = DIRECTION('', (8.31826769960494E-33, 6.12323399573676E-17, -1.));
#22 = DIRECTION('', (-1., 2.94350035416718E-16, 9.70547373549474E-33));
#23 = ORIENTED_EDGE('', *, *, #7, .F.);
#24 = ORIENTED_EDGE('', *, *, #25, .F.);
#25 = EDGE_CURVE('', #8, #8, #26, .T.);
#26 = CIRCLE('', #27, 6.35000000000002);
#27 = AXIS2_PLACEMENT_3D('', #28, #29, #30);
#28 = CARTESIAN_POINT('', (1.22124532708767E-15, 2.88657986402541E-15, -0.634999999999998));
#29 = DIRECTION('', (1.74838271594512E-17, -5.68804246456847E-17, -1.));
#30 = DIRECTION('', (-1., -3.87223932192628E-16, -1.74838271594512E-17));
#31 = (
   BOUNDED_SURFACE ()
   B_SPLINE_SURFACE (1, 2, ((#32, #33, #34, #35, #36, #37, #38, #39, #40), (#41, #42, #43, #44, #45, #46, #47, #48, #49)), .UNSPECIFIED., .F., .T., .U.)
   B_SPLINE_SURFACE_WITH_KNOTS ((2, 2), (3, 2, 2, 2, 3), (0., 1.), (0., 0.25, 0.5, 0.75, 1.), .UNSPECIFIED.)
   GEOMETRIC_REPRESENTATION_ITEM ()
   RATIONAL_B_SPLINE_SURFACE (((1., 0.707106781186548, 1., 0.707106781186548, 1., 0.707106781186548, 1., 0.707106781186548, 1.), (1., 0.707106781186548, 1., 0.707106781186548, 1., 0.707106781186548, 1., 0.707106781186548, 1.)))
   REPRESENTATION_ITEM ('')
   SURFACE ()
);
#32 = CARTESIAN_POINT('', (-6.35, -1.37519566928624E-15, -0.634999999999998));
#33 = CARTESIAN_POINT('', (-6.35, 6.35, -0.635000000000017));
#34 = CARTESIAN_POINT('', (3.48178276333834E-15, 6.35, -0.635000000000017));
#35 = CARTESIAN_POINT('', (6.35, 6.35, -0.635000000000017));
#36 = CARTESIAN_POINT('', (6.35, -3.84235794623103E-15, -0.634999999999998));
#37 = CARTESIAN_POINT('', (6.35, -6.35, -0.634999999999979));
#38 = CARTESIAN_POINT('', (1.79227120385212E-15, -6.35, -0.634999999999979));
#39 = CARTESIAN_POINT('', (-6.35, -6.35, -0.634999999999979));
#40 = CARTESIAN_POINT('', (-6.35, -1.37519566928624E-15, -0.634999999999998));
#41 = CARTESIAN_POINT('', (-5.715, 3.49942822856355E-16, 0.));
#42 = CARTESIAN_POINT('', (-5.715, 5.715, -1.6986412276765E-14));
#43 = CARTESIAN_POINT('', (3.3584246494911E-15, 5.715, -1.6986412276765E-14));
#44 = CARTESIAN_POINT('', (5.71500000000001, 5.715, -1.6986412276765E-14));
#45 = CARTESIAN_POINT('', (5.715, -1.87050322639396E-15, -2.19116910717046E-30));
#46 = CARTESIAN_POINT('', (5.715, -5.715, 1.6986412276765E-14));
#47 = CARTESIAN_POINT('', (1.8378642459535E-15, -5.715, 1.6986412276765E-14));
#48 = CARTESIAN_POINT('', (-5.715, -5.715, 1.6986412276765E-14));
#49 = CARTESIAN_POINT('', (-5.715, 3.49942822856355E-16, 0.));
#50 = ADVANCED_FACE('', (#51), #54, .T.);
#51 = FACE_OUTER_BOUND('', #52, .T.);
#52 = EDGE_LOOP('', (#53));
#53 = ORIENTED_EDGE('', *, *, #17, .F.);
#54 = B_SPLINE_SURFACE_WITH_KNOTS('', 1, 1, ((#55, #56), (#57, #58)), .UNSPECIFIED., .F., .F., .U., (2, 2), (2, 2), (3.17545355985846, 14.6054535598585), (3.17545355985846, 14.6054535598585), .UNSPECIFIED.);
#55 = CARTESIAN_POINT('', (5.715, -5.715, 6.75548453474466E-15));
#56 = CARTESIAN_POINT('', (-5.715, -5.715, -7.45537018045732E-15));
#57 = CARTESIAN_POINT('', (5.715, 5.715, 2.16662248956594E-14));
#58 = CARTESIAN_POINT('', (-5.715, 5.715, 7.4553701804574E-15));
#59 = ADVANCED_FACE('', (#60), #79, .T.);
#60 = FACE_OUTER_BOUND('', #61, .T.);
#61 = EDGE_LOOP('', (#62, #71, #77, #78));
#62 = ORIENTED_EDGE('', *, *, #63, .F.);
#63 = EDGE_CURVE('', #64, #64, #66, .T.);
#64 = VERTEX_POINT('', #65);
#65 = CARTESIAN_POINT('', (-6.35, 3.30348474069999E-15, -47.6));
#66 = CIRCLE('', #67, 6.35);
#67 = AXIS2_PLACEMENT_3D('', #68, #69, #70);
#68 = CARTESIAN_POINT('', (9.99200722162641E-16, 3.99680288865056E-15, -47.6));
#69 = DIRECTION('', (0., 0., -1.));
#70 = DIRECTION('', (-1., -1.09183960307177E-16, 0.));
#71 = ORIENTED_EDGE('', *, *, #72, .T.);
#72 = EDGE_CURVE('', #64, #8, #73, .T.);
#73 = LINE('', #74, #75);
#74 = CARTESIAN_POINT('', (-6.35, 3.30348474069999E-15, -47.6));
#75 = VECTOR('', #76, 46.965);
#76 = DIRECTION('', (0., -2.87577684609778E-15, 46.965));
#77 = ORIENTED_EDGE('', *, *, #25, .T.);
#78 = ORIENTED_EDGE('', *, *, #72, .F.);
#79 = (
   BOUNDED_SURFACE ()
   B_SPLINE_SURFACE (1, 2, ((#80, #81, #82, #83, #84, #85, #86, #87, #88), (#89, #90, #91, #92, #93, #94, #95, #96, #97)), .UNSPECIFIED., .F., .T., .U.)
   B_SPLINE_SURFACE_WITH_KNOTS ((2, 2), (3, 2, 2, 2, 3), (-1.11022302462516E-16, 1.), (0., 0.25, 0.5, 0.75, 1.), .UNSPECIFIED.)
   GEOMETRIC_REPRESENTATION_ITEM ()
   RATIONAL_B_SPLINE_SURFACE (((1., 0.707106781186548, 1., 0.707106781186548, 1., 0.707106781186548, 1., 0.707106781186548, 1.), (1., 0.707106781186548, 1., 0.707106781186548, 1., 0.707106781186548, 1., 0.707106781186548, 1.)))
   REPRESENTATION_ITEM ('')
   SURFACE ()
);
#80 = CARTESIAN_POINT('', (-6.35, 1.6747986356592E-14, -47.6));
#81 = CARTESIAN_POINT('', (-6.34999999999998, 6.35000000000001, -47.6));
#82 = CARTESIAN_POINT('', (1.27231805922154E-14, 6.35, -47.6));
#83 = CARTESIAN_POINT('', (6.35000000000001, 6.34999999999999, -47.6));
#84 = CARTESIAN_POINT('', (6.35, -6.86650683720716E-15, -47.6));
#85 = CARTESIAN_POINT('', (6.34999999999999, -6.35, -47.6));
#86 = CARTESIAN_POINT('', (-1.01136618841252E-14, -6.34999999999999, -47.6));
#87 = CARTESIAN_POINT('', (-6.35000000000001, -6.34999999999998, -47.6));
#88 = CARTESIAN_POINT('', (-6.35, 1.6747986356592E-14, -47.6));
#89 = CARTESIAN_POINT('', (-6.35, 4.27707894602205E-16, -0.634999999999998));
#90 = CARTESIAN_POINT('', (-6.34999999999998, 6.35, -0.634999999999996));
#91 = CARTESIAN_POINT('', (1.27231805922153E-14, 6.34999999999999, -0.634999999999996));
#92 = CARTESIAN_POINT('', (6.35000000000001, 6.34999999999997, -0.634999999999996));
#93 = CARTESIAN_POINT('', (6.35, -2.3186785299197E-14, -0.634999999999998));
#94 = CARTESIAN_POINT('', (6.34999999999999, -6.35000000000002, -0.635));
#95 = CARTESIAN_POINT('', (-1.01136618841253E-14, -6.35000000000001, -0.635));
#96 = CARTESIAN_POINT('', (-6.35000000000001, -6.35, -0.635));
#97 = CARTESIAN_POINT('', (-6.35, 4.27707894602205E-16, -0.634999999999998));
#98 = ADVANCED_FACE('', (#99), #102, .T.);
#99 = FACE_OUTER_BOUND('', #100, .T.);
#100 = EDGE_LOOP('', (#101));
#101 = ORIENTED_EDGE('', *, *, #63, .T.);
#102 = B_SPLINE_SURFACE_WITH_KNOTS('', 1, 1, ((#103, #104), (#105, #106)), .UNSPECIFIED., .F., .F., .U., (2, 2), (2, 2), (73.521396777698, 86.221396777698), (70.3547292798852, 83.0547292798852), .UNSPECIFIED.);
#103 = CARTESIAN_POINT('', (-6.34999999999999, 6.35000000000001, -47.6));
#104 = CARTESIAN_POINT('', (-6.34999999999999, -6.34999999999999, -47.6));
#105 = CARTESIAN_POINT('', (6.34999999999999, 6.35000000000001, -47.6));
#106 = CARTESIAN_POINT('', (6.34999999999999, -6.34999999999999, -47.6));
#107 = DRAUGHTING_MODEL('', (#115, #229, #276, #281, #286, #291, #296, #301), #315);
#108 = PRESENTATION_STYLE_ASSIGNMENT((#109));
#109 = SURFACE_STYLE_USAGE(.POSITIVE., #110);
#110 = SURFACE_SIDE_STYLE('', (#111));
#111 = SURFACE_STYLE_FILL_AREA(#112);
#112 = FILL_AREA_STYLE('', (#113));
#113 = FILL_AREA_STYLE_COLOUR('', #114);
#114 = COLOUR_RGB('', 0.50196078431373, 0.50196078431373, 0.50196078431373);
#115 = STYLED_ITEM('', (#108), #1);
#116 = MANIFOLD_SOLID_BREP('CUT', #117);
#117 = CLOSED_SHELL('', (#118, #135, #174, #213));
#118 = ADVANCED_FACE('', (#119), #130, .T.);
#119 = FACE_OUTER_BOUND('', #120, .T.);
#120 = EDGE_LOOP('', (#121));
#121 = ORIENTED_EDGE('', *, *, #122, .F.);
#122 = EDGE_CURVE('', #123, #123, #125, .T.);
#123 = VERTEX_POINT('', #124);
#124 = CARTESIAN_POINT('', (-6.35, 3.30348474069999E-15, -47.6));
#125 = CIRCLE('', #126, 6.35);
#126 = AXIS2_PLACEMENT_3D('', #127, #128, #129);
#127 = CARTESIAN_POINT('', (9.99200722162641E-16, 3.99680288865056E-15, -47.6));
#128 = DIRECTION('', (0., 0., -1.));
#129 = DIRECTION('', (-1., -1.09183960307177E-16, 0.));
#130 = B_SPLINE_SURFACE_WITH_KNOTS('', 1, 1, ((#131, #132), (#133, #134)), .UNSPECIFIED., .F., .F., .U., (2, 2), (2, 2), (70.3547292798852, 83.0547292798852), (73.521396777698, 86.221396777698), .UNSPECIFIED.);
#131 = CARTESIAN_POINT('', (-6.34999999999999, 6.35000000000001, -47.6));
#132 = CARTESIAN_POINT('', (6.34999999999999, 6.35000000000001, -47.6));
#133 = CARTESIAN_POINT('', (-6.34999999999999, -6.34999999999999, -47.6));
#134 = CARTESIAN_POINT('', (6.34999999999999, -6.34999999999999, -47.6));
#135 = ADVANCED_FACE('', (#136), #155, .T.);
#136 = FACE_OUTER_BOUND('', #137, .T.);
#137 = EDGE_LOOP('', (#138, #139, #147, #154));
#138 = ORIENTED_EDGE('', *, *, #122, .T.);
#139 = ORIENTED_EDGE('', *, *, #140, .F.);
#140 = EDGE_CURVE('', #141, #123, #143, .T.);
#141 = VERTEX_POINT('', #142);
#142 = CARTESIAN_POINT('', (-6.35, 5.0455448124871E-15, -76.05));
#143 = LINE('', #144, #145);
#144 = CARTESIAN_POINT('', (-6.35, 5.0455448124871E-15, -76.05));
#145 = VECTOR('', #146, 28.45);
#146 = DIRECTION('', (0., -1.74206007178711E-15, 28.45));
#147 = ORIENTED_EDGE('', *, *, #148, .F.);
#148 = EDGE_CURVE('', #141, #141, #149, .T.);
#149 = CIRCLE('', #150, 6.35);
#150 = AXIS2_PLACEMENT_3D('', #151, #152, #153);
#151 = CARTESIAN_POINT('', (2.66453525910038E-15, 2.33146835171283E-15, -76.05));
#152 = DIRECTION('', (0., 0., -1.));
#153 = DIRECTION('', (-1., 4.27413615869964E-16, 0.));
#154 = ORIENTED_EDGE('', *, *, #140, .T.);
#155 = (
   BOUNDED_SURFACE ()
   B_SPLINE_SURFACE (1, 2, ((#156, #157, #158, #159, #160, #161, #162, #163, #164), (#165, #166, #167, #168, #169, #170, #171, #172, #173)), .UNSPECIFIED., .F., .T., .U.)
   B_SPLINE_SURFACE_WITH_KNOTS ((2, 2), (3, 2, 2, 2, 3), (-0.605770254444799, -1.11022302462516E-16), (0., 0.25, 0.5, 0.75, 1.), .UNSPECIFIED.)
   GEOMETRIC_REPRESENTATION_ITEM ()
   RATIONAL_B_SPLINE_SURFACE (((1., 0.707106781186548, 1., 0.707106781186548, 1., 0.707106781186548, 1., 0.707106781186548, 1.), (1., 0.707106781186548, 1., 0.707106781186548, 1., 0.707106781186548, 1., 0.707106781186548, 1.)))
   REPRESENTATION_ITEM ('')
   SURFACE ()
);
#156 = CARTESIAN_POINT('', (-6.35, 1.7514339455902E-14, -76.05));
#157 = CARTESIAN_POINT('', (-6.35, 6.35000000000001, -76.05));
#158 = CARTESIAN_POINT('', (-2.88625592169574E-15, 6.35000000000002, -76.05));
#159 = CARTESIAN_POINT('', (6.34999999999999, 6.35000000000002, -76.05));
#160 = CARTESIAN_POINT('', (6.35, 2.07888494938869E-14, -76.05));
#161 = CARTESIAN_POINT('', (6.35, -6.34999999999998, -76.05));
#162 = CARTESIAN_POINT('', (1.1659048337477E-15, -6.34999999999998, -76.05));
#163 = CARTESIAN_POINT('', (-6.35, -6.34999999999998, -76.05));
#164 = CARTESIAN_POINT('', (-6.35, 1.7514339455902E-14, -76.05));
#165 = CARTESIAN_POINT('', (-6.35, 3.30348474069999E-15, -47.6));
#166 = CARTESIAN_POINT('', (-6.35, 6.35, -47.6));
#167 = CARTESIAN_POINT('', (-2.88625592169574E-15, 6.35, -47.6));
#168 = CARTESIAN_POINT('', (6.34999999999999, 6.35, -47.6));
#169 = CARTESIAN_POINT('', (6.35, 6.57799477868486E-15, -47.6));
#170 = CARTESIAN_POINT('', (6.35, -6.34999999999999, -47.6));
#171 = CARTESIAN_POINT('', (1.1659048337477E-15, -6.34999999999999, -47.6));
#172 = CARTESIAN_POINT('', (-6.35, -6.35, -47.6));
#173 = CARTESIAN_POINT('', (-6.35, 3.30348474069999E-15, -47.6));
#174 = ADVANCED_FACE('', (#175), #194, .T.);
#175 = FACE_OUTER_BOUND('', #176, .T.);
#176 = EDGE_LOOP('', (#177, #185, #186, #187));
#177 = ORIENTED_EDGE('', *, *, #178, .F.);
#178 = EDGE_CURVE('', #141, #179, #181, .T.);
#179 = VERTEX_POINT('', #180);
#180 = CARTESIAN_POINT('', (-6.2, 5.0455448124871E-15, -76.2));
#181 = LINE('', #182, #183);
#182 = CARTESIAN_POINT('', (-6.35, 5.0455448124871E-15, -76.05));
#183 = VECTOR('', #184, 0.212132034355968);
#184 = DIRECTION('', (0.149999999999999, 0., -0.150000000000006));
#185 = ORIENTED_EDGE('', *, *, #148, .T.);
#186 = ORIENTED_EDGE('', *, *, #178, .T.);
#187 = ORIENTED_EDGE('', *, *, #188, .F.);
#188 = EDGE_CURVE('', #179, #179, #189, .T.);
#189 = CIRCLE('', #190, 6.2);
#190 = AXIS2_PLACEMENT_3D('', #191, #192, #193);
#191 = CARTESIAN_POINT('', (7.7715611723761E-16, 6.66133814775094E-16, -76.2));
#192 = DIRECTION('', (0., 0., -1.));
#193 = DIRECTION('', (-1., 7.06356612534194E-16, 0.));
#194 = (
   BOUNDED_SURFACE ()
   B_SPLINE_SURFACE (2, 1, ((#195, #196), (#197, #198), (#199, #200), (#201, #202), (#203, #204), (#205, #206), (#207, #208), (#209, #210), (#211, #212)), .UNSPECIFIED., .T., .F., .U.)
   B_SPLINE_SURFACE_WITH_KNOTS ((3, 2, 2, 2, 3), (2, 2), (0., 0.25, 0.5, 0.75, 1.), (0., 1.), .UNSPECIFIED.)
   GEOMETRIC_REPRESENTATION_ITEM ()
   RATIONAL_B_SPLINE_SURFACE (((1., 1.), (0.707106781186548, 0.707106781186548), (1., 1.), (0.707106781186548, 0.707106781186548), (1., 1.), (0.707106781186548, 0.707106781186548), (1., 1.), (0.707106781186548, 0.707106781186548), (1., 1.)))
   REPRESENTATION_ITEM ('')
   SURFACE ()
);
#195 = CARTESIAN_POINT('', (-6.35, 5.0455448124871E-15, -76.05));
#196 = CARTESIAN_POINT('', (-6.2, 7.71765172056073E-15, -76.2));
#197 = CARTESIAN_POINT('', (-6.34999999999999, 6.35, -76.0499999999999));
#198 = CARTESIAN_POINT('', (-6.19999999999999, 6.20000000000001, -76.1999999999999));
#199 = CARTESIAN_POINT('', (5.68367575153608E-15, 6.35, -76.0499999999999));
#200 = CARTESIAN_POINT('', (5.58940994904043E-15, 6.2, -76.1999999999999));
#201 = CARTESIAN_POINT('', (6.35, 6.35, -76.0499999999999));
#202 = CARTESIAN_POINT('', (6.2, 6.2, -76.1999999999999));
#203 = CARTESIAN_POINT('', (6.35, -2.93562646547834E-15, -76.05));
#204 = CARTESIAN_POINT('', (6.2, -7.49879524134001E-17, -76.2));
#205 = CARTESIAN_POINT('', (6.35, -6.35, -76.0500000000001));
#206 = CARTESIAN_POINT('', (6.2, -6.2, -76.2000000000001));
#207 = CARTESIAN_POINT('', (-1.51984480897079E-15, -6.35, -76.0500000000001));
#208 = CARTESIAN_POINT('', (-1.44394870846234E-15, -6.19999999999999, -76.2000000000001));
#209 = CARTESIAN_POINT('', (-6.35, -6.35, -76.0500000000001));
#210 = CARTESIAN_POINT('', (-6.2, -6.19999999999999, -76.2000000000001));
#211 = CARTESIAN_POINT('', (-6.35, 5.0455448124871E-15, -76.05));
#212 = CARTESIAN_POINT('', (-6.2, 7.71765172056073E-15, -76.2));
#213 = ADVANCED_FACE('', (#214), #217, .T.);
#214 = FACE_OUTER_BOUND('', #215, .T.);
#215 = EDGE_LOOP('', (#216));
#216 = ORIENTED_EDGE('', *, *, #188, .T.);
#217 = B_SPLINE_SURFACE_WITH_KNOTS('', 1, 1, ((#218, #219), (#220, #221)), .UNSPECIFIED., .F., .F., .U., (2, 2), (2, 2), (3.44493649538451, 15.8449364953845), (3.44493649538451, 15.8449364953845), .UNSPECIFIED.);
#218 = CARTESIAN_POINT('', (6.2, -6.2, -76.2));
#219 = CARTESIAN_POINT('', (6.2, 6.2, -76.2));
#220 = CARTESIAN_POINT('', (-6.2, -6.2, -76.2));
#221 = CARTESIAN_POINT('', (-6.2, 6.2, -76.1999999999999));
#222 = PRESENTATION_STYLE_ASSIGNMENT((#223));
#223 = SURFACE_STYLE_USAGE(.POSITIVE., #224);
#224 = SURFACE_SIDE_STYLE('', (#225));
#225 = SURFACE_STYLE_FILL_AREA(#226);
#226 = FILL_AREA_STYLE('', (#227));
#227 = FILL_AREA_STYLE_COLOUR('', #228);
#228 = COLOUR_RGB('', 0.8, 0.8, 0.8);
#229 = STYLED_ITEM('', (#222), #116);
#230 = TRIMMED_CURVE('cutting part line', #231, (#235), (#236), .T., .CARTESIAN.);
#231 = LINE('', #232, #233);
#232 = CARTESIAN_POINT('', (-5.35414242410283E-31, -2.9146593819707E-15, -47.6));
#233 = VECTOR('', #234, 6.35);
#234 = DIRECTION('', (6.35, -1.16647607618786E-15, 0.));
#235 = CARTESIAN_POINT('', (-5.35414242410283E-31, -2.9146593819707E-15, -47.6));
#236 = CARTESIAN_POINT('', (6.35, -4.08113545815856E-15, -47.6));
#237 = TRIMMED_CURVE('cutting part line', #238, (#242), (#243), .T., .CARTESIAN.);
#238 = LINE('', #239, #240);
#239 = CARTESIAN_POINT('', (6.35, -4.08113545815856E-15, -47.6));
#240 = VECTOR('', #241, 28.45);
#241 = DIRECTION('', (0., -1.74206007178711E-15, -28.45));
#242 = CARTESIAN_POINT('', (6.35, -4.08113545815856E-15, -47.6));
#243 = CARTESIAN_POINT('', (6.35, -5.82319552994567E-15, -76.05));
#244 = TRIMMED_CURVE('cutting part line', #245, (#249), (#250), .T., .CARTESIAN.);
#245 = LINE('', #246, #247);
#246 = CARTESIAN_POINT('', (6.35, -5.82319552994567E-15, -76.05));
#247 = VECTOR('', #248, 0.212132034355968);
#248 = DIRECTION('', (-0.149999999999999, 1.83697019872104E-17, -0.150000000000006));
#249 = CARTESIAN_POINT('', (6.35, -5.82319552994567E-15, -76.05));
#250 = CARTESIAN_POINT('', (6.2, -5.80482582795846E-15, -76.2));
#251 = TRIMMED_CURVE('cutting part line', #252, (#256), (#257), .T., .CARTESIAN.);
#252 = LINE('', #253, #254);
#253 = CARTESIAN_POINT('', (6.2, -5.80482582795846E-15, -76.2));
#254 = VECTOR('', #255, 6.2);
#255 = DIRECTION('', (-6.2, 1.13892152320704E-15, 0.));
#256 = CARTESIAN_POINT('', (6.2, -5.80482582795846E-15, -76.2));
#257 = CARTESIAN_POINT('', (-5.71408477194168E-31, -4.66590430475142E-15, -76.2));
#258 = TRIMMED_CURVE('cutting part line', #259, (#263), (#264), .T., .CARTESIAN.);
#259 = LINE('', #260, #261);
#260 = CARTESIAN_POINT('', (-8.57112715791252E-31, -4.66590430475142E-15, -76.2));
#261 = VECTOR('', #262, 28.6);
#262 = DIRECTION('', (3.21698473380969E-31, 1.75124492278072E-15, 28.6));
#263 = CARTESIAN_POINT('', (-8.57112715791252E-31, -4.66590430475142E-15, -76.2));
#264 = CARTESIAN_POINT('', (-5.35414242410283E-31, -2.9146593819707E-15, -47.6));
#265 = COMPOSITE_CURVE('cutting part line', (#266, #267, #268, #269, #270), .U.);
#266 = COMPOSITE_CURVE_SEGMENT(.CONTINUOUS., .T., #230);
#267 = COMPOSITE_CURVE_SEGMENT(.CONTINUOUS., .T., #237);
#268 = COMPOSITE_CURVE_SEGMENT(.CONTINUOUS., .T., #244);
#269 = COMPOSITE_CURVE_SEGMENT(.CONTINUOUS., .T., #251);
#270 = COMPOSITE_CURVE_SEGMENT(.CONTINUOUS., .T., #258);
#271 = GEOMETRIC_SET('', (#265, #314));
#272 = PRESENTATION_STYLE_ASSIGNMENT((#273));
#273 = CURVE_STYLE('', #275, POSITIVE_LENGTH_MEASURE(1.E-6), #274);
#274 = COLOUR_RGB('', 0., 0., 1.);
#275 = DRAUGHTING_PRE_DEFINED_CURVE_FONT('continuous');
#276 = STYLED_ITEM('', (#272), #265);
#277 = PRESENTATION_STYLE_ASSIGNMENT((#278));
#278 = CURVE_STYLE('', #280, POSITIVE_LENGTH_MEASURE(1.E-6), #279);
#279 = COLOUR_RGB('', 0., 0., 1.);
#280 = DRAUGHTING_PRE_DEFINED_CURVE_FONT('continuous');
#281 = OVER_RIDING_STYLED_ITEM('', (#277), #230, #276);
#282 = PRESENTATION_STYLE_ASSIGNMENT((#283));
#283 = CURVE_STYLE('', #285, POSITIVE_LENGTH_MEASURE(1.E-6), #284);
#284 = COLOUR_RGB('', 0., 0., 1.);
#285 = DRAUGHTING_PRE_DEFINED_CURVE_FONT('continuous');
#286 = OVER_RIDING_STYLED_ITEM('', (#282), #237, #276);
#287 = PRESENTATION_STYLE_ASSIGNMENT((#288));
#288 = CURVE_STYLE('', #290, POSITIVE_LENGTH_MEASURE(1.E-6), #289);
#289 = COLOUR_RGB('', 0., 0., 1.);
#290 = DRAUGHTING_PRE_DEFINED_CURVE_FONT('continuous');
#291 = OVER_RIDING_STYLED_ITEM('', (#287), #244, #276);
#292 = PRESENTATION_STYLE_ASSIGNMENT((#293));
#293 = CURVE_STYLE('', #295, POSITIVE_LENGTH_MEASURE(1.E-6), #294);
#294 = COLOUR_RGB('', 0., 0., 1.);
#295 = DRAUGHTING_PRE_DEFINED_CURVE_FONT('continuous');
#296 = OVER_RIDING_STYLED_ITEM('', (#292), #251, #276);
#297 = PRESENTATION_STYLE_ASSIGNMENT((#298));
#298 = CURVE_STYLE('', #300, POSITIVE_LENGTH_MEASURE(1.E-6), #299);
#299 = COLOUR_RGB('', 0., 0., 1.);
#300 = DRAUGHTING_PRE_DEFINED_CURVE_FONT('continuous');
#301 = OVER_RIDING_STYLED_ITEM('', (#297), #258, #276);
#302 = AXIS2_PLACEMENT_3D('CIP', #303, #304, #305);
#303 = CARTESIAN_POINT('', (2.85704238597084E-31, 4.66590430475142E-15, -76.2));
#304 = DIRECTION('', (-3.74939945665465E-33, -6.12323399573677E-17, 1.));
#305 = DIRECTION('', (1., -6.12323399573677E-17, 0.));
#306 = AXIS2_PLACEMENT_3D('MCS', #307, #308, #309);
#307 = CARTESIAN_POINT('', (1.69622831419056E-31, 2.77015105967131E-15, -45.24));
#308 = DIRECTION('', (-3.74939945665465E-33, -6.12323399573677E-17, 1.));
#309 = DIRECTION('', (1., -6.12323399573677E-17, 0.));
#310 = AXIS2_PLACEMENT_3D('PCS', #311, #312, #313);
#311 = CARTESIAN_POINT('', (0., 0., 0.));
#312 = DIRECTION('', (0., 0., 1.));
#313 = DIRECTION('', (1., 0., 0.));
#314 = CARTESIAN_POINT('CRP', (6.35, 0., -76.2));
#315 = (
   GEOMETRIC_REPRESENTATION_CONTEXT (3)
   GLOBAL_UNCERTAINTY_ASSIGNED_CONTEXT ((#317))
   GLOBAL_UNIT_ASSIGNED_CONTEXT ((#316, #318, #319))
   REPRESENTATION_CONTEXT ('', '3D')
);
#316 = (
   LENGTH_UNIT ()
   NAMED_UNIT (*)
   SI_UNIT (.MILLI., .METRE.)
);
#317 = UNCERTAINTY_MEASURE_WITH_UNIT(LENGTH_MEASURE(1.E-6), #316, 'DISTANCE_ACCURACY_VALUE', '');
#318 = (
   NAMED_UNIT (*)
   SI_UNIT ($, .STERADIAN.)
   SOLID_ANGLE_UNIT ()
);
#319 = (
   NAMED_UNIT (*)
   PLANE_ANGLE_UNIT ()
   SI_UNIT ($, .RADIAN.)
);
#320 = SHAPE_REPRESENTATION('', (), #315);
#321 = PRODUCT_DEFINITION_SHAPE('', '', #322);
#322 = PRODUCT_DEFINITION('', '', #325, #329);
#323 = APPLICATION_CONTEXT('configuration controlled 3D designs of mechanical parts and assemblies');
#324 = APPLICATION_PROTOCOL_DEFINITION('International Standard', 'automotive_design', 2002, #323);
#325 = PRODUCT_DEFINITION_FORMATION_WITH_SPECIFIED_SOURCE('', '', #326, .NOT_KNOWN.);
#326 = PRODUCT('NONE', '2P342-1270-CMA      1740', '', (#327));
#327 = PRODUCT_CONTEXT('', #323, 'mechanical');
#328 = PRODUCT_RELATED_PRODUCT_CATEGORY('detail', '', (#326));
#329 = PRODUCT_DEFINITION_CONTEXT('part definition', #323, 'design');
#330 = SHAPE_DEFINITION_REPRESENTATION(#321, #320);
#331 = CONSTRUCTIVE_GEOMETRY_REPRESENTATION('supplemental geometry', (#302, #306, #310), #315);
#332 = CONSTRUCTIVE_GEOMETRY_REPRESENTATION_RELATIONSHIP('', '', #320, #331);
#333 = SHAPE_REPRESENTATION_RELATIONSHIP('', '', #320, #334);
#334 = SHAPE_REPRESENTATION('', (#271), #315);
#335 = SHAPE_REPRESENTATION_RELATIONSHIP('', '', #320, #336);
#336 = ADVANCED_BREP_SHAPE_REPRESENTATION('', (#1, #116), #315);
ENDSEC;
END-ISO-10303-21;
