ISO-10303-21;
HEADER;
FILE_DESCRIPTION(('STEP'), '1');
FILE_NAME('C:\\Users\\ds2002\\OneDrive - Sandvik\\HomeShare\\Documents\\Batchrepair\\CorSRT2\\NEW_MILSQ_SLD\\Output\\MOD000000000000000020082322100000.stp', '2019-01-02T12:10:47', (''), (''), 'Express v3.0.0.0', 'Express Tool', 'Unknown');
FILE_SCHEMA(('AUTOMOTIVE_DESIGN'));
ENDSEC;

DATA;
#1 = MANIFOLD_SOLID_BREP('NOCUT', #2);
#2 = CLOSED_SHELL('', (#3, #50, #59, #98));
#3 = ADVANCED_FACE('', (#4), #31, .T.);
#4 = FACE_OUTER_BOUND('', #5, .T.);
#5 = EDGE_LOOP('', (#6, #16, #23, #24));
#6 = ORIENTED_EDGE('', *, *, #7, .T.);
#7 = EDGE_CURVE('', #8, #10, #12, .T.);
#8 = VERTEX_POINT('', #9);
#9 = CARTESIAN_POINT('', (-5., 3.36777869765522E-16, -0.5));
#10 = VERTEX_POINT('', #11);
#11 = CARTESIAN_POINT('', (-4.5, 2.75545529808154E-16, 0.));
#12 = LINE('', #13, #14);
#13 = CARTESIAN_POINT('', (-5., 3.36777869765522E-16, -0.5));
#14 = VECTOR('', #15, 0.707106781186548);
#15 = DIRECTION('', (0.5, -6.1232339957368E-17, 0.5));
#16 = ORIENTED_EDGE('', *, *, #17, .T.);
#17 = EDGE_CURVE('', #10, #10, #18, .T.);
#18 = CIRCLE('', #19, 4.5);
#19 = AXIS2_PLACEMENT_3D('', #20, #21, #22);
#20 = CARTESIAN_POINT('', (4.16333634234434E-16, 1.99840144432528E-15, 1.60237371373018E-31));
#21 = DIRECTION('', (1.21650827372764E-32, 6.12323399573677E-17, -1.));
#22 = DIRECTION('', (-1., -6.27786229722166E-16, -5.06059025761781E-32));
#23 = ORIENTED_EDGE('', *, *, #7, .F.);
#24 = ORIENTED_EDGE('', *, *, #25, .F.);
#25 = EDGE_CURVE('', #8, #8, #26, .T.);
#26 = CIRCLE('', #27, 5.);
#27 = AXIS2_PLACEMENT_3D('', #28, #29, #30);
#28 = CARTESIAN_POINT('', (3.33066907387547E-16, -2.22044604925031E-15, -0.5));
#29 = DIRECTION('', (0., 0., -1.));
#30 = DIRECTION('', (-1., 2.66515423973696E-16, 0.));
#31 = (
   BOUNDED_SURFACE ()
   B_SPLINE_SURFACE (1, 2, ((#32, #33, #34, #35, #36, #37, #38, #39, #40), (#41, #42, #43, #44, #45, #46, #47, #48, #49)), .UNSPECIFIED., .F., .T., .U.)
   B_SPLINE_SURFACE_WITH_KNOTS ((2, 2), (3, 2, 2, 2, 3), (0., 1.), (0., 0.25, 0.5, 0.75, 1.), .UNSPECIFIED.)
   GEOMETRIC_REPRESENTATION_ITEM ()
   RATIONAL_B_SPLINE_SURFACE (((1., 0.707106781186548, 1., 0.707106781186548, 1., 0.707106781186548, 1., 0.707106781186548, 1.), (1., 0.707106781186548, 1., 0.707106781186548, 1., 0.707106781186548, 1., 0.707106781186548, 1.)))
   REPRESENTATION_ITEM ('')
   SURFACE ()
);
#32 = CARTESIAN_POINT('', (-5., -2.69144046670109E-15, -0.5));
#33 = CARTESIAN_POINT('', (-5., 5., -0.50000000000003));
#34 = CARTESIAN_POINT('', (2.28983498828938E-15, 5., -0.50000000000003));
#35 = CARTESIAN_POINT('', (5., 5., -0.50000000000003));
#36 = CARTESIAN_POINT('', (5., -2.69144046670108E-15, -0.5));
#37 = CARTESIAN_POINT('', (5., -5., -0.49999999999997));
#38 = CARTESIAN_POINT('', (2.90215838786306E-15, -5., -0.49999999999997));
#39 = CARTESIAN_POINT('', (-5., -5., -0.49999999999997));
#40 = CARTESIAN_POINT('', (-5., -2.69144046670109E-15, -0.5));
#41 = CARTESIAN_POINT('', (-4.5, 2.75545529808154E-16, -5.47382212626882E-48));
#42 = CARTESIAN_POINT('', (-4.5, 4.5, -2.69784194983913E-14));
#43 = CARTESIAN_POINT('', (2.28983498828938E-15, 4.5, -2.69784194983913E-14));
#44 = CARTESIAN_POINT('', (4.5, 4.5, -2.69784194983913E-14));
#45 = CARTESIAN_POINT('', (4.5, 2.75545529808155E-16, -3.34088136340818E-30));
#46 = CARTESIAN_POINT('', (4.5, -4.5, 2.69784194983913E-14));
#47 = CARTESIAN_POINT('', (2.8409260479057E-15, -4.5, 2.69784194983913E-14));
#48 = CARTESIAN_POINT('', (-4.5, -4.5, 2.69784194983913E-14));
#49 = CARTESIAN_POINT('', (-4.5, 2.75545529808154E-16, -5.47382212626882E-48));
#50 = ADVANCED_FACE('', (#51), #54, .T.);
#51 = FACE_OUTER_BOUND('', #52, .T.);
#52 = EDGE_LOOP('', (#53));
#53 = ORIENTED_EDGE('', *, *, #17, .F.);
#54 = B_SPLINE_SURFACE_WITH_KNOTS('', 1, 1, ((#55, #56), (#57, #58)), .UNSPECIFIED., .F., .F., .U., (2, 2), (2, 2), (2.50035713374682, 11.5003571337468), (2.50035713374682, 11.5003571337468), .UNSPECIFIED.);
#55 = CARTESIAN_POINT('', (4.5, -4.5, -2.75545529808148E-16));
#56 = CARTESIAN_POINT('', (-4.5, -4.5, -1.44864002450102E-14));
#57 = CARTESIAN_POINT('', (4.5, 4.5, 1.44864002450102E-14));
#58 = CARTESIAN_POINT('', (-4.5, 4.5, 2.75545529808182E-16));
#59 = ADVANCED_FACE('', (#60), #79, .T.);
#60 = FACE_OUTER_BOUND('', #61, .T.);
#61 = EDGE_LOOP('', (#62, #71, #77, #78));
#62 = ORIENTED_EDGE('', *, *, #63, .F.);
#63 = EDGE_CURVE('', #64, #64, #66, .T.);
#64 = VERTEX_POINT('', #65);
#65 = CARTESIAN_POINT('', (-5., 3.36777869765522E-15, -50.));
#66 = CIRCLE('', #67, 5.);
#67 = AXIS2_PLACEMENT_3D('', #68, #69, #70);
#68 = CARTESIAN_POINT('', (-1.45716771982052E-15, 2.66453525910038E-15, -50.));
#69 = DIRECTION('', (5.04376198129292E-31, -4.83671794478017E-15, -1.));
#70 = DIRECTION('', (-1., -1.04280672118501E-16, 0.));
#71 = ORIENTED_EDGE('', *, *, #72, .T.);
#72 = EDGE_CURVE('', #64, #8, #73, .T.);
#73 = LINE('', #74, #75);
#74 = CARTESIAN_POINT('', (-5., 3.36777869765522E-15, -50.));
#75 = VECTOR('', #76, 49.5);
#76 = DIRECTION('', (0., -3.0310008278897E-15, 49.5));
#77 = ORIENTED_EDGE('', *, *, #25, .T.);
#78 = ORIENTED_EDGE('', *, *, #72, .F.);
#79 = (
   BOUNDED_SURFACE ()
   B_SPLINE_SURFACE (1, 2, ((#80, #81, #82, #83, #84, #85, #86, #87, #88), (#89, #90, #91, #92, #93, #94, #95, #96, #97)), .UNSPECIFIED., .F., .T., .U.)
   B_SPLINE_SURFACE_WITH_KNOTS ((2, 2), (3, 2, 2, 2, 3), (0., 1.), (0., 0.25, 0.5, 0.75, 1.), .UNSPECIFIED.)
   GEOMETRIC_REPRESENTATION_ITEM ()
   RATIONAL_B_SPLINE_SURFACE (((1., 0.707106781186548, 1., 0.707106781186548, 1., 0.707106781186548, 1., 0.707106781186548, 1.), (1., 0.707106781186548, 1., 0.707106781186548, 1., 0.707106781186548, 1., 0.707106781186548, 1.)))
   REPRESENTATION_ITEM ('')
   SURFACE ()
);
#80 = CARTESIAN_POINT('', (-5., -8.8446745732215E-16, -50.));
#81 = CARTESIAN_POINT('', (-5., 5., -50.));
#82 = CARTESIAN_POINT('', (1.55516260249014E-16, 5., -50.));
#83 = CARTESIAN_POINT('', (5., 5., -50.));
#84 = CARTESIAN_POINT('', (5., -2.05592282190467E-15, -50.));
#85 = CARTESIAN_POINT('', (5., -5., -50.));
#86 = CARTESIAN_POINT('', (-4.03615704759834E-16, -5., -50.));
#87 = CARTESIAN_POINT('', (-5., -5., -50.));
#88 = CARTESIAN_POINT('', (-5., -8.8446745732215E-16, -50.));
#89 = CARTESIAN_POINT('', (-5., 3.36777869765522E-16, -0.5));
#90 = CARTESIAN_POINT('', (-5., 5., -0.5));
#91 = CARTESIAN_POINT('', (1.55516260249014E-16, 5., -0.5));
#92 = CARTESIAN_POINT('', (5., 5., -0.5));
#93 = CARTESIAN_POINT('', (5., -8.34677494817002E-16, -0.5));
#94 = CARTESIAN_POINT('', (5., -5., -0.5));
#95 = CARTESIAN_POINT('', (-4.03615704759834E-16, -5., -0.5));
#96 = CARTESIAN_POINT('', (-5., -5., -0.5));
#97 = CARTESIAN_POINT('', (-5., 3.36777869765522E-16, -0.5));
#98 = ADVANCED_FACE('', (#99), #102, .T.);
#99 = FACE_OUTER_BOUND('', #100, .T.);
#100 = EDGE_LOOP('', (#101));
#101 = ORIENTED_EDGE('', *, *, #63, .T.);
#102 = B_SPLINE_SURFACE_WITH_KNOTS('', 1, 1, ((#103, #104), (#105, #106)), .UNSPECIFIED., .F., .F., .U., (2, 2), (2, 2), (70.3201954408555, 80.3201954408555), (66.4313052124605, 76.4313052124605), .UNSPECIFIED.);
#103 = CARTESIAN_POINT('', (-5., 5., -50.));
#104 = CARTESIAN_POINT('', (-5., -5., -50.));
#105 = CARTESIAN_POINT('', (5., 5., -50.));
#106 = CARTESIAN_POINT('', (5., -5., -50.));
#107 = DRAUGHTING_MODEL('', (#115, #229, #276, #281, #286, #291, #296, #301), #315);
#108 = PRESENTATION_STYLE_ASSIGNMENT((#109));
#109 = SURFACE_STYLE_USAGE(.POSITIVE., #110);
#110 = SURFACE_SIDE_STYLE('', (#111));
#111 = SURFACE_STYLE_FILL_AREA(#112);
#112 = FILL_AREA_STYLE('', (#113));
#113 = FILL_AREA_STYLE_COLOUR('', #114);
#114 = COLOUR_RGB('', 0.50196078431373, 0.50196078431373, 0.50196078431373);
#115 = STYLED_ITEM('', (#108), #1);
#116 = MANIFOLD_SOLID_BREP('CUT', #117);
#117 = CLOSED_SHELL('', (#118, #135, #174, #213));
#118 = ADVANCED_FACE('', (#119), #130, .T.);
#119 = FACE_OUTER_BOUND('', #120, .T.);
#120 = EDGE_LOOP('', (#121));
#121 = ORIENTED_EDGE('', *, *, #122, .F.);
#122 = EDGE_CURVE('', #123, #123, #125, .T.);
#123 = VERTEX_POINT('', #124);
#124 = CARTESIAN_POINT('', (-5., 3.36777869765522E-15, -50.));
#125 = CIRCLE('', #126, 5.);
#126 = AXIS2_PLACEMENT_3D('', #127, #128, #129);
#127 = CARTESIAN_POINT('', (-1.45716771982052E-15, 2.66453525910038E-15, -50.));
#128 = DIRECTION('', (5.04376198129292E-31, -4.83671794478017E-15, -1.));
#129 = DIRECTION('', (-1., -1.04280672118501E-16, 0.));
#130 = B_SPLINE_SURFACE_WITH_KNOTS('', 1, 1, ((#131, #132), (#133, #134)), .UNSPECIFIED., .F., .F., .U., (2, 2), (2, 2), (66.4313052124605, 76.4313052124605), (70.3201954408555, 80.3201954408555), .UNSPECIFIED.);
#131 = CARTESIAN_POINT('', (-5., 5., -50.));
#132 = CARTESIAN_POINT('', (5., 5., -50.));
#133 = CARTESIAN_POINT('', (-5., -5., -50.));
#134 = CARTESIAN_POINT('', (5., -5., -50.));
#135 = ADVANCED_FACE('', (#136), #155, .T.);
#136 = FACE_OUTER_BOUND('', #137, .T.);
#137 = EDGE_LOOP('', (#138, #139, #147, #154));
#138 = ORIENTED_EDGE('', *, *, #122, .T.);
#139 = ORIENTED_EDGE('', *, *, #140, .F.);
#140 = EDGE_CURVE('', #141, #123, #143, .T.);
#141 = VERTEX_POINT('', #142);
#142 = CARTESIAN_POINT('', (-5., 4.7057053257237E-15, -71.85));
#143 = LINE('', #144, #145);
#144 = CARTESIAN_POINT('', (-5., 4.7057053257237E-15, -71.85));
#145 = VECTOR('', #146, 21.85);
#146 = DIRECTION('', (0., -1.33792662806848E-15, 21.85));
#147 = ORIENTED_EDGE('', *, *, #148, .F.);
#148 = EDGE_CURVE('', #141, #141, #149, .T.);
#149 = CIRCLE('', #150, 5.);
#150 = AXIS2_PLACEMENT_3D('', #151, #152, #153);
#151 = CARTESIAN_POINT('', (5.55111512312578E-17, 2.88657986402541E-15, -71.85));
#152 = DIRECTION('', (0., 0., -1.));
#153 = DIRECTION('', (-1., 3.63825092339659E-16, 0.));
#154 = ORIENTED_EDGE('', *, *, #140, .T.);
#155 = (
   BOUNDED_SURFACE ()
   B_SPLINE_SURFACE (1, 2, ((#156, #157, #158, #159, #160, #161, #162, #163, #164), (#165, #166, #167, #168, #169, #170, #171, #172, #173)), .UNSPECIFIED., .F., .T., .U.)
   B_SPLINE_SURFACE_WITH_KNOTS ((2, 2), (3, 2, 2, 2, 3), (-0.441414141414141, 0.), (0., 0.25, 0.5, 0.75, 1.), .UNSPECIFIED.)
   GEOMETRIC_REPRESENTATION_ITEM ()
   RATIONAL_B_SPLINE_SURFACE (((1., 0.707106781186548, 1., 0.707106781186548, 1., 0.707106781186548, 1., 0.707106781186548, 1.), (1., 0.707106781186548, 1., 0.707106781186548, 1., 0.707106781186548, 1., 0.707106781186548, 1.)))
   REPRESENTATION_ITEM ('')
   SURFACE ()
);
#156 = CARTESIAN_POINT('', (-5., 4.70004632720541E-15, -71.85));
#157 = CARTESIAN_POINT('', (-5., 5.00000000000001, -71.85));
#158 = CARTESIAN_POINT('', (3.10325036129183E-15, 5., -71.85));
#159 = CARTESIAN_POINT('', (5., 5., -71.85));
#160 = CARTESIAN_POINT('', (5., -4.97590134733186E-15, -71.85));
#161 = CARTESIAN_POINT('', (4.99999999999999, -5.00000000000001, -71.85));
#162 = CARTESIAN_POINT('', (-5.96037391367176E-15, -5., -71.85));
#163 = CARTESIAN_POINT('', (-5.00000000000001, -5., -71.85));
#164 = CARTESIAN_POINT('', (-5., 4.70004632720541E-15, -71.85));
#165 = CARTESIAN_POINT('', (-5., 3.36777869765522E-15, -50.));
#166 = CARTESIAN_POINT('', (-5., 5., -50.));
#167 = CARTESIAN_POINT('', (3.10325036129183E-15, 5., -50.));
#168 = CARTESIAN_POINT('', (5., 4.99999999999999, -50.));
#169 = CARTESIAN_POINT('', (5., -6.30816897688205E-15, -50.));
#170 = CARTESIAN_POINT('', (4.99999999999999, -5.00000000000001, -50.));
#171 = CARTESIAN_POINT('', (-5.96037391367176E-15, -5., -50.));
#172 = CARTESIAN_POINT('', (-5.00000000000001, -5., -50.));
#173 = CARTESIAN_POINT('', (-5., 3.36777869765522E-15, -50.));
#174 = ADVANCED_FACE('', (#175), #194, .T.);
#175 = FACE_OUTER_BOUND('', #176, .T.);
#176 = EDGE_LOOP('', (#177, #185, #186, #187));
#177 = ORIENTED_EDGE('', *, *, #178, .F.);
#178 = EDGE_CURVE('', #141, #179, #181, .T.);
#179 = VERTEX_POINT('', #180);
#180 = CARTESIAN_POINT('', (-4.85, 4.7057053257237E-15, -72.));
#181 = LINE('', #182, #183);
#182 = CARTESIAN_POINT('', (-5., 4.7057053257237E-15, -71.85));
#183 = VECTOR('', #184, 0.212132034355969);
#184 = DIRECTION('', (0.15, 0., -0.150000000000006));
#185 = ORIENTED_EDGE('', *, *, #148, .T.);
#186 = ORIENTED_EDGE('', *, *, #178, .T.);
#187 = ORIENTED_EDGE('', *, *, #188, .F.);
#188 = EDGE_CURVE('', #179, #179, #189, .T.);
#189 = CIRCLE('', #190, 4.85);
#190 = AXIS2_PLACEMENT_3D('', #191, #192, #193);
#191 = CARTESIAN_POINT('', (-1.26287869051112E-15, -3.33066907387547E-16, -72.));
#192 = DIRECTION('', (0., 0., -1.));
#193 = DIRECTION('', (-1., 1.03892210991984E-15, 0.));
#194 = (
   BOUNDED_SURFACE ()
   B_SPLINE_SURFACE (2, 1, ((#195, #196), (#197, #198), (#199, #200), (#201, #202), (#203, #204), (#205, #206), (#207, #208), (#209, #210), (#211, #212)), .UNSPECIFIED., .T., .F., .U.)
   B_SPLINE_SURFACE_WITH_KNOTS ((3, 2, 2, 2, 3), (2, 2), (0., 0.25, 0.5, 0.75, 1.), (0., 1.), .UNSPECIFIED.)
   GEOMETRIC_REPRESENTATION_ITEM ()
   RATIONAL_B_SPLINE_SURFACE (((1., 1.), (0.707106781186548, 0.707106781186548), (1., 1.), (0.707106781186548, 0.707106781186548), (1., 1.), (0.707106781186548, 0.707106781186548), (1., 1.), (0.707106781186548, 0.707106781186548), (1., 1.)))
   REPRESENTATION_ITEM ('')
   SURFACE ()
);
#195 = CARTESIAN_POINT('', (-5., 4.7057053257237E-15, -71.85));
#196 = CARTESIAN_POINT('', (-4.85, 7.04477240296459E-15, -72.));
#197 = CARTESIAN_POINT('', (-4.99999999999999, 5., -71.8499999999999));
#198 = CARTESIAN_POINT('', (-4.84999999999999, 4.85000000000001, -71.9999999999999));
#199 = CARTESIAN_POINT('', (6.68937861422625E-15, 5., -71.8499999999999));
#200 = CARTESIAN_POINT('', (6.48411758582288E-15, 4.85, -71.9999999999999));
#201 = CARTESIAN_POINT('', (5.00000000000001, 4.99999999999999, -71.8499999999999));
#202 = CARTESIAN_POINT('', (4.85000000000001, 4.84999999999999, -71.9999999999999));
#203 = CARTESIAN_POINT('', (5., -8.97836323450071E-15, -71.85));
#204 = CARTESIAN_POINT('', (4.85, -6.22877410045309E-15, -72.));
#205 = CARTESIAN_POINT('', (4.99999999999999, -5.00000000000001, -71.8500000000001));
#206 = CARTESIAN_POINT('', (4.84999999999999, -4.85000000000001, -72.0000000000001));
#207 = CARTESIAN_POINT('', (-6.38236654642449E-15, -5., -71.8500000000001));
#208 = CARTESIAN_POINT('', (-6.19547522000833E-15, -4.85, -72.0000000000001));
#209 = CARTESIAN_POINT('', (-5.00000000000001, -5., -71.8500000000001));
#210 = CARTESIAN_POINT('', (-4.85, -4.84999999999999, -72.0000000000001));
#211 = CARTESIAN_POINT('', (-5., 4.7057053257237E-15, -71.85));
#212 = CARTESIAN_POINT('', (-4.85, 7.04477240296459E-15, -72.));
#213 = ADVANCED_FACE('', (#214), #217, .T.);
#214 = FACE_OUTER_BOUND('', #215, .T.);
#215 = EDGE_LOOP('', (#216));
#216 = ORIENTED_EDGE('', *, *, #188, .T.);
#217 = B_SPLINE_SURFACE_WITH_KNOTS('', 1, 1, ((#218, #219), (#220, #221)), .UNSPECIFIED., .F., .F., .U., (2, 2), (2, 2), (2.69482935526046, 12.3948293552605), (2.69482935526046, 12.3948293552605), .UNSPECIFIED.);
#218 = CARTESIAN_POINT('', (4.85, -4.85, -72.));
#219 = CARTESIAN_POINT('', (4.85, 4.85, -72.));
#220 = CARTESIAN_POINT('', (-4.85, -4.85, -72.));
#221 = CARTESIAN_POINT('', (-4.85, 4.85, -72.));
#222 = PRESENTATION_STYLE_ASSIGNMENT((#223));
#223 = SURFACE_STYLE_USAGE(.POSITIVE., #224);
#224 = SURFACE_SIDE_STYLE('', (#225));
#225 = SURFACE_STYLE_FILL_AREA(#226);
#226 = FILL_AREA_STYLE('', (#227));
#227 = FILL_AREA_STYLE_COLOUR('', #228);
#228 = COLOUR_RGB('', 0.8, 0.8, 0.8);
#229 = STYLED_ITEM('', (#222), #116);
#230 = TRIMMED_CURVE('cutting part line', #231, (#235), (#236), .T., .CARTESIAN.);
#231 = LINE('', #232, #233);
#232 = CARTESIAN_POINT('', (-5.62409918498196E-31, -3.06161699786838E-15, -50.));
#233 = VECTOR('', #234, 5.);
#234 = DIRECTION('', (5., -9.18485099360517E-16, 0.));
#235 = CARTESIAN_POINT('', (-5.62409918498196E-31, -3.06161699786838E-15, -50.));
#236 = CARTESIAN_POINT('', (5., -3.9801020972289E-15, -50.));
#237 = TRIMMED_CURVE('cutting part line', #238, (#242), (#243), .T., .CARTESIAN.);
#238 = LINE('', #239, #240);
#239 = CARTESIAN_POINT('', (5., -3.9801020972289E-15, -50.));
#240 = VECTOR('', #241, 21.85);
#241 = DIRECTION('', (0., -1.33792662806848E-15, -21.85));
#242 = CARTESIAN_POINT('', (5., -3.9801020972289E-15, -50.));
#243 = CARTESIAN_POINT('', (5., -5.31802872529738E-15, -71.85));
#244 = TRIMMED_CURVE('cutting part line', #245, (#249), (#250), .T., .CARTESIAN.);
#245 = LINE('', #246, #247);
#246 = CARTESIAN_POINT('', (5., -5.31802872529738E-15, -71.85));
#247 = VECTOR('', #248, 0.212132034355969);
#248 = DIRECTION('', (-0.15, 1.83697019872104E-17, -0.150000000000006));
#249 = CARTESIAN_POINT('', (5., -5.31802872529738E-15, -71.85));
#250 = CARTESIAN_POINT('', (4.85, -5.29965902331017E-15, -72.));
#251 = TRIMMED_CURVE('cutting part line', #252, (#256), (#257), .T., .CARTESIAN.);
#252 = LINE('', #253, #254);
#253 = CARTESIAN_POINT('', (4.85, -5.29965902331017E-15, -72.));
#254 = VECTOR('', #255, 4.85);
#255 = DIRECTION('', (-4.85, 8.90930546379696E-16, 0.));
#256 = CARTESIAN_POINT('', (4.85, -5.29965902331017E-15, -72.));
#257 = CARTESIAN_POINT('', (-5.39913521758269E-31, -4.40872847693047E-15, -72.));
#258 = TRIMMED_CURVE('cutting part line', #259, (#263), (#264), .T., .CARTESIAN.);
#259 = LINE('', #260, #261);
#260 = CARTESIAN_POINT('', (-8.09870282637403E-31, -4.40872847693047E-15, -72.));
#261 = VECTOR('', #262, 22.);
#262 = DIRECTION('', (2.47460364139207E-31, 1.34711147906209E-15, 22.));
#263 = CARTESIAN_POINT('', (-8.09870282637403E-31, -4.40872847693047E-15, -72.));
#264 = CARTESIAN_POINT('', (-5.62409918498196E-31, -3.06161699786838E-15, -50.));
#265 = COMPOSITE_CURVE('cutting part line', (#266, #267, #268, #269, #270), .U.);
#266 = COMPOSITE_CURVE_SEGMENT(.CONTINUOUS., .T., #230);
#267 = COMPOSITE_CURVE_SEGMENT(.CONTINUOUS., .T., #237);
#268 = COMPOSITE_CURVE_SEGMENT(.CONTINUOUS., .T., #244);
#269 = COMPOSITE_CURVE_SEGMENT(.CONTINUOUS., .T., #251);
#270 = COMPOSITE_CURVE_SEGMENT(.CONTINUOUS., .T., #258);
#271 = GEOMETRIC_SET('', (#265, #314));
#272 = PRESENTATION_STYLE_ASSIGNMENT((#273));
#273 = CURVE_STYLE('', #275, POSITIVE_LENGTH_MEASURE(1.E-6), #274);
#274 = COLOUR_RGB('', 0., 0., 1.);
#275 = DRAUGHTING_PRE_DEFINED_CURVE_FONT('continuous');
#276 = STYLED_ITEM('', (#272), #265);
#277 = PRESENTATION_STYLE_ASSIGNMENT((#278));
#278 = CURVE_STYLE('', #280, POSITIVE_LENGTH_MEASURE(1.E-6), #279);
#279 = COLOUR_RGB('', 0., 0., 1.);
#280 = DRAUGHTING_PRE_DEFINED_CURVE_FONT('continuous');
#281 = OVER_RIDING_STYLED_ITEM('', (#277), #230, #276);
#282 = PRESENTATION_STYLE_ASSIGNMENT((#283));
#283 = CURVE_STYLE('', #285, POSITIVE_LENGTH_MEASURE(1.E-6), #284);
#284 = COLOUR_RGB('', 0., 0., 1.);
#285 = DRAUGHTING_PRE_DEFINED_CURVE_FONT('continuous');
#286 = OVER_RIDING_STYLED_ITEM('', (#282), #237, #276);
#287 = PRESENTATION_STYLE_ASSIGNMENT((#288));
#288 = CURVE_STYLE('', #290, POSITIVE_LENGTH_MEASURE(1.E-6), #289);
#289 = COLOUR_RGB('', 0., 0., 1.);
#290 = DRAUGHTING_PRE_DEFINED_CURVE_FONT('continuous');
#291 = OVER_RIDING_STYLED_ITEM('', (#287), #244, #276);
#292 = PRESENTATION_STYLE_ASSIGNMENT((#293));
#293 = CURVE_STYLE('', #295, POSITIVE_LENGTH_MEASURE(1.E-6), #294);
#294 = COLOUR_RGB('', 0., 0., 1.);
#295 = DRAUGHTING_PRE_DEFINED_CURVE_FONT('continuous');
#296 = OVER_RIDING_STYLED_ITEM('', (#292), #251, #276);
#297 = PRESENTATION_STYLE_ASSIGNMENT((#298));
#298 = CURVE_STYLE('', #300, POSITIVE_LENGTH_MEASURE(1.E-6), #299);
#299 = COLOUR_RGB('', 0., 0., 1.);
#300 = DRAUGHTING_PRE_DEFINED_CURVE_FONT('continuous');
#301 = OVER_RIDING_STYLED_ITEM('', (#297), #258, #276);
#302 = AXIS2_PLACEMENT_3D('CIP', #303, #304, #305);
#303 = CARTESIAN_POINT('', (2.69956760879134E-31, 4.40872847693047E-15, -72.));
#304 = DIRECTION('', (-3.74939945665465E-33, -6.12323399573677E-17, 1.));
#305 = DIRECTION('', (1., -6.12323399573677E-17, 0.));
#306 = AXIS2_PLACEMENT_3D('MCS', #307, #308, #309);
#307 = CARTESIAN_POINT('', (1.49975978266186E-31, 2.44929359829471E-15, -40.));
#308 = DIRECTION('', (-3.74939945665465E-33, -6.12323399573677E-17, 1.));
#309 = DIRECTION('', (1., -6.12323399573677E-17, 0.));
#310 = AXIS2_PLACEMENT_3D('PCS', #311, #312, #313);
#311 = CARTESIAN_POINT('', (0., 0., 0.));
#312 = DIRECTION('', (0., 0., 1.));
#313 = DIRECTION('', (1., 0., 0.));
#314 = CARTESIAN_POINT('CRP', (5., 0., -72.));
#315 = (
   GEOMETRIC_REPRESENTATION_CONTEXT (3)
   GLOBAL_UNCERTAINTY_ASSIGNED_CONTEXT ((#317))
   GLOBAL_UNIT_ASSIGNED_CONTEXT ((#316, #318, #319))
   REPRESENTATION_CONTEXT ('', '3D')
);
#316 = (
   LENGTH_UNIT ()
   NAMED_UNIT (*)
   SI_UNIT (.MILLI., .METRE.)
);
#317 = UNCERTAINTY_MEASURE_WITH_UNIT(LENGTH_MEASURE(1.E-6), #316, 'DISTANCE_ACCURACY_VALUE', '');
#318 = (
   NAMED_UNIT (*)
   SI_UNIT ($, .STERADIAN.)
   SOLID_ANGLE_UNIT ()
);
#319 = (
   NAMED_UNIT (*)
   PLANE_ANGLE_UNIT ()
   SI_UNIT ($, .RADIAN.)
);
#320 = SHAPE_REPRESENTATION('', (), #315);
#321 = PRODUCT_DEFINITION_SHAPE('', '', #322);
#322 = PRODUCT_DEFINITION('', '', #325, #329);
#323 = APPLICATION_CONTEXT('configuration controlled 3D designs of mechanical parts and assemblies');
#324 = APPLICATION_PROTOCOL_DEFINITION('International Standard', 'automotive_design', 2002, #323);
#325 = PRODUCT_DEFINITION_FORMATION_WITH_SPECIFIED_SOURCE('', '', #326, .NOT_KNOWN.);
#326 = PRODUCT('NONE', '2P342-1000-PA       1730', '', (#327));
#327 = PRODUCT_CONTEXT('', #323, 'mechanical');
#328 = PRODUCT_RELATED_PRODUCT_CATEGORY('detail', '', (#326));
#329 = PRODUCT_DEFINITION_CONTEXT('part definition', #323, 'design');
#330 = SHAPE_DEFINITION_REPRESENTATION(#321, #320);
#331 = CONSTRUCTIVE_GEOMETRY_REPRESENTATION('supplemental geometry', (#302, #306, #310), #315);
#332 = CONSTRUCTIVE_GEOMETRY_REPRESENTATION_RELATIONSHIP('', '', #320, #331);
#333 = SHAPE_REPRESENTATION_RELATIONSHIP('', '', #320, #334);
#334 = SHAPE_REPRESENTATION('', (#271), #315);
#335 = SHAPE_REPRESENTATION_RELATIONSHIP('', '', #320, #336);
#336 = ADVANCED_BREP_SHAPE_REPRESENTATION('', (#1, #116), #315);
ENDSEC;
END-ISO-10303-21;
