ISO-10303-21;
HEADER;
FILE_DESCRIPTION(('STEP'), '1');
FILE_NAME('C:\\Users\\ds2002\\OneDrive - Sandvik\\HomeShare\\Documents\\Batchrepair\\CorSRT2\\NEW_MILSQ_SLD\\Output\\MOD000000000000000020082322000000.stp', '2019-01-02T12:10:48', (''), (''), 'Express v3.0.0.0', 'Express Tool', 'Unknown');
FILE_SCHEMA(('AUTOMOTIVE_DESIGN'));
ENDSEC;

DATA;
#1 = MANIFOLD_SOLID_BREP('NOCUT', #2);
#2 = CLOSED_SHELL('', (#3, #50, #59, #98));
#3 = ADVANCED_FACE('', (#4), #31, .T.);
#4 = FACE_OUTER_BOUND('', #5, .T.);
#5 = EDGE_LOOP('', (#6, #16, #23, #24));
#6 = ORIENTED_EDGE('', *, *, #7, .T.);
#7 = EDGE_CURVE('', #8, #10, #12, .T.);
#8 = VERTEX_POINT('', #9);
#9 = CARTESIAN_POINT('', (-5., 3.36777869765522E-16, -0.5));
#10 = VERTEX_POINT('', #11);
#11 = CARTESIAN_POINT('', (-4.5, 2.75545529808154E-16, 0.));
#12 = LINE('', #13, #14);
#13 = CARTESIAN_POINT('', (-5., 3.36777869765522E-16, -0.5));
#14 = VECTOR('', #15, 0.707106781186548);
#15 = DIRECTION('', (0.5, -6.1232339957368E-17, 0.5));
#16 = ORIENTED_EDGE('', *, *, #17, .T.);
#17 = EDGE_CURVE('', #10, #10, #18, .T.);
#18 = CIRCLE('', #19, 4.5);
#19 = AXIS2_PLACEMENT_3D('', #20, #21, #22);
#20 = CARTESIAN_POINT('', (4.16333634234434E-16, 1.99840144432528E-15, 1.60237371373018E-31));
#21 = DIRECTION('', (1.21650827372764E-32, 6.12323399573677E-17, -1.));
#22 = DIRECTION('', (-1., -6.27786229722166E-16, -5.06059025761781E-32));
#23 = ORIENTED_EDGE('', *, *, #7, .F.);
#24 = ORIENTED_EDGE('', *, *, #25, .F.);
#25 = EDGE_CURVE('', #8, #8, #26, .T.);
#26 = CIRCLE('', #27, 5.);
#27 = AXIS2_PLACEMENT_3D('', #28, #29, #30);
#28 = CARTESIAN_POINT('', (3.33066907387547E-16, -2.22044604925031E-15, -0.5));
#29 = DIRECTION('', (0., 0., -1.));
#30 = DIRECTION('', (-1., 2.66515423973696E-16, 0.));
#31 = (
   BOUNDED_SURFACE ()
   B_SPLINE_SURFACE (1, 2, ((#32, #33, #34, #35, #36, #37, #38, #39, #40), (#41, #42, #43, #44, #45, #46, #47, #48, #49)), .UNSPECIFIED., .F., .T., .U.)
   B_SPLINE_SURFACE_WITH_KNOTS ((2, 2), (3, 2, 2, 2, 3), (0., 1.), (0., 0.25, 0.5, 0.75, 1.), .UNSPECIFIED.)
   GEOMETRIC_REPRESENTATION_ITEM ()
   RATIONAL_B_SPLINE_SURFACE (((1., 0.707106781186548, 1., 0.707106781186548, 1., 0.707106781186548, 1., 0.707106781186548, 1.), (1., 0.707106781186548, 1., 0.707106781186548, 1., 0.707106781186548, 1., 0.707106781186548, 1.)))
   REPRESENTATION_ITEM ('')
   SURFACE ()
);
#32 = CARTESIAN_POINT('', (-5., -2.69144046670109E-15, -0.5));
#33 = CARTESIAN_POINT('', (-5., 5., -0.50000000000003));
#34 = CARTESIAN_POINT('', (2.28983498828938E-15, 5., -0.50000000000003));
#35 = CARTESIAN_POINT('', (5., 5., -0.50000000000003));
#36 = CARTESIAN_POINT('', (5., -2.69144046670108E-15, -0.5));
#37 = CARTESIAN_POINT('', (5., -5., -0.49999999999997));
#38 = CARTESIAN_POINT('', (2.90215838786306E-15, -5., -0.49999999999997));
#39 = CARTESIAN_POINT('', (-5., -5., -0.49999999999997));
#40 = CARTESIAN_POINT('', (-5., -2.69144046670109E-15, -0.5));
#41 = CARTESIAN_POINT('', (-4.5, 2.75545529808154E-16, -5.47382212626882E-48));
#42 = CARTESIAN_POINT('', (-4.5, 4.5, -2.69784194983913E-14));
#43 = CARTESIAN_POINT('', (2.28983498828938E-15, 4.5, -2.69784194983913E-14));
#44 = CARTESIAN_POINT('', (4.5, 4.5, -2.69784194983913E-14));
#45 = CARTESIAN_POINT('', (4.5, 2.75545529808155E-16, -3.34088136340818E-30));
#46 = CARTESIAN_POINT('', (4.5, -4.5, 2.69784194983913E-14));
#47 = CARTESIAN_POINT('', (2.8409260479057E-15, -4.5, 2.69784194983913E-14));
#48 = CARTESIAN_POINT('', (-4.5, -4.5, 2.69784194983913E-14));
#49 = CARTESIAN_POINT('', (-4.5, 2.75545529808154E-16, -5.47382212626882E-48));
#50 = ADVANCED_FACE('', (#51), #54, .T.);
#51 = FACE_OUTER_BOUND('', #52, .T.);
#52 = EDGE_LOOP('', (#53));
#53 = ORIENTED_EDGE('', *, *, #17, .F.);
#54 = B_SPLINE_SURFACE_WITH_KNOTS('', 1, 1, ((#55, #56), (#57, #58)), .UNSPECIFIED., .F., .F., .U., (2, 2), (2, 2), (2.50035713374682, 11.5003571337468), (2.50035713374682, 11.5003571337468), .UNSPECIFIED.);
#55 = CARTESIAN_POINT('', (4.5, -4.5, -2.75545529808148E-16));
#56 = CARTESIAN_POINT('', (-4.5, -4.5, -1.44864002450102E-14));
#57 = CARTESIAN_POINT('', (4.5, 4.5, 1.44864002450102E-14));
#58 = CARTESIAN_POINT('', (-4.5, 4.5, 2.75545529808182E-16));
#59 = ADVANCED_FACE('', (#60), #79, .T.);
#60 = FACE_OUTER_BOUND('', #61, .T.);
#61 = EDGE_LOOP('', (#62, #71, #77, #78));
#62 = ORIENTED_EDGE('', *, *, #63, .F.);
#63 = EDGE_CURVE('', #64, #64, #66, .T.);
#64 = VERTEX_POINT('', #65);
#65 = CARTESIAN_POINT('', (-5., 3.36777869765522E-15, -50.));
#66 = CIRCLE('', #67, 5.);
#67 = AXIS2_PLACEMENT_3D('', #68, #69, #70);
#68 = CARTESIAN_POINT('', (-1.45716771982052E-15, 2.66453525910038E-15, -50.));
#69 = DIRECTION('', (5.04376198129292E-31, -4.83671794478017E-15, -1.));
#70 = DIRECTION('', (-1., -1.04280672118501E-16, 0.));
#71 = ORIENTED_EDGE('', *, *, #72, .T.);
#72 = EDGE_CURVE('', #64, #8, #73, .T.);
#73 = LINE('', #74, #75);
#74 = CARTESIAN_POINT('', (-5., 3.36777869765522E-15, -50.));
#75 = VECTOR('', #76, 49.5);
#76 = DIRECTION('', (0., -3.0310008278897E-15, 49.5));
#77 = ORIENTED_EDGE('', *, *, #25, .T.);
#78 = ORIENTED_EDGE('', *, *, #72, .F.);
#79 = (
   BOUNDED_SURFACE ()
   B_SPLINE_SURFACE (1, 2, ((#80, #81, #82, #83, #84, #85, #86, #87, #88), (#89, #90, #91, #92, #93, #94, #95, #96, #97)), .UNSPECIFIED., .F., .T., .U.)
   B_SPLINE_SURFACE_WITH_KNOTS ((2, 2), (3, 2, 2, 2, 3), (0.287769784172662, 1.), (0., 0.25, 0.5, 0.75, 1.), .UNSPECIFIED.)
   GEOMETRIC_REPRESENTATION_ITEM ()
   RATIONAL_B_SPLINE_SURFACE (((1., 0.707106781186548, 1., 0.707106781186548, 1., 0.707106781186548, 1., 0.707106781186548, 1.), (1., 0.707106781186548, 1., 0.707106781186548, 1., 0.707106781186548, 1., 0.707106781186548, 1.)))
   REPRESENTATION_ITEM ('')
   SURFACE ()
);
#80 = CARTESIAN_POINT('', (-5., -8.8446745732215E-16, -50.));
#81 = CARTESIAN_POINT('', (-5., 5., -50.));
#82 = CARTESIAN_POINT('', (1.55516260249014E-16, 5., -50.));
#83 = CARTESIAN_POINT('', (5., 5., -50.));
#84 = CARTESIAN_POINT('', (5., -2.05592282190467E-15, -50.));
#85 = CARTESIAN_POINT('', (5., -5., -50.));
#86 = CARTESIAN_POINT('', (-4.03615704759834E-16, -5., -50.));
#87 = CARTESIAN_POINT('', (-5., -5., -50.));
#88 = CARTESIAN_POINT('', (-5., -8.8446745732215E-16, -50.));
#89 = CARTESIAN_POINT('', (-5., 3.36777869765522E-16, -0.5));
#90 = CARTESIAN_POINT('', (-5., 5., -0.5));
#91 = CARTESIAN_POINT('', (1.55516260249014E-16, 5., -0.5));
#92 = CARTESIAN_POINT('', (5., 5., -0.5));
#93 = CARTESIAN_POINT('', (5., -8.34677494817002E-16, -0.5));
#94 = CARTESIAN_POINT('', (5., -5., -0.5));
#95 = CARTESIAN_POINT('', (-4.03615704759834E-16, -5., -0.5));
#96 = CARTESIAN_POINT('', (-5., -5., -0.5));
#97 = CARTESIAN_POINT('', (-5., 3.36777869765522E-16, -0.5));
#98 = ADVANCED_FACE('', (#99), #102, .T.);
#99 = FACE_OUTER_BOUND('', #100, .T.);
#100 = EDGE_LOOP('', (#101));
#101 = ORIENTED_EDGE('', *, *, #63, .T.);
#102 = B_SPLINE_SURFACE_WITH_KNOTS('', 1, 1, ((#103, #104), (#105, #106)), .UNSPECIFIED., .F., .F., .U., (2, 2), (2, 2), (70.3201954408555, 80.3201954408555), (66.4313052124605, 76.4313052124605), .UNSPECIFIED.);
#103 = CARTESIAN_POINT('', (-5., 5., -50.));
#104 = CARTESIAN_POINT('', (-5., -5., -50.));
#105 = CARTESIAN_POINT('', (5., 5., -50.));
#106 = CARTESIAN_POINT('', (5., -5., -50.));
#107 = DRAUGHTING_MODEL('', (#115, #229, #284, #289, #294, #299, #304, #309, #314), #328);
#108 = PRESENTATION_STYLE_ASSIGNMENT((#109));
#109 = SURFACE_STYLE_USAGE(.POSITIVE., #110);
#110 = SURFACE_SIDE_STYLE('', (#111));
#111 = SURFACE_STYLE_FILL_AREA(#112);
#112 = FILL_AREA_STYLE('', (#113));
#113 = FILL_AREA_STYLE_COLOUR('', #114);
#114 = COLOUR_RGB('', 0.50196078431373, 0.50196078431373, 0.50196078431373);
#115 = STYLED_ITEM('', (#108), #1);
#116 = MANIFOLD_SOLID_BREP('CUT', #117);
#117 = CLOSED_SHELL('', (#118, #135, #174, #213));
#118 = ADVANCED_FACE('', (#119), #130, .T.);
#119 = FACE_OUTER_BOUND('', #120, .T.);
#120 = EDGE_LOOP('', (#121));
#121 = ORIENTED_EDGE('', *, *, #122, .F.);
#122 = EDGE_CURVE('', #123, #123, #125, .T.);
#123 = VERTEX_POINT('', #124);
#124 = CARTESIAN_POINT('', (-5., 3.36777869765522E-15, -50.));
#125 = CIRCLE('', #126, 5.);
#126 = AXIS2_PLACEMENT_3D('', #127, #128, #129);
#127 = CARTESIAN_POINT('', (-1.45716771982052E-15, 2.66453525910038E-15, -50.));
#128 = DIRECTION('', (5.04376198129292E-31, -4.83671794478017E-15, -1.));
#129 = DIRECTION('', (-1., -1.04280672118501E-16, 0.));
#130 = B_SPLINE_SURFACE_WITH_KNOTS('', 1, 1, ((#131, #132), (#133, #134)), .UNSPECIFIED., .F., .F., .U., (2, 2), (2, 2), (66.4313052124605, 76.4313052124605), (70.3201954408555, 80.3201954408555), .UNSPECIFIED.);
#131 = CARTESIAN_POINT('', (-5., 5., -50.));
#132 = CARTESIAN_POINT('', (5., 5., -50.));
#133 = CARTESIAN_POINT('', (-5., -5., -50.));
#134 = CARTESIAN_POINT('', (5., -5., -50.));
#135 = ADVANCED_FACE('', (#136), #155, .T.);
#136 = FACE_OUTER_BOUND('', #137, .T.);
#137 = EDGE_LOOP('', (#138, #139, #147, #154));
#138 = ORIENTED_EDGE('', *, *, #122, .T.);
#139 = ORIENTED_EDGE('', *, *, #140, .F.);
#140 = EDGE_CURVE('', #141, #123, #143, .T.);
#141 = VERTEX_POINT('', #142);
#142 = CARTESIAN_POINT('', (-5., 4.7057053257237E-15, -71.85));
#143 = LINE('', #144, #145);
#144 = CARTESIAN_POINT('', (-5., 4.7057053257237E-15, -71.85));
#145 = VECTOR('', #146, 21.85);
#146 = DIRECTION('', (0., -1.33792662806848E-15, 21.85));
#147 = ORIENTED_EDGE('', *, *, #148, .F.);
#148 = EDGE_CURVE('', #141, #141, #149, .T.);
#149 = CIRCLE('', #150, 5.);
#150 = AXIS2_PLACEMENT_3D('', #151, #152, #153);
#151 = CARTESIAN_POINT('', (5.55111512312578E-17, 2.88657986402541E-15, -71.85));
#152 = DIRECTION('', (0., 0., -1.));
#153 = DIRECTION('', (-1., 3.63825092339659E-16, 0.));
#154 = ORIENTED_EDGE('', *, *, #140, .T.);
#155 = (
   BOUNDED_SURFACE ()
   B_SPLINE_SURFACE (1, 2, ((#156, #157, #158, #159, #160, #161, #162, #163, #164), (#165, #166, #167, #168, #169, #170, #171, #172, #173)), .UNSPECIFIED., .F., .T., .U.)
   B_SPLINE_SURFACE_WITH_KNOTS ((2, 2), (3, 2, 2, 2, 3), (-0.0271510791366907, 0.287769784172662), (0., 0.25, 0.5, 0.75, 1.), .UNSPECIFIED.)
   GEOMETRIC_REPRESENTATION_ITEM ()
   RATIONAL_B_SPLINE_SURFACE (((1., 0.707106781186548, 1., 0.707106781186548, 1., 0.707106781186548, 1., 0.707106781186548, 1.), (1., 0.707106781186548, 1., 0.707106781186548, 1., 0.707106781186548, 1., 0.707106781186548, 1.)))
   REPRESENTATION_ITEM ('')
   SURFACE ()
);
#156 = CARTESIAN_POINT('', (-5., -1.96129182054553E-15, -71.887));
#157 = CARTESIAN_POINT('', (-5., 5., -71.887));
#158 = CARTESIAN_POINT('', (-3.86339911823103E-15, 5., -71.887));
#159 = CARTESIAN_POINT('', (5., 5., -71.887));
#160 = CARTESIAN_POINT('', (5., 1.68543680041908E-15, -71.887));
#161 = CARTESIAN_POINT('', (5., -5., -71.887));
#162 = CARTESIAN_POINT('', (3.9565290230726E-16, -5., -71.887));
#163 = CARTESIAN_POINT('', (-5., -5., -71.887));
#164 = CARTESIAN_POINT('', (-5., -1.96129182054553E-15, -71.887));
#165 = CARTESIAN_POINT('', (-5., 3.36777869765522E-15, -50.));
#166 = CARTESIAN_POINT('', (-5., 5., -50.));
#167 = CARTESIAN_POINT('', (-3.86339911823103E-15, 5.00000000000001, -50.));
#168 = CARTESIAN_POINT('', (5., 5.00000000000001, -50.));
#169 = CARTESIAN_POINT('', (5., 7.01450731861983E-15, -50.));
#170 = CARTESIAN_POINT('', (5., -4.99999999999999, -50.));
#171 = CARTESIAN_POINT('', (3.95652902307259E-16, -4.99999999999999, -50.));
#172 = CARTESIAN_POINT('', (-5., -5., -50.));
#173 = CARTESIAN_POINT('', (-5., 3.36777869765522E-15, -50.));
#174 = ADVANCED_FACE('', (#175), #194, .T.);
#175 = FACE_OUTER_BOUND('', #176, .T.);
#176 = EDGE_LOOP('', (#177, #185, #186, #187));
#177 = ORIENTED_EDGE('', *, *, #178, .F.);
#178 = EDGE_CURVE('', #141, #179, #181, .T.);
#179 = VERTEX_POINT('', #180);
#180 = CARTESIAN_POINT('', (-4.85, 4.7057053257237E-15, -72.));
#181 = LINE('', #182, #183);
#182 = CARTESIAN_POINT('', (-5., 4.7057053257237E-15, -71.85));
#183 = VECTOR('', #184, 0.212132034355969);
#184 = DIRECTION('', (0.15, 0., -0.150000000000006));
#185 = ORIENTED_EDGE('', *, *, #148, .T.);
#186 = ORIENTED_EDGE('', *, *, #178, .T.);
#187 = ORIENTED_EDGE('', *, *, #188, .F.);
#188 = EDGE_CURVE('', #179, #179, #189, .T.);
#189 = CIRCLE('', #190, 4.85);
#190 = AXIS2_PLACEMENT_3D('', #191, #192, #193);
#191 = CARTESIAN_POINT('', (-1.26287869051112E-15, -3.33066907387547E-16, -72.));
#192 = DIRECTION('', (0., 0., -1.));
#193 = DIRECTION('', (-1., 1.03892210991984E-15, 0.));
#194 = (
   BOUNDED_SURFACE ()
   B_SPLINE_SURFACE (2, 1, ((#195, #196), (#197, #198), (#199, #200), (#201, #202), (#203, #204), (#205, #206), (#207, #208), (#209, #210), (#211, #212)), .UNSPECIFIED., .T., .F., .U.)
   B_SPLINE_SURFACE_WITH_KNOTS ((3, 2, 2, 2, 3), (2, 2), (0., 0.25, 0.5, 0.75, 1.), (0., 1.), .UNSPECIFIED.)
   GEOMETRIC_REPRESENTATION_ITEM ()
   RATIONAL_B_SPLINE_SURFACE (((1., 1.), (0.707106781186548, 0.707106781186548), (1., 1.), (0.707106781186548, 0.707106781186548), (1., 1.), (0.707106781186548, 0.707106781186548), (1., 1.), (0.707106781186548, 0.707106781186548), (1., 1.)))
   REPRESENTATION_ITEM ('')
   SURFACE ()
);
#195 = CARTESIAN_POINT('', (-5., 4.7057053257237E-15, -71.85));
#196 = CARTESIAN_POINT('', (-4.85, 7.04477240296459E-15, -72.));
#197 = CARTESIAN_POINT('', (-4.99999999999999, 5., -71.8499999999999));
#198 = CARTESIAN_POINT('', (-4.84999999999999, 4.85000000000001, -71.9999999999999));
#199 = CARTESIAN_POINT('', (6.68937861422625E-15, 5., -71.8499999999999));
#200 = CARTESIAN_POINT('', (6.48411758582288E-15, 4.85, -71.9999999999999));
#201 = CARTESIAN_POINT('', (5.00000000000001, 4.99999999999999, -71.8499999999999));
#202 = CARTESIAN_POINT('', (4.85000000000001, 4.84999999999999, -71.9999999999999));
#203 = CARTESIAN_POINT('', (5., -8.97836323450071E-15, -71.85));
#204 = CARTESIAN_POINT('', (4.85, -6.22877410045309E-15, -72.));
#205 = CARTESIAN_POINT('', (4.99999999999999, -5.00000000000001, -71.8500000000001));
#206 = CARTESIAN_POINT('', (4.84999999999999, -4.85000000000001, -72.0000000000001));
#207 = CARTESIAN_POINT('', (-6.38236654642449E-15, -5., -71.8500000000001));
#208 = CARTESIAN_POINT('', (-6.19547522000833E-15, -4.85, -72.0000000000001));
#209 = CARTESIAN_POINT('', (-5.00000000000001, -5., -71.8500000000001));
#210 = CARTESIAN_POINT('', (-4.85, -4.84999999999999, -72.0000000000001));
#211 = CARTESIAN_POINT('', (-5., 4.7057053257237E-15, -71.85));
#212 = CARTESIAN_POINT('', (-4.85, 7.04477240296459E-15, -72.));
#213 = ADVANCED_FACE('', (#214), #217, .T.);
#214 = FACE_OUTER_BOUND('', #215, .T.);
#215 = EDGE_LOOP('', (#216));
#216 = ORIENTED_EDGE('', *, *, #188, .T.);
#217 = B_SPLINE_SURFACE_WITH_KNOTS('', 1, 1, ((#218, #219), (#220, #221)), .UNSPECIFIED., .F., .F., .U., (2, 2), (2, 2), (2.69482935526046, 12.3948293552605), (2.69482935526046, 12.3948293552605), .UNSPECIFIED.);
#218 = CARTESIAN_POINT('', (4.85, -4.85, -72.));
#219 = CARTESIAN_POINT('', (4.85, 4.85, -72.));
#220 = CARTESIAN_POINT('', (-4.85, -4.85, -72.));
#221 = CARTESIAN_POINT('', (-4.85, 4.85, -72.));
#222 = PRESENTATION_STYLE_ASSIGNMENT((#223));
#223 = SURFACE_STYLE_USAGE(.POSITIVE., #224);
#224 = SURFACE_SIDE_STYLE('', (#225));
#225 = SURFACE_STYLE_FILL_AREA(#226);
#226 = FILL_AREA_STYLE('', (#227));
#227 = FILL_AREA_STYLE_COLOUR('', #228);
#228 = COLOUR_RGB('', 0.8, 0.8, 0.8);
#229 = STYLED_ITEM('', (#222), #116);
#230 = TRIMMED_CURVE('cutting part line', #231, (#235), (#236), .T., .CARTESIAN.);
#231 = LINE('', #232, #233);
#232 = CARTESIAN_POINT('', (-5.62409918498196E-31, -3.06161699786838E-15, -50.));
#233 = VECTOR('', #234, 5.);
#234 = DIRECTION('', (5., -9.18485099360517E-16, 0.));
#235 = CARTESIAN_POINT('', (-5.62409918498196E-31, -3.06161699786838E-15, -50.));
#236 = CARTESIAN_POINT('', (5., -3.9801020972289E-15, -50.));
#237 = TRIMMED_CURVE('cutting part line', #238, (#242), (#243), .T., .CARTESIAN.);
#238 = LINE('', #239, #240);
#239 = CARTESIAN_POINT('', (5., -3.9801020972289E-15, -50.));
#240 = VECTOR('', #241, 20.);
#241 = DIRECTION('', (0., -1.22464679914736E-15, -20.));
#242 = CARTESIAN_POINT('', (5., -3.9801020972289E-15, -50.));
#243 = CARTESIAN_POINT('', (5., -5.20474889637626E-15, -70.));
#244 = TRIMMED_CURVE('cutting part line', #245, (#249), (#250), .T., .CARTESIAN.);
#245 = LINE('', #246, #247);
#246 = CARTESIAN_POINT('', (5., -5.20474889637626E-15, -70.));
#247 = VECTOR('', #248, 1.84999999999999);
#248 = DIRECTION('', (0., -1.1327982892112E-16, -1.84999999999999));
#249 = CARTESIAN_POINT('', (5., -5.20474889637626E-15, -70.));
#250 = CARTESIAN_POINT('', (5., -5.31802872529738E-15, -71.85));
#251 = TRIMMED_CURVE('cutting part line', #252, (#256), (#257), .T., .CARTESIAN.);
#252 = LINE('', #253, #254);
#253 = CARTESIAN_POINT('', (5., -5.31802872529738E-15, -71.85));
#254 = VECTOR('', #255, 0.212132034355969);
#255 = DIRECTION('', (-0.15, 1.83697019872104E-17, -0.150000000000006));
#256 = CARTESIAN_POINT('', (5., -5.31802872529738E-15, -71.85));
#257 = CARTESIAN_POINT('', (4.85, -5.29965902331017E-15, -72.));
#258 = TRIMMED_CURVE('cutting part line', #259, (#263), (#264), .T., .CARTESIAN.);
#259 = LINE('', #260, #261);
#260 = CARTESIAN_POINT('', (4.85, -5.29965902331017E-15, -72.));
#261 = VECTOR('', #262, 4.85);
#262 = DIRECTION('', (-4.85, 8.90930546379696E-16, 0.));
#263 = CARTESIAN_POINT('', (4.85, -5.29965902331017E-15, -72.));
#264 = CARTESIAN_POINT('', (-5.39913521758269E-31, -4.40872847693047E-15, -72.));
#265 = TRIMMED_CURVE('cutting part line', #266, (#270), (#271), .T., .CARTESIAN.);
#266 = LINE('', #267, #268);
#267 = CARTESIAN_POINT('', (-8.09870282637403E-31, -4.40872847693047E-15, -72.));
#268 = VECTOR('', #269, 22.);
#269 = DIRECTION('', (2.47460364139207E-31, 1.34711147906209E-15, 22.));
#270 = CARTESIAN_POINT('', (-8.09870282637403E-31, -4.40872847693047E-15, -72.));
#271 = CARTESIAN_POINT('', (-5.62409918498196E-31, -3.06161699786838E-15, -50.));
#272 = COMPOSITE_CURVE('cutting part line', (#273, #274, #275, #276, #277, #278), .U.);
#273 = COMPOSITE_CURVE_SEGMENT(.CONTINUOUS., .T., #230);
#274 = COMPOSITE_CURVE_SEGMENT(.CONTINUOUS., .T., #237);
#275 = COMPOSITE_CURVE_SEGMENT(.CONTINUOUS., .T., #244);
#276 = COMPOSITE_CURVE_SEGMENT(.CONTINUOUS., .T., #251);
#277 = COMPOSITE_CURVE_SEGMENT(.CONTINUOUS., .T., #258);
#278 = COMPOSITE_CURVE_SEGMENT(.CONTINUOUS., .T., #265);
#279 = GEOMETRIC_SET('', (#272, #327));
#280 = PRESENTATION_STYLE_ASSIGNMENT((#281));
#281 = CURVE_STYLE('', #283, POSITIVE_LENGTH_MEASURE(1.E-6), #282);
#282 = COLOUR_RGB('', 0., 0., 1.);
#283 = DRAUGHTING_PRE_DEFINED_CURVE_FONT('continuous');
#284 = STYLED_ITEM('', (#280), #272);
#285 = PRESENTATION_STYLE_ASSIGNMENT((#286));
#286 = CURVE_STYLE('', #288, POSITIVE_LENGTH_MEASURE(1.E-6), #287);
#287 = COLOUR_RGB('', 0., 0., 1.);
#288 = DRAUGHTING_PRE_DEFINED_CURVE_FONT('continuous');
#289 = OVER_RIDING_STYLED_ITEM('', (#285), #230, #284);
#290 = PRESENTATION_STYLE_ASSIGNMENT((#291));
#291 = CURVE_STYLE('', #293, POSITIVE_LENGTH_MEASURE(1.E-6), #292);
#292 = COLOUR_RGB('', 0., 0., 1.);
#293 = DRAUGHTING_PRE_DEFINED_CURVE_FONT('continuous');
#294 = OVER_RIDING_STYLED_ITEM('', (#290), #237, #284);
#295 = PRESENTATION_STYLE_ASSIGNMENT((#296));
#296 = CURVE_STYLE('', #298, POSITIVE_LENGTH_MEASURE(1.E-6), #297);
#297 = COLOUR_RGB('', 0., 0., 1.);
#298 = DRAUGHTING_PRE_DEFINED_CURVE_FONT('continuous');
#299 = OVER_RIDING_STYLED_ITEM('', (#295), #244, #284);
#300 = PRESENTATION_STYLE_ASSIGNMENT((#301));
#301 = CURVE_STYLE('', #303, POSITIVE_LENGTH_MEASURE(1.E-6), #302);
#302 = COLOUR_RGB('', 0., 0., 1.);
#303 = DRAUGHTING_PRE_DEFINED_CURVE_FONT('continuous');
#304 = OVER_RIDING_STYLED_ITEM('', (#300), #251, #284);
#305 = PRESENTATION_STYLE_ASSIGNMENT((#306));
#306 = CURVE_STYLE('', #308, POSITIVE_LENGTH_MEASURE(1.E-6), #307);
#307 = COLOUR_RGB('', 0., 0., 1.);
#308 = DRAUGHTING_PRE_DEFINED_CURVE_FONT('continuous');
#309 = OVER_RIDING_STYLED_ITEM('', (#305), #258, #284);
#310 = PRESENTATION_STYLE_ASSIGNMENT((#311));
#311 = CURVE_STYLE('', #313, POSITIVE_LENGTH_MEASURE(1.E-6), #312);
#312 = COLOUR_RGB('', 0., 0., 1.);
#313 = DRAUGHTING_PRE_DEFINED_CURVE_FONT('continuous');
#314 = OVER_RIDING_STYLED_ITEM('', (#310), #265, #284);
#315 = AXIS2_PLACEMENT_3D('CIP', #316, #317, #318);
#316 = CARTESIAN_POINT('', (2.69956760879134E-31, 4.40872847693047E-15, -72.));
#317 = DIRECTION('', (-3.74939945665465E-33, -6.12323399573677E-17, 1.));
#318 = DIRECTION('', (1., -6.12323399573677E-17, 0.));
#319 = AXIS2_PLACEMENT_3D('MCS', #320, #321, #322);
#320 = CARTESIAN_POINT('', (1.49975978266186E-31, 2.44929359829471E-15, -40.));
#321 = DIRECTION('', (-3.74939945665465E-33, -6.12323399573677E-17, 1.));
#322 = DIRECTION('', (1., -6.12323399573677E-17, 0.));
#323 = AXIS2_PLACEMENT_3D('PCS', #324, #325, #326);
#324 = CARTESIAN_POINT('', (0., 0., 0.));
#325 = DIRECTION('', (0., 0., 1.));
#326 = DIRECTION('', (1., 0., 0.));
#327 = CARTESIAN_POINT('CRP', (5., 0., -72.));
#328 = (
   GEOMETRIC_REPRESENTATION_CONTEXT (3)
   GLOBAL_UNCERTAINTY_ASSIGNED_CONTEXT ((#330))
   GLOBAL_UNIT_ASSIGNED_CONTEXT ((#329, #331, #332))
   REPRESENTATION_CONTEXT ('', '3D')
);
#329 = (
   LENGTH_UNIT ()
   NAMED_UNIT (*)
   SI_UNIT (.MILLI., .METRE.)
);
#330 = UNCERTAINTY_MEASURE_WITH_UNIT(LENGTH_MEASURE(1.E-6), #329, 'DISTANCE_ACCURACY_VALUE', '');
#331 = (
   NAMED_UNIT (*)
   SI_UNIT ($, .STERADIAN.)
   SOLID_ANGLE_UNIT ()
);
#332 = (
   NAMED_UNIT (*)
   PLANE_ANGLE_UNIT ()
   SI_UNIT ($, .RADIAN.)
);
#333 = SHAPE_REPRESENTATION('', (), #328);
#334 = PRODUCT_DEFINITION_SHAPE('', '', #335);
#335 = PRODUCT_DEFINITION('', '', #338, #342);
#336 = APPLICATION_CONTEXT('configuration controlled 3D designs of mechanical parts and assemblies');
#337 = APPLICATION_PROTOCOL_DEFINITION('International Standard', 'automotive_design', 2002, #336);
#338 = PRODUCT_DEFINITION_FORMATION_WITH_SPECIFIED_SOURCE('', '', #339, .NOT_KNOWN.);
#339 = PRODUCT('NONE', '2P342-1000-CMA      1740', '', (#340));
#340 = PRODUCT_CONTEXT('', #336, 'mechanical');
#341 = PRODUCT_RELATED_PRODUCT_CATEGORY('detail', '', (#339));
#342 = PRODUCT_DEFINITION_CONTEXT('part definition', #336, 'design');
#343 = SHAPE_DEFINITION_REPRESENTATION(#334, #333);
#344 = CONSTRUCTIVE_GEOMETRY_REPRESENTATION('supplemental geometry', (#315, #319, #323), #328);
#345 = CONSTRUCTIVE_GEOMETRY_REPRESENTATION_RELATIONSHIP('', '', #333, #344);
#346 = SHAPE_REPRESENTATION_RELATIONSHIP('', '', #333, #347);
#347 = SHAPE_REPRESENTATION('', (#279), #328);
#348 = SHAPE_REPRESENTATION_RELATIONSHIP('', '', #333, #349);
#349 = ADVANCED_BREP_SHAPE_REPRESENTATION('', (#1, #116), #328);
ENDSEC;
END-ISO-10303-21;
