ISO-10303-21;
HEADER;
FILE_DESCRIPTION(('STEP'), '1');
FILE_NAME('C:\\Users\\ds2002\\OneDrive - Sandvik\\HomeShare\\Documents\\Batchrepair\\CorSRT2\\NEW_MILSQ_SLD\\Output\\MOD000000000000000020082250900000.stp', '2019-01-02T12:10:18', (''), (''), 'Express v3.0.0.0', 'Express Tool', 'Unknown');
FILE_SCHEMA(('AUTOMOTIVE_DESIGN'));
ENDSEC;

DATA;
#1 = MANIFOLD_SOLID_BREP('NOCUT', #2);
#2 = CLOSED_SHELL('', (#3, #50, #89, #128, #137, #176));
#3 = ADVANCED_FACE('', (#4), #31, .T.);
#4 = FACE_OUTER_BOUND('', #5, .T.);
#5 = EDGE_LOOP('', (#6, #16, #23, #24));
#6 = ORIENTED_EDGE('', *, *, #7, .F.);
#7 = EDGE_CURVE('', #8, #10, #12, .T.);
#8 = VERTEX_POINT('', #9);
#9 = CARTESIAN_POINT('', (-1.5, 1.86758636869971E-15, -29.));
#10 = VERTEX_POINT('', #11);
#11 = CARTESIAN_POINT('', (-0.5, 1.8982025386784E-15, -30.5));
#12 = LINE('', #13, #14);
#13 = CARTESIAN_POINT('', (-1.5, 1.86758636869971E-15, -29.));
#14 = VECTOR('', #15, 1.80277563773199);
#15 = DIRECTION('', (1., 3.06161699786901E-17, -1.5));
#16 = ORIENTED_EDGE('', *, *, #17, .T.);
#17 = EDGE_CURVE('', #8, #8, #18, .T.);
#18 = CIRCLE('', #19, 1.5);
#19 = AXIS2_PLACEMENT_3D('', #20, #21, #22);
#20 = CARTESIAN_POINT('', (1.80411241501588E-16, 1.02695629777827E-15, -29.));
#21 = DIRECTION('', (0., 0., -1.));
#22 = DIRECTION('', (-1., 5.6042004728096E-16, 0.));
#23 = ORIENTED_EDGE('', *, *, #7, .T.);
#24 = ORIENTED_EDGE('', *, *, #25, .F.);
#25 = EDGE_CURVE('', #10, #10, #26, .T.);
#26 = CIRCLE('', #27, 0.5);
#27 = AXIS2_PLACEMENT_3D('', #28, #29, #30);
#28 = CARTESIAN_POINT('', (1.38777878078145E-17, 1.87350135405495E-15, -30.5));
#29 = DIRECTION('', (0., 0., -1.));
#30 = DIRECTION('', (-1., 4.94023692468965E-17, 0.));
#31 = (
   BOUNDED_SURFACE ()
   B_SPLINE_SURFACE (2, 1, ((#32, #33), (#34, #35), (#36, #37), (#38, #39), (#40, #41), (#42, #43), (#44, #45), (#46, #47), (#48, #49)), .UNSPECIFIED., .T., .F., .U.)
   B_SPLINE_SURFACE_WITH_KNOTS ((3, 2, 2, 2, 3), (2, 2), (0., 0.25, 0.5, 0.75, 1.), (0., 1.), .UNSPECIFIED.)
   GEOMETRIC_REPRESENTATION_ITEM ()
   RATIONAL_B_SPLINE_SURFACE (((1., 1.), (0.707106781186548, 0.707106781186548), (1., 1.), (0.707106781186548, 0.707106781186548), (1., 1.), (0.707106781186548, 0.707106781186548), (1., 1.), (0.707106781186548, 0.707106781186548), (1., 1.)))
   REPRESENTATION_ITEM ('')
   SURFACE ()
);
#32 = CARTESIAN_POINT('', (-1.5, 1.86758636869971E-15, -29.));
#33 = CARTESIAN_POINT('', (-0.5, 2.15371137769543E-15, -30.5));
#34 = CARTESIAN_POINT('', (-1.5, 1.5, -29.));
#35 = CARTESIAN_POINT('', (-0.5, 0.500000000000002, -30.5));
#36 = CARTESIAN_POINT('', (9.29192802486976E-16, 1.5, -29.));
#37 = CARTESIAN_POINT('', (4.30005095163384E-16, 0.500000000000002, -30.5));
#38 = CARTESIAN_POINT('', (1.5, 1.5, -29.));
#39 = CARTESIAN_POINT('', (0.5, 0.500000000000002, -30.5));
#40 = CARTESIAN_POINT('', (1.5, 3.70023246728933E-16, -29.));
#41 = CARTESIAN_POINT('', (0.5, 1.65452367037184E-15, -30.5));
#42 = CARTESIAN_POINT('', (1.5, -1.5, -29.));
#43 = CARTESIAN_POINT('', (0.5, -0.499999999999998, -30.5));
#44 = CARTESIAN_POINT('', (-3.84673299611697E-16, -1.5, -29.));
#45 = CARTESIAN_POINT('', (-7.95027220283946E-18, -0.499999999999998, -30.5));
#46 = CARTESIAN_POINT('', (-1.5, -1.5, -29.));
#47 = CARTESIAN_POINT('', (-0.5, -0.499999999999998, -30.5));
#48 = CARTESIAN_POINT('', (-1.5, 1.86758636869971E-15, -29.));
#49 = CARTESIAN_POINT('', (-0.5, 2.15371137769543E-15, -30.5));
#50 = ADVANCED_FACE('', (#51), #70, .T.);
#51 = FACE_OUTER_BOUND('', #52, .T.);
#52 = EDGE_LOOP('', (#53, #61, #68, #69));
#53 = ORIENTED_EDGE('', *, *, #54, .T.);
#54 = EDGE_CURVE('', #8, #55, #57, .T.);
#55 = VERTEX_POINT('', #56);
#56 = CARTESIAN_POINT('', (-1.5, 1.01033360929657E-16, -0.149999999999999));
#57 = LINE('', #58, #59);
#58 = CARTESIAN_POINT('', (-1.5, 1.86758636869971E-15, -29.));
#59 = VECTOR('', #60, 28.85);
#60 = DIRECTION('', (0., -1.76655300777005E-15, 28.85));
#61 = ORIENTED_EDGE('', *, *, #62, .T.);
#62 = EDGE_CURVE('', #55, #55, #63, .T.);
#63 = CIRCLE('', #64, 1.5);
#64 = AXIS2_PLACEMENT_3D('', #65, #66, #67);
#65 = CARTESIAN_POINT('', (1.52655665885959E-16, -3.60822483003176E-16, -0.149999999999999));
#66 = DIRECTION('', (0., 0., -1.));
#67 = DIRECTION('', (-1., 3.07903895955222E-16, 0.));
#68 = ORIENTED_EDGE('', *, *, #54, .F.);
#69 = ORIENTED_EDGE('', *, *, #17, .F.);
#70 = (
   BOUNDED_SURFACE ()
   B_SPLINE_SURFACE (1, 2, ((#71, #72, #73, #74, #75, #76, #77, #78, #79), (#80, #81, #82, #83, #84, #85, #86, #87, #88)), .UNSPECIFIED., .F., .T., .U.)
   B_SPLINE_SURFACE_WITH_KNOTS ((2, 2), (3, 2, 2, 2, 3), (0., 1.), (0., 2.35619449019235, 4.71238898038469, 7.06858347057704, 9.42477796076938), .UNSPECIFIED.)
   GEOMETRIC_REPRESENTATION_ITEM ()
   RATIONAL_B_SPLINE_SURFACE (((1., 0.707106781186548, 1., 0.707106781186548, 1., 0.707106781186548, 1., 0.707106781186548, 1.), (1., 0.707106781186548, 1., 0.707106781186548, 1., 0.707106781186548, 1., 0.707106781186548, 1.)))
   REPRESENTATION_ITEM ('')
   SURFACE ()
);
#71 = CARTESIAN_POINT('', (-1.5, 1.1002340830923E-15, -29.));
#72 = CARTESIAN_POINT('', (-1.5, 1.5, -29.));
#73 = CARTESIAN_POINT('', (5.22662999882741E-16, 1.5, -29.));
#74 = CARTESIAN_POINT('', (1.5, 1.5, -29.));
#75 = CARTESIAN_POINT('', (1.5, 3.60219415098735E-16, -29.));
#76 = CARTESIAN_POINT('', (1.5, -1.5, -29.));
#77 = CARTESIAN_POINT('', (-3.36546482387189E-17, -1.5, -29.));
#78 = CARTESIAN_POINT('', (-1.5, -1.5, -29.));
#79 = CARTESIAN_POINT('', (-1.5, 1.1002340830923E-15, -29.));
#80 = CARTESIAN_POINT('', (-1.5, 1.01033360929657E-16, -0.149999999999999));
#81 = CARTESIAN_POINT('', (-1.5, 1.5, -0.149999999999999));
#82 = CARTESIAN_POINT('', (5.2266299988274E-16, 1.5, -0.149999999999999));
#83 = CARTESIAN_POINT('', (1.5, 1.5, -0.149999999999999));
#84 = CARTESIAN_POINT('', (1.5, -6.38981307063906E-16, -0.149999999999999));
#85 = CARTESIAN_POINT('', (1.5, -1.5, -0.149999999999999));
#86 = CARTESIAN_POINT('', (-3.36546482387192E-17, -1.5, -0.149999999999999));
#87 = CARTESIAN_POINT('', (-1.5, -1.5, -0.149999999999999));
#88 = CARTESIAN_POINT('', (-1.5, 1.01033360929657E-16, -0.149999999999999));
#89 = ADVANCED_FACE('', (#90), #109, .T.);
#90 = FACE_OUTER_BOUND('', #91, .T.);
#91 = EDGE_LOOP('', (#92, #100, #107, #108));
#92 = ORIENTED_EDGE('', *, *, #93, .T.);
#93 = EDGE_CURVE('', #55, #94, #96, .T.);
#94 = VERTEX_POINT('', #95);
#95 = CARTESIAN_POINT('', (-1.35, 8.26636589424463E-17, 0.));
#96 = LINE('', #97, #98);
#97 = CARTESIAN_POINT('', (-1.5, 1.01033360929657E-16, -0.149999999999999));
#98 = VECTOR('', #99, 0.212132034355963);
#99 = DIRECTION('', (0.15, -1.83697019872107E-17, 0.149999999999999));
#100 = ORIENTED_EDGE('', *, *, #101, .T.);
#101 = EDGE_CURVE('', #94, #94, #102, .T.);
#102 = CIRCLE('', #103, 1.35);
#103 = AXIS2_PLACEMENT_3D('', #104, #105, #106);
#104 = CARTESIAN_POINT('', (4.61436444609831E-16, -6.38378239159465E-16, -7.7875102531819E-16));
#105 = DIRECTION('', (-5.76852611346806E-16, 1.6649441676109E-15, -1.));
#106 = DIRECTION('', (-1., 5.34105109705119E-16, 5.76852611346807E-16));
#107 = ORIENTED_EDGE('', *, *, #93, .F.);
#108 = ORIENTED_EDGE('', *, *, #62, .F.);
#109 = (
   BOUNDED_SURFACE ()
   B_SPLINE_SURFACE (1, 2, ((#110, #111, #112, #113, #114, #115, #116, #117, #118), (#119, #120, #121, #122, #123, #124, #125, #126, #127)), .UNSPECIFIED., .F., .T., .U.)
   B_SPLINE_SURFACE_WITH_KNOTS ((2, 2), (3, 2, 2, 2, 3), (0., 1.), (0., 0.25, 0.5, 0.75, 1.), .UNSPECIFIED.)
   GEOMETRIC_REPRESENTATION_ITEM ()
   RATIONAL_B_SPLINE_SURFACE (((1., 0.707106781186548, 1., 0.707106781186548, 1., 0.707106781186548, 1., 0.707106781186548, 1.), (1., 0.707106781186548, 1., 0.707106781186548, 1., 0.707106781186548, 1., 0.707106781186548, 1.)))
   REPRESENTATION_ITEM ('')
   SURFACE ()
);
#110 = CARTESIAN_POINT('', (-1.5, 7.45646513326421E-16, -0.149999999999998));
#111 = CARTESIAN_POINT('', (-1.5, 1.5, -0.149999999999992));
#112 = CARTESIAN_POINT('', (1.08421770752944E-15, 1.5, -0.149999999999993));
#113 = CARTESIAN_POINT('', (1.5, 1.5, -0.149999999999994));
#114 = CARTESIAN_POINT('', (1.5, -6.72971795916834E-16, -0.15));
#115 = CARTESIAN_POINT('', (1.5, -1.5, -0.150000000000006));
#116 = CARTESIAN_POINT('', (-1.50703581841717E-16, -1.5, -0.150000000000005));
#117 = CARTESIAN_POINT('', (-1.5, -1.5, -0.150000000000004));
#118 = CARTESIAN_POINT('', (-1.5, 7.45646513326421E-16, -0.149999999999998));
#119 = CARTESIAN_POINT('', (-1.35, 8.2663658942446E-17, -2.95822839457879E-31));
#120 = CARTESIAN_POINT('', (-1.35, 1.35, 5.24580379135393E-15));
#121 = CARTESIAN_POINT('', (1.0998146837693E-15, 1.35, 4.46705276603574E-15));
#122 = CARTESIAN_POINT('', (1.35, 1.35, 3.68830174071755E-15));
#123 = CARTESIAN_POINT('', (1.35, -1.19409281937648E-15, -1.55750205063638E-15));
#124 = CARTESIAN_POINT('', (1.35, -1.35, -6.80330584199031E-15));
#125 = CARTESIAN_POINT('', (-1.16144766647444E-17, -1.35, -6.02455481667212E-15));
#126 = CARTESIAN_POINT('', (-1.35, -1.35, -5.24580379135393E-15));
#127 = CARTESIAN_POINT('', (-1.35, 8.2663658942446E-17, -2.95822839457879E-31));
#128 = ADVANCED_FACE('', (#129), #132, .T.);
#129 = FACE_OUTER_BOUND('', #130, .T.);
#130 = EDGE_LOOP('', (#131));
#131 = ORIENTED_EDGE('', *, *, #101, .F.);
#132 = B_SPLINE_SURFACE_WITH_KNOTS('', 1, 1, ((#133, #134), (#135, #136)), .UNSPECIFIED., .F., .F., .U., (2, 2), (2, 2), (0.0454545454545454, 0.954545454545454), (0.0454545454545454, 0.954545454545454), .UNSPECIFIED.);
#133 = CARTESIAN_POINT('', (1.35, -1.35, -8.26636589424464E-17));
#134 = CARTESIAN_POINT('', (-1.35, -1.35, -8.26636589424463E-17));
#135 = CARTESIAN_POINT('', (1.35, 1.35, 8.26636589424463E-17));
#136 = CARTESIAN_POINT('', (-1.35, 1.35, 8.26636589424464E-17));
#137 = ADVANCED_FACE('', (#138), #157, .T.);
#138 = FACE_OUTER_BOUND('', #139, .T.);
#139 = EDGE_LOOP('', (#140, #149, #155, #156));
#140 = ORIENTED_EDGE('', *, *, #141, .F.);
#141 = EDGE_CURVE('', #142, #142, #144, .T.);
#142 = VERTEX_POINT('', #143);
#143 = CARTESIAN_POINT('', (-0.5, 2.0818995585505E-15, -33.5));
#144 = CIRCLE('', #145, 0.5);
#145 = AXIS2_PLACEMENT_3D('', #146, #147, #148);
#146 = CARTESIAN_POINT('', (7.28583859910259E-17, 1.81799020282369E-15, -33.5));
#147 = DIRECTION('', (0., 0., -1.));
#148 = DIRECTION('', (-1., 5.27818711453612E-16, 0.));
#149 = ORIENTED_EDGE('', *, *, #150, .F.);
#150 = EDGE_CURVE('', #10, #142, #151, .T.);
#151 = LINE('', #152, #153);
#152 = CARTESIAN_POINT('', (-0.5, 1.8982025386784E-15, -30.5));
#153 = VECTOR('', #154, 3.);
#154 = DIRECTION('', (0., 1.836970198721E-16, -3.));
#155 = ORIENTED_EDGE('', *, *, #25, .T.);
#156 = ORIENTED_EDGE('', *, *, #150, .T.);
#157 = (
   BOUNDED_SURFACE ()
   B_SPLINE_SURFACE (2, 1, ((#158, #159), (#160, #161), (#162, #163), (#164, #165), (#166, #167), (#168, #169), (#170, #171), (#172, #173), (#174, #175)), .UNSPECIFIED., .T., .F., .U.)
   B_SPLINE_SURFACE_WITH_KNOTS ((3, 2, 2, 2, 3), (2, 2), (0., 0.785398163397448, 1.5707963267949, 2.35619449019234, 3.14159265358979), (0., 0.4), .UNSPECIFIED.)
   GEOMETRIC_REPRESENTATION_ITEM ()
   RATIONAL_B_SPLINE_SURFACE (((1., 1.), (0.707106781186548, 0.707106781186548), (1., 1.), (0.707106781186548, 0.707106781186548), (1., 1.), (0.707106781186548, 0.707106781186548), (1., 1.), (0.707106781186548, 0.707106781186548), (1., 1.)))
   REPRESENTATION_ITEM ('')
   SURFACE ()
);
#158 = CARTESIAN_POINT('', (-0.5, 1.8982025386784E-15, -30.5));
#159 = CARTESIAN_POINT('', (-0.5, 1.8982025386784E-15, -33.5));
#160 = CARTESIAN_POINT('', (-0.5, 0.500000000000002, -30.5));
#161 = CARTESIAN_POINT('', (-0.5, 0.500000000000002, -33.5));
#162 = CARTESIAN_POINT('', (1.79700426574283E-16, 0.500000000000002, -30.5));
#163 = CARTESIAN_POINT('', (1.79700426574283E-16, 0.500000000000002, -33.5));
#164 = CARTESIAN_POINT('', (0.5, 0.500000000000002, -30.5));
#165 = CARTESIAN_POINT('', (0.5, 0.500000000000002, -33.5));
#166 = CARTESIAN_POINT('', (0.5, 1.79901020692636E-15, -30.5));
#167 = CARTESIAN_POINT('', (0.5, 1.79901020692636E-15, -33.5));
#168 = CARTESIAN_POINT('', (0.5, -0.499999999999998, -30.5));
#169 = CARTESIAN_POINT('', (0.5, -0.499999999999998, -33.5));
#170 = CARTESIAN_POINT('', (1.41740434779606E-16, -0.499999999999998, -30.5));
#171 = CARTESIAN_POINT('', (1.41740434779606E-16, -0.499999999999998, -33.5));
#172 = CARTESIAN_POINT('', (-0.5, -0.499999999999998, -30.5));
#173 = CARTESIAN_POINT('', (-0.5, -0.499999999999998, -33.5));
#174 = CARTESIAN_POINT('', (-0.5, 1.8982025386784E-15, -30.5));
#175 = CARTESIAN_POINT('', (-0.5, 1.8982025386784E-15, -33.5));
#176 = ADVANCED_FACE('', (#177), #180, .T.);
#177 = FACE_OUTER_BOUND('', #178, .T.);
#178 = EDGE_LOOP('', (#179));
#179 = ORIENTED_EDGE('', *, *, #141, .T.);
#180 = B_SPLINE_SURFACE_WITH_KNOTS('', 1, 1, ((#181, #182), (#183, #184)), .UNSPECIFIED., .F., .F., .U., (2, 2), (2, 2), (0.508431011864251, 0.521507654814194), (0.478492345185806, 0.491568988135749), .UNSPECIFIED.);
#181 = CARTESIAN_POINT('', (-0.500000000000014, 0.500000000000007, -33.5));
#182 = CARTESIAN_POINT('', (-0.500000000000014, -0.499999999999993, -33.5));
#183 = CARTESIAN_POINT('', (0.499999999999993, 0.500000000000007, -33.5));
#184 = CARTESIAN_POINT('', (0.499999999999993, -0.499999999999993, -33.5));
#185 = DRAUGHTING_MODEL('', (#193, #268, #307, #312, #317, #322, #327), #341);
#186 = PRESENTATION_STYLE_ASSIGNMENT((#187));
#187 = SURFACE_STYLE_USAGE(.POSITIVE., #188);
#188 = SURFACE_SIDE_STYLE('', (#189));
#189 = SURFACE_STYLE_FILL_AREA(#190);
#190 = FILL_AREA_STYLE('', (#191));
#191 = FILL_AREA_STYLE_COLOUR('', #192);
#192 = COLOUR_RGB('', 0.50196078431373, 0.50196078431373, 0.50196078431373);
#193 = STYLED_ITEM('', (#186), #1);
#194 = MANIFOLD_SOLID_BREP('CUT', #195);
#195 = CLOSED_SHELL('', (#196, #213, #252));
#196 = ADVANCED_FACE('', (#197), #208, .T.);
#197 = FACE_OUTER_BOUND('', #198, .T.);
#198 = EDGE_LOOP('', (#199));
#199 = ORIENTED_EDGE('', *, *, #200, .F.);
#200 = EDGE_CURVE('', #201, #201, #203, .T.);
#201 = VERTEX_POINT('', #202);
#202 = CARTESIAN_POINT('', (-0.5, 2.0818995585505E-15, -33.5));
#203 = CIRCLE('', #204, 0.5);
#204 = AXIS2_PLACEMENT_3D('', #205, #206, #207);
#205 = CARTESIAN_POINT('', (7.28583859910259E-17, 1.81799020282369E-15, -33.5));
#206 = DIRECTION('', (0., 0., -1.));
#207 = DIRECTION('', (-1., 5.27818711453612E-16, 0.));
#208 = B_SPLINE_SURFACE_WITH_KNOTS('', 1, 1, ((#209, #210), (#211, #212)), .UNSPECIFIED., .F., .F., .U., (2, 2), (2, 2), (0.478492345185806, 0.491568988135749), (0.508431011864251, 0.521507654814194), .UNSPECIFIED.);
#209 = CARTESIAN_POINT('', (-0.5, 0.5, -33.5));
#210 = CARTESIAN_POINT('', (0.5, 0.5, -33.5));
#211 = CARTESIAN_POINT('', (-0.5, -0.5, -33.5));
#212 = CARTESIAN_POINT('', (0.5, -0.5, -33.5));
#213 = ADVANCED_FACE('', (#214), #233, .T.);
#214 = FACE_OUTER_BOUND('', #215, .T.);
#215 = EDGE_LOOP('', (#216, #217, #225, #232));
#216 = ORIENTED_EDGE('', *, *, #200, .T.);
#217 = ORIENTED_EDGE('', *, *, #218, .T.);
#218 = EDGE_CURVE('', #201, #219, #221, .T.);
#219 = VERTEX_POINT('', #220);
#220 = CARTESIAN_POINT('', (-0.5, 2.35744508835865E-15, -38.));
#221 = LINE('', #222, #223);
#222 = CARTESIAN_POINT('', (-0.5, 2.0818995585505E-15, -33.5));
#223 = VECTOR('', #224, 4.5);
#224 = DIRECTION('', (0., 2.7554552980815E-16, -4.5));
#225 = ORIENTED_EDGE('', *, *, #226, .F.);
#226 = EDGE_CURVE('', #219, #219, #227, .T.);
#227 = CIRCLE('', #228, 0.5);
#228 = AXIS2_PLACEMENT_3D('', #229, #230, #231);
#229 = CARTESIAN_POINT('', (5.20417042793042E-17, 1.87350135405495E-15, -38.));
#230 = DIRECTION('', (0., 0., -1.));
#231 = DIRECTION('', (-1., 9.67887468607397E-16, 0.));
#232 = ORIENTED_EDGE('', *, *, #218, .F.);
#233 = (
   BOUNDED_SURFACE ()
   B_SPLINE_SURFACE (2, 1, ((#234, #235), (#236, #237), (#238, #239), (#240, #241), (#242, #243), (#244, #245), (#246, #247), (#248, #249), (#250, #251)), .UNSPECIFIED., .T., .F., .U.)
   B_SPLINE_SURFACE_WITH_KNOTS ((3, 2, 2, 2, 3), (2, 2), (0., 0.785398163397448, 1.5707963267949, 2.35619449019234, 3.14159265358979), (0.4, 1.), .UNSPECIFIED.)
   GEOMETRIC_REPRESENTATION_ITEM ()
   RATIONAL_B_SPLINE_SURFACE (((1., 1.), (0.707106781186548, 0.707106781186548), (1., 1.), (0.707106781186548, 0.707106781186548), (1., 1.), (0.707106781186548, 0.707106781186548), (1., 1.), (0.707106781186548, 0.707106781186548), (1., 1.)))
   REPRESENTATION_ITEM ('')
   SURFACE ()
);
#234 = CARTESIAN_POINT('', (-0.5, 2.0818995585505E-15, -33.5));
#235 = CARTESIAN_POINT('', (-0.5, 2.13741070978176E-15, -38.));
#236 = CARTESIAN_POINT('', (-0.5, 0.500000000000002, -33.5));
#237 = CARTESIAN_POINT('', (-0.5, 0.500000000000002, -38.));
#238 = CARTESIAN_POINT('', (2.69722378743635E-16, 0.500000000000002, -33.5));
#239 = CARTESIAN_POINT('', (2.69722378743635E-16, 0.500000000000002, -38.));
#240 = CARTESIAN_POINT('', (0.5, 0.500000000000002, -33.5));
#241 = CARTESIAN_POINT('', (0.5, 0.500000000000002, -38.));
#242 = CARTESIAN_POINT('', (0.5, 1.61531318705426E-15, -33.5));
#243 = CARTESIAN_POINT('', (0.5, 1.67082433828551E-15, -38.));
#244 = CARTESIAN_POINT('', (0.5, -0.499999999999998, -33.5));
#245 = CARTESIAN_POINT('', (0.5, -0.499999999999998, -38.));
#246 = CARTESIAN_POINT('', (-1.35631652795242E-16, -0.499999999999998, -33.5));
#247 = CARTESIAN_POINT('', (-1.35631652795242E-16, -0.499999999999998, -38.));
#248 = CARTESIAN_POINT('', (-0.5, -0.499999999999998, -33.5));
#249 = CARTESIAN_POINT('', (-0.5, -0.499999999999998, -38.));
#250 = CARTESIAN_POINT('', (-0.5, 2.0818995585505E-15, -33.5));
#251 = CARTESIAN_POINT('', (-0.5, 2.13741070978176E-15, -38.));
#252 = ADVANCED_FACE('', (#253), #256, .T.);
#253 = FACE_OUTER_BOUND('', #254, .T.);
#254 = EDGE_LOOP('', (#255));
#255 = ORIENTED_EDGE('', *, *, #226, .T.);
#256 = B_SPLINE_SURFACE_WITH_KNOTS('', 1, 1, ((#257, #258), (#259, #260)), .UNSPECIFIED., .F., .F., .U., (2, 2), (2, 2), (0.0454545454545455, 0.954545454545454), (0.0454545454545454, 0.954545454545454), .UNSPECIFIED.);
#257 = CARTESIAN_POINT('', (0.5, -0.499999999999998, -38.));
#258 = CARTESIAN_POINT('', (0.5, 0.500000000000002, -38.));
#259 = CARTESIAN_POINT('', (-0.5, -0.499999999999998, -38.));
#260 = CARTESIAN_POINT('', (-0.5, 0.500000000000002, -38.));
#261 = PRESENTATION_STYLE_ASSIGNMENT((#262));
#262 = SURFACE_STYLE_USAGE(.POSITIVE., #263);
#263 = SURFACE_SIDE_STYLE('', (#264));
#264 = SURFACE_STYLE_FILL_AREA(#265);
#265 = FILL_AREA_STYLE('', (#266));
#266 = FILL_AREA_STYLE_COLOUR('', #267);
#267 = COLOUR_RGB('', 0.8, 0.8, 0.8);
#268 = STYLED_ITEM('', (#261), #194);
#269 = TRIMMED_CURVE('cutting part line', #270, (#274), (#275), .T., .CARTESIAN.);
#270 = LINE('', #271, #272);
#271 = CARTESIAN_POINT('', (0.50003808201097, 0., -33.5));
#272 = VECTOR('', #273, 0.50003808201097);
#273 = DIRECTION('', (-0.50003808201097, 0., 0.));
#274 = CARTESIAN_POINT('', (0.50003808201097, 0., -33.5));
#275 = CARTESIAN_POINT('', (0., 0., -33.5));
#276 = TRIMMED_CURVE('cutting part line', #277, (#281), (#282), .T., .CARTESIAN.);
#277 = LINE('', #278, #279);
#278 = CARTESIAN_POINT('', (0., 0., -33.5));
#279 = VECTOR('', #280, 4.50000000000001);
#280 = DIRECTION('', (0., 0., -4.50000000000001));
#281 = CARTESIAN_POINT('', (0., 0., -33.5));
#282 = CARTESIAN_POINT('', (0., 0., -38.));
#283 = TRIMMED_CURVE('cutting part line', #284, (#288), (#289), .T., .CARTESIAN.);
#284 = LINE('', #285, #286);
#285 = CARTESIAN_POINT('', (6.24500451351651E-17, 0., -38.));
#286 = VECTOR('', #287, 0.500038082010977);
#287 = DIRECTION('', (0.500038082010977, 2.77513483070255E-17, 0.));
#288 = CARTESIAN_POINT('', (6.24500451351651E-17, 0., -38.));
#289 = CARTESIAN_POINT('', (0.500038082010977, 2.77513483070255E-17, -38.));
#290 = TRIMMED_CURVE('cutting part line', #291, (#295), (#296), .T., .CARTESIAN.);
#291 = LINE('', #292, #293);
#292 = CARTESIAN_POINT('', (0.500038082010977, 2.77513483070255E-17, -38.));
#293 = VECTOR('', #294, 4.5);
#294 = DIRECTION('', (-6.66133814775094E-15, -2.77513483070255E-17, 4.5));
#295 = CARTESIAN_POINT('', (0.500038082010977, 2.77513483070255E-17, -38.));
#296 = CARTESIAN_POINT('', (0.50003808201097, 0., -33.5));
#297 = COMPOSITE_CURVE('cutting part line', (#298, #299, #300, #301), .U.);
#298 = COMPOSITE_CURVE_SEGMENT(.CONTINUOUS., .T., #269);
#299 = COMPOSITE_CURVE_SEGMENT(.CONTINUOUS., .T., #276);
#300 = COMPOSITE_CURVE_SEGMENT(.CONTINUOUS., .T., #283);
#301 = COMPOSITE_CURVE_SEGMENT(.CONTINUOUS., .T., #290);
#302 = GEOMETRIC_SET('', (#297, #340));
#303 = PRESENTATION_STYLE_ASSIGNMENT((#304));
#304 = CURVE_STYLE('', #306, POSITIVE_LENGTH_MEASURE(1.E-6), #305);
#305 = COLOUR_RGB('', 0., 0., 1.);
#306 = DRAUGHTING_PRE_DEFINED_CURVE_FONT('continuous');
#307 = STYLED_ITEM('', (#303), #297);
#308 = PRESENTATION_STYLE_ASSIGNMENT((#309));
#309 = CURVE_STYLE('', #311, POSITIVE_LENGTH_MEASURE(1.E-6), #310);
#310 = COLOUR_RGB('', 0., 0., 1.);
#311 = DRAUGHTING_PRE_DEFINED_CURVE_FONT('continuous');
#312 = OVER_RIDING_STYLED_ITEM('', (#308), #269, #307);
#313 = PRESENTATION_STYLE_ASSIGNMENT((#314));
#314 = CURVE_STYLE('', #316, POSITIVE_LENGTH_MEASURE(1.E-6), #315);
#315 = COLOUR_RGB('', 0., 0., 1.);
#316 = DRAUGHTING_PRE_DEFINED_CURVE_FONT('continuous');
#317 = OVER_RIDING_STYLED_ITEM('', (#313), #276, #307);
#318 = PRESENTATION_STYLE_ASSIGNMENT((#319));
#319 = CURVE_STYLE('', #321, POSITIVE_LENGTH_MEASURE(1.E-6), #320);
#320 = COLOUR_RGB('', 0., 0., 1.);
#321 = DRAUGHTING_PRE_DEFINED_CURVE_FONT('continuous');
#322 = OVER_RIDING_STYLED_ITEM('', (#318), #283, #307);
#323 = PRESENTATION_STYLE_ASSIGNMENT((#324));
#324 = CURVE_STYLE('', #326, POSITIVE_LENGTH_MEASURE(1.E-6), #325);
#325 = COLOUR_RGB('', 0., 0., 1.);
#326 = DRAUGHTING_PRE_DEFINED_CURVE_FONT('continuous');
#327 = OVER_RIDING_STYLED_ITEM('', (#323), #290, #307);
#328 = AXIS2_PLACEMENT_3D('MCS', #329, #330, #331);
#329 = CARTESIAN_POINT('', (0., 0., -28.));
#330 = DIRECTION('', (0., 0., 1.));
#331 = DIRECTION('', (1., 0., 0.));
#332 = AXIS2_PLACEMENT_3D('PCS', #333, #334, #335);
#333 = CARTESIAN_POINT('', (0., 0., 0.));
#334 = DIRECTION('', (0., 0., 1.));
#335 = DIRECTION('', (1., 0., 0.));
#336 = AXIS2_PLACEMENT_3D('CIP', #337, #338, #339);
#337 = CARTESIAN_POINT('', (0., 0., -38.));
#338 = DIRECTION('', (0., 0., 1.));
#339 = DIRECTION('', (1., 0., 0.));
#340 = CARTESIAN_POINT('CRP', (0.500038082010977, 0., -38.));
#341 = (
   GEOMETRIC_REPRESENTATION_CONTEXT (3)
   GLOBAL_UNCERTAINTY_ASSIGNED_CONTEXT ((#343))
   GLOBAL_UNIT_ASSIGNED_CONTEXT ((#342, #344, #345))
   REPRESENTATION_CONTEXT ('', '3D')
);
#342 = (
   LENGTH_UNIT ()
   NAMED_UNIT (*)
   SI_UNIT (.MILLI., .METRE.)
);
#343 = UNCERTAINTY_MEASURE_WITH_UNIT(LENGTH_MEASURE(1.E-6), #342, 'DISTANCE_ACCURACY_VALUE', '');
#344 = (
   NAMED_UNIT (*)
   SI_UNIT ($, .STERADIAN.)
   SOLID_ANGLE_UNIT ()
);
#345 = (
   NAMED_UNIT (*)
   PLANE_ANGLE_UNIT ()
   SI_UNIT ($, .RADIAN.)
);
#346 = SHAPE_REPRESENTATION('', (), #341);
#347 = PRODUCT_DEFINITION_SHAPE('', '', #348);
#348 = PRODUCT_DEFINITION('', '', #351, #355);
#349 = APPLICATION_CONTEXT('configuration controlled 3D designs of mechanical parts and assemblies');
#350 = APPLICATION_PROTOCOL_DEFINITION('International Standard', 'automotive_design', 2002, #349);
#351 = PRODUCT_DEFINITION_FORMATION_WITH_SPECIFIED_SOURCE('', '', #352, .NOT_KNOWN.);
#352 = PRODUCT('product-name', '1P231-0100-XA       1630', '', (#353));
#353 = PRODUCT_CONTEXT('', #349, 'mechanical');
#354 = PRODUCT_RELATED_PRODUCT_CATEGORY('detail', '', (#352));
#355 = PRODUCT_DEFINITION_CONTEXT('part definition', #349, 'design');
#356 = SHAPE_DEFINITION_REPRESENTATION(#347, #346);
#357 = CONSTRUCTIVE_GEOMETRY_REPRESENTATION('supplemental geometry', (#328, #332, #336), #341);
#358 = CONSTRUCTIVE_GEOMETRY_REPRESENTATION_RELATIONSHIP('', '', #346, #357);
#359 = SHAPE_REPRESENTATION_RELATIONSHIP('', '', #346, #360);
#360 = SHAPE_REPRESENTATION('', (#302), #341);
#361 = SHAPE_REPRESENTATION_RELATIONSHIP('', '', #346, #362);
#362 = ADVANCED_BREP_SHAPE_REPRESENTATION('', (#1, #194), #341);
ENDSEC;
END-ISO-10303-21;
