ISO-10303-21;
HEADER;
FILE_DESCRIPTION(('STEP'), '1');
FILE_NAME('C:\\Users\\ds2002\\OneDrive - Sandvik\\HomeShare\\Documents\\Batchrepair\\CorSRT2\\NEW_MILPR_SLDQC\\Output28.11\\MOD000000000000000020082281300000.stp', '2018-11-28T15:14:32', (''), (''), 'Express v3.0.0.0', 'Express Tool', 'Unknown');
FILE_SCHEMA(('AUTOMOTIVE_DESIGN'));
ENDSEC;

DATA;
#1 = MANIFOLD_SOLID_BREP('NOCUT', #2);
#2 = CLOSED_SHELL('', (#3, #20, #59));
#3 = ADVANCED_FACE('', (#4), #15, .T.);
#4 = FACE_OUTER_BOUND('', #5, .T.);
#5 = EDGE_LOOP('', (#6));
#6 = ORIENTED_EDGE('', *, *, #7, .F.);
#7 = EDGE_CURVE('', #8, #8, #10, .T.);
#8 = VERTEX_POINT('', #9);
#9 = CARTESIAN_POINT('', (-7.9375, 0., 0.));
#10 = CIRCLE('', #11, 7.9375);
#11 = AXIS2_PLACEMENT_3D('', #12, #13, #14);
#12 = CARTESIAN_POINT('', (5.55111512312578E-16, 6.66133814775094E-16, 0.));
#13 = DIRECTION('', (0., 0., -1.));
#14 = DIRECTION('', (-1., -8.39223703653662E-17, 0.));
#15 = B_SPLINE_SURFACE_WITH_KNOTS('', 1, 1, ((#16, #17), (#18, #19)), .UNSPECIFIED., .F., .F., .U., (2, 2), (2, 2), (-7.9385, 7.9385), (-7.93850000000001, 7.9385), .UNSPECIFIED.);
#16 = CARTESIAN_POINT('', (-7.9385, -7.9385, 0.));
#17 = CARTESIAN_POINT('', (-7.9385, 7.9385, 0.));
#18 = CARTESIAN_POINT('', (7.9385, -7.9385, 0.));
#19 = CARTESIAN_POINT('', (7.9385, 7.9385, 0.));
#20 = ADVANCED_FACE('', (#21), #40, .T.);
#21 = FACE_OUTER_BOUND('', #22, .T.);
#22 = EDGE_LOOP('', (#23, #31, #32, #33));
#23 = ORIENTED_EDGE('', *, *, #24, .T.);
#24 = EDGE_CURVE('', #25, #8, #27, .T.);
#25 = VERTEX_POINT('', #26);
#26 = CARTESIAN_POINT('', (-7.9375, 0., -84.137));
#27 = LINE('', #28, #29);
#28 = CARTESIAN_POINT('', (-7.9375, 0., -84.137));
#29 = VECTOR('', #30, 84.137);
#30 = DIRECTION('', (0., 0., 84.137));
#31 = ORIENTED_EDGE('', *, *, #7, .T.);
#32 = ORIENTED_EDGE('', *, *, #24, .F.);
#33 = ORIENTED_EDGE('', *, *, #34, .F.);
#34 = EDGE_CURVE('', #25, #25, #35, .T.);
#35 = CIRCLE('', #36, 7.9375);
#36 = AXIS2_PLACEMENT_3D('', #37, #38, #39);
#37 = CARTESIAN_POINT('', (5.55111512312578E-16, 6.66133814775094E-16, -84.137));
#38 = DIRECTION('', (-5.11381209089303E-31, 6.0935029225574E-15, -1.));
#39 = DIRECTION('', (-1., -8.39223703653662E-17, 0.));
#40 = (
   BOUNDED_SURFACE ()
   B_SPLINE_SURFACE (2, 1, ((#41, #42), (#43, #44), (#45, #46), (#47, #48), (#49, #50), (#51, #52), (#53, #54), (#55, #56), (#57, #58)), .UNSPECIFIED., .T., .F., .U.)
   B_SPLINE_SURFACE_WITH_KNOTS ((3, 2, 2, 2, 3), (2, 2), (0., 0.25, 0.5, 0.75, 1.), (0., 1.), .UNSPECIFIED.)
   GEOMETRIC_REPRESENTATION_ITEM ()
   RATIONAL_B_SPLINE_SURFACE (((1., 1.), (0.707106781186548, 0.707106781186548), (1., 1.), (0.707106781186548, 0.707106781186548), (1., 1.), (0.707106781186548, 0.707106781186548), (1., 1.), (0.707106781186548, 0.707106781186548), (1., 1.)))
   REPRESENTATION_ITEM ('')
   SURFACE ()
);
#41 = CARTESIAN_POINT('', (-7.9375, 0., 8.4149));
#42 = CARTESIAN_POINT('', (-7.9375, 0., -92.5519));
#43 = CARTESIAN_POINT('', (-7.9375, 7.9375, 8.4149));
#44 = CARTESIAN_POINT('', (-7.9375, 7.9375, -92.5519));
#45 = CARTESIAN_POINT('', (-4.30520547180348E-16, 7.9375, 8.4149));
#46 = CARTESIAN_POINT('', (-4.30520547180348E-16, 7.9375, -92.5519));
#47 = CARTESIAN_POINT('', (7.9375, 7.9375, 8.4149));
#48 = CARTESIAN_POINT('', (7.9375, 7.9375, -92.5519));
#49 = CARTESIAN_POINT('', (7.9375, 1.86024181652334E-15, 8.4149));
#50 = CARTESIAN_POINT('', (7.9375, 1.86024181652334E-15, -92.5519));
#51 = CARTESIAN_POINT('', (7.9375, -7.9375, 8.4149));
#52 = CARTESIAN_POINT('', (7.9375, -7.9375, -92.5519));
#53 = CARTESIAN_POINT('', (2.4017846661662E-15, -7.9375, 8.4149));
#54 = CARTESIAN_POINT('', (2.4017846661662E-15, -7.9375, -92.5519));
#55 = CARTESIAN_POINT('', (-7.9375, -7.9375, 8.4149));
#56 = CARTESIAN_POINT('', (-7.9375, -7.9375, -92.5519));
#57 = CARTESIAN_POINT('', (-7.9375, 0., 8.4149));
#58 = CARTESIAN_POINT('', (-7.9375, 0., -92.5519));
#59 = ADVANCED_FACE('', (#60), #63, .T.);
#60 = FACE_OUTER_BOUND('', #61, .T.);
#61 = EDGE_LOOP('', (#62));
#62 = ORIENTED_EDGE('', *, *, #34, .T.);
#63 = B_SPLINE_SURFACE_WITH_KNOTS('', 1, 1, ((#64, #65), (#66, #67)), .UNSPECIFIED., .F., .F., .U., (2, 2), (2, 2), (-7.9385, 7.9385), (-15.876, 0.00100000000000033), .UNSPECIFIED.);
#64 = CARTESIAN_POINT('', (7.9385, -7.9385, -84.137));
#65 = CARTESIAN_POINT('', (7.9385, 7.9385, -84.137));
#66 = CARTESIAN_POINT('', (-7.9385, -7.9385, -84.137));
#67 = CARTESIAN_POINT('', (-7.9385, 7.9385, -84.137));
#68 = DRAUGHTING_MODEL('', (#76, #215, #255, #260, #265, #270, #275), #289);
#69 = PRESENTATION_STYLE_ASSIGNMENT((#70));
#70 = SURFACE_STYLE_USAGE(.POSITIVE., #71);
#71 = SURFACE_SIDE_STYLE('', (#72));
#72 = SURFACE_STYLE_FILL_AREA(#73);
#73 = FILL_AREA_STYLE('', (#74));
#74 = FILL_AREA_STYLE_COLOUR('', #75);
#75 = COLOUR_RGB('', 0.50196078431373, 0.50196078431373, 0.50196078431373);
#76 = STYLED_ITEM('', (#69), #1);
#77 = MANIFOLD_SOLID_BREP('CUT', #78);
#78 = CLOSED_SHELL('', (#79, #96, #199));
#79 = ADVANCED_FACE('', (#80), #91, .T.);
#80 = FACE_OUTER_BOUND('', #81, .T.);
#81 = EDGE_LOOP('', (#82));
#82 = ORIENTED_EDGE('', *, *, #83, .F.);
#83 = EDGE_CURVE('', #84, #84, #86, .T.);
#84 = VERTEX_POINT('', #85);
#85 = CARTESIAN_POINT('', (-7.908, 0., -84.137));
#86 = CIRCLE('', #87, 7.908);
#87 = AXIS2_PLACEMENT_3D('', #88, #89, #90);
#88 = CARTESIAN_POINT('', (-4.71844785465692E-16, 0., -84.137));
#89 = DIRECTION('', (0., 6.11623412339394E-15, -1.));
#90 = DIRECTION('', (-1., 0., 0.));
#91 = B_SPLINE_SURFACE_WITH_KNOTS('', 1, 1, ((#92, #93), (#94, #95)), .UNSPECIFIED., .F., .F., .U., (2, 2), (2, 2), (-7.909, 7.909), (-7.90900000000001, 7.909), .UNSPECIFIED.);
#92 = CARTESIAN_POINT('', (-7.909, -7.909, -84.137));
#93 = CARTESIAN_POINT('', (-7.909, 7.909, -84.137));
#94 = CARTESIAN_POINT('', (7.909, -7.909, -84.137));
#95 = CARTESIAN_POINT('', (7.909, 7.909, -84.137));
#96 = ADVANCED_FACE('', (#97), #117, .T.);
#97 = FACE_OUTER_BOUND('', #98, .T.);
#98 = EDGE_LOOP('', (#99, #108, #115, #116));
#99 = ORIENTED_EDGE('', *, *, #100, .T.);
#100 = EDGE_CURVE('', #84, #101, #103, .T.);
#101 = VERTEX_POINT('', #102);
#102 = CARTESIAN_POINT('', (-3.14499999999999, 0., -88.9));
#103 = CIRCLE('', #104, 4.76299999999998);
#104 = AXIS2_PLACEMENT_3D('', #105, #106, #107);
#105 = CARTESIAN_POINT('', (-7.90799999999998, 0., -88.9));
#106 = DIRECTION('', (0., 1., 0.));
#107 = DIRECTION('', (-4.84833905358037E-15, 0., 1.));
#108 = ORIENTED_EDGE('', *, *, #109, .F.);
#109 = EDGE_CURVE('', #101, #101, #110, .T.);
#110 = CIRCLE('', #111, 3.14499999999999);
#111 = AXIS2_PLACEMENT_3D('', #112, #113, #114);
#112 = CARTESIAN_POINT('', (0., 2.16493489801906E-15, -88.9));
#113 = DIRECTION('', (0., 0., -1.));
#114 = DIRECTION('', (-1., -6.88373576476649E-16, 0.));
#115 = ORIENTED_EDGE('', *, *, #100, .F.);
#116 = ORIENTED_EDGE('', *, *, #83, .T.);
#117 = (
   BOUNDED_SURFACE ()
   B_SPLINE_SURFACE (2, 2, ((#118, #119, #120, #121, #122, #123, #124, #125, #126), (#127, #128, #129, #130, #131, #132, #133, #134, #135), (#136, #137, #138, #139, #140, #141, #142, #143, #144), (#145, #146, #147, #148, #149, #150, #151, #152, #153), (#154, #155, #156, #157, #158, #159, #160, #161, #162), (#163, #164, #165, #166, #167, #168, #169, #170, #171), (#172, #173, #174, #175, #176, #177, #178, #179, #180), (#181, #182, #183, #184, #185, #186, #187, #188, #189), (#190, #191, #192, #193, #194, #195, #196, #197, #198)), .UNSPECIFIED., .T., .T., .U.)
   B_SPLINE_SURFACE_WITH_KNOTS ((3, 2, 2, 2, 3), (3, 2, 2, 2, 3), (0., 0.25, 0.5, 0.75, 1.), (0., 0.25, 0.5, 0.75, 1.), .UNSPECIFIED.)
   GEOMETRIC_REPRESENTATION_ITEM ()
   RATIONAL_B_SPLINE_SURFACE (((1., 0.707106781186548, 1., 0.707106781186548, 1., 0.707106781186548, 1., 0.707106781186548, 1.), (0.707106781186548, 0.5, 0.707106781186548, 0.5, 0.707106781186548, 0.5, 0.707106781186548, 0.5, 0.707106781186548), (1., 0.707106781186548, 1., 0.707106781186548, 1., 0.707106781186548, 1., 0.707106781186548, 1.), (0.707106781186548, 0.5, 0.707106781186548, 0.5, 0.707106781186548, 0.5, 0.707106781186548, 0.5, 0.707106781186548), (1., 0.707106781186548, 1., 0.707106781186548, 1., 0.707106781186548, 1., 0.707106781186548, 1.), (0.707106781186548, 0.5, 0.707106781186548, 0.5, 0.707106781186548, 0.5, 0.707106781186548, 0.5, 0.707106781186548), (1., 0.707106781186548, 1., 0.707106781186548, 1., 0.707106781186548, 1., 0.707106781186548, 1.), (0.707106781186548, 0.5, 0.707106781186548, 0.5, 0.707106781186548, 0.5, 0.707106781186548, 0.5, 0.707106781186548), (1., 0.707106781186548, 1., 0.707106781186548, 1., 0.707106781186548, 1., 0.707106781186548, 1.)))
   REPRESENTATION_ITEM ('')
   SURFACE ()
);
#118 = CARTESIAN_POINT('', (-12.671, 0., -88.9));
#119 = CARTESIAN_POINT('', (-12.671, 0., -93.663));
#120 = CARTESIAN_POINT('', (-7.908, 0., -93.663));
#121 = CARTESIAN_POINT('', (-3.14499999999999, 0., -93.663));
#122 = CARTESIAN_POINT('', (-3.14499999999999, 0., -88.9));
#123 = CARTESIAN_POINT('', (-3.14499999999999, 0., -84.137));
#124 = CARTESIAN_POINT('', (-7.908, 0., -84.137));
#125 = CARTESIAN_POINT('', (-12.671, 0., -84.137));
#126 = CARTESIAN_POINT('', (-12.671, 0., -88.9));
#127 = CARTESIAN_POINT('', (-12.671, -12.671, -88.9));
#128 = CARTESIAN_POINT('', (-12.671, -12.671, -93.663));
#129 = CARTESIAN_POINT('', (-7.908, -7.908, -93.663));
#130 = CARTESIAN_POINT('', (-3.145, -3.14499999999999, -93.663));
#131 = CARTESIAN_POINT('', (-3.145, -3.14499999999999, -88.9));
#132 = CARTESIAN_POINT('', (-3.14499999999999, -3.14499999999999, -84.137));
#133 = CARTESIAN_POINT('', (-7.908, -7.908, -84.137));
#134 = CARTESIAN_POINT('', (-12.671, -12.671, -84.137));
#135 = CARTESIAN_POINT('', (-12.671, -12.671, -88.9));
#136 = CARTESIAN_POINT('', (-5.32778938056295E-15, -12.671, -88.9));
#137 = CARTESIAN_POINT('', (-5.32778938056295E-15, -12.671, -93.663));
#138 = CARTESIAN_POINT('', (-5.03613974534601E-15, -7.908, -93.663));
#139 = CARTESIAN_POINT('', (-4.74449011012906E-15, -3.145, -93.663));
#140 = CARTESIAN_POINT('', (-4.74449011012906E-15, -3.145, -88.9));
#141 = CARTESIAN_POINT('', (-4.74449011012906E-15, -3.14499999999999, -84.137));
#142 = CARTESIAN_POINT('', (-5.03613974534601E-15, -7.908, -84.137));
#143 = CARTESIAN_POINT('', (-5.32778938056295E-15, -12.671, -84.137));
#144 = CARTESIAN_POINT('', (-5.32778938056295E-15, -12.671, -88.9));
#145 = CARTESIAN_POINT('', (12.671, -12.671, -88.9));
#146 = CARTESIAN_POINT('', (12.671, -12.671, -93.663));
#147 = CARTESIAN_POINT('', (7.90799999999999, -7.90800000000001, -93.663));
#148 = CARTESIAN_POINT('', (3.14499999999999, -3.145, -93.663));
#149 = CARTESIAN_POINT('', (3.14499999999999, -3.145, -88.9));
#150 = CARTESIAN_POINT('', (3.14499999999998, -3.145, -84.137));
#151 = CARTESIAN_POINT('', (7.90799999999999, -7.90800000000001, -84.137));
#152 = CARTESIAN_POINT('', (12.671, -12.671, -84.137));
#153 = CARTESIAN_POINT('', (12.671, -12.671, -88.9));
#154 = CARTESIAN_POINT('', (12.671, -1.04335341562009E-14, -88.9));
#155 = CARTESIAN_POINT('', (12.671, -1.04335341562009E-14, -93.663));
#156 = CARTESIAN_POINT('', (7.908, -9.85023488576698E-15, -93.663));
#157 = CARTESIAN_POINT('', (3.14499999999999, -9.26693561533309E-15, -93.663));
#158 = CARTESIAN_POINT('', (3.14499999999999, -9.26693561533309E-15, -88.9));
#159 = CARTESIAN_POINT('', (3.14499999999999, -9.26693561533309E-15, -84.137));
#160 = CARTESIAN_POINT('', (7.908, -9.85023488576698E-15, -84.137));
#161 = CARTESIAN_POINT('', (12.671, -1.04335341562009E-14, -84.137));
#162 = CARTESIAN_POINT('', (12.671, -1.04335341562009E-14, -88.9));
#163 = CARTESIAN_POINT('', (12.671, 12.671, -88.9));
#164 = CARTESIAN_POINT('', (12.671, 12.671, -93.663));
#165 = CARTESIAN_POINT('', (7.90800000000001, 7.90799999999999, -93.663));
#166 = CARTESIAN_POINT('', (3.145, 3.14499999999998, -93.663));
#167 = CARTESIAN_POINT('', (3.145, 3.14499999999998, -88.9));
#168 = CARTESIAN_POINT('', (3.14499999999999, 3.14499999999998, -84.137));
#169 = CARTESIAN_POINT('', (7.908, 7.90799999999999, -84.137));
#170 = CARTESIAN_POINT('', (12.671, 12.671, -84.137));
#171 = CARTESIAN_POINT('', (12.671, 12.671, -88.9));
#172 = CARTESIAN_POINT('', (6.65749473483753E-15, 12.671, -88.9));
#173 = CARTESIAN_POINT('', (6.65749473483753E-15, 12.671, -93.663));
#174 = CARTESIAN_POINT('', (5.7825458291867E-15, 7.908, -93.663));
#175 = CARTESIAN_POINT('', (4.90759692353587E-15, 3.14499999999999, -93.663));
#176 = CARTESIAN_POINT('', (4.90759692353587E-15, 3.14499999999999, -88.9));
#177 = CARTESIAN_POINT('', (4.90759692353587E-15, 3.14499999999998, -84.137));
#178 = CARTESIAN_POINT('', (5.7825458291867E-15, 7.908, -84.137));
#179 = CARTESIAN_POINT('', (6.65749473483753E-15, 12.671, -84.137));
#180 = CARTESIAN_POINT('', (6.65749473483753E-15, 12.671, -88.9));
#181 = CARTESIAN_POINT('', (-12.671, 12.671, -88.9));
#182 = CARTESIAN_POINT('', (-12.671, 12.671, -93.663));
#183 = CARTESIAN_POINT('', (-7.90799999999999, 7.908, -93.663));
#184 = CARTESIAN_POINT('', (-3.14499999999999, 3.14499999999999, -93.663));
#185 = CARTESIAN_POINT('', (-3.14499999999999, 3.14499999999999, -88.9));
#186 = CARTESIAN_POINT('', (-3.14499999999998, 3.14499999999999, -84.137));
#187 = CARTESIAN_POINT('', (-7.90799999999999, 7.908, -84.137));
#188 = CARTESIAN_POINT('', (-12.671, 12.671, -84.137));
#189 = CARTESIAN_POINT('', (-12.671, 12.671, -88.9));
#190 = CARTESIAN_POINT('', (-12.671, 0., -88.9));
#191 = CARTESIAN_POINT('', (-12.671, 0., -93.663));
#192 = CARTESIAN_POINT('', (-7.908, 0., -93.663));
#193 = CARTESIAN_POINT('', (-3.14499999999999, 0., -93.663));
#194 = CARTESIAN_POINT('', (-3.14499999999999, 0., -88.9));
#195 = CARTESIAN_POINT('', (-3.14499999999999, 0., -84.137));
#196 = CARTESIAN_POINT('', (-7.908, 0., -84.137));
#197 = CARTESIAN_POINT('', (-12.671, 0., -84.137));
#198 = CARTESIAN_POINT('', (-12.671, 0., -88.9));
#199 = ADVANCED_FACE('', (#200), #203, .T.);
#200 = FACE_OUTER_BOUND('', #201, .T.);
#201 = EDGE_LOOP('', (#202));
#202 = ORIENTED_EDGE('', *, *, #109, .T.);
#203 = B_SPLINE_SURFACE_WITH_KNOTS('', 1, 1, ((#204, #205), (#206, #207)), .UNSPECIFIED., .F., .F., .U., (2, 2), (2, 2), (-3.14599999999999, 3.14599999999999), (-6.29099999999999, 0.000999999999989676), .UNSPECIFIED.);
#204 = CARTESIAN_POINT('', (3.14599999999999, -3.14599999999999, -88.9));
#205 = CARTESIAN_POINT('', (3.14599999999999, 3.14599999999999, -88.9));
#206 = CARTESIAN_POINT('', (-3.14599999999999, -3.14599999999999, -88.9));
#207 = CARTESIAN_POINT('', (-3.14599999999999, 3.14599999999999, -88.9));
#208 = PRESENTATION_STYLE_ASSIGNMENT((#209));
#209 = SURFACE_STYLE_USAGE(.POSITIVE., #210);
#210 = SURFACE_SIDE_STYLE('', (#211));
#211 = SURFACE_STYLE_FILL_AREA(#212);
#212 = FILL_AREA_STYLE('', (#213));
#213 = FILL_AREA_STYLE_COLOUR('', #214);
#214 = COLOUR_RGB('', 0.8, 0.8, 0.8);
#215 = STYLED_ITEM('', (#208), #77);
#216 = TRIMMED_CURVE('cutting part line', #217, (#221), (#222), .T., .CARTESIAN.);
#217 = LINE('', #218, #219);
#218 = CARTESIAN_POINT('', (7.908, 0., -84.137));
#219 = VECTOR('', #220, 7.908);
#220 = DIRECTION('', (-7.908, 0., 0.));
#221 = CARTESIAN_POINT('', (7.908, 0., -84.137));
#222 = CARTESIAN_POINT('', (2.77555756156289E-17, 0., -84.137));
#223 = TRIMMED_CURVE('cutting part line', #224, (#228), (#229), .T., .CARTESIAN.);
#224 = LINE('', #225, #226);
#225 = CARTESIAN_POINT('', (0., 0., -84.137));
#226 = VECTOR('', #227, 4.76300000000003);
#227 = DIRECTION('', (0., 0., -4.76300000000003));
#228 = CARTESIAN_POINT('', (0., 0., -84.137));
#229 = CARTESIAN_POINT('', (0., 0., -88.9));
#230 = TRIMMED_CURVE('cutting part line', #231, (#235), (#236), .T., .CARTESIAN.);
#231 = LINE('', #232, #233);
#232 = CARTESIAN_POINT('', (-1.94289029309402E-16, 0., -88.9));
#233 = VECTOR('', #234, 3.14499999999999);
#234 = DIRECTION('', (3.14499999999999, 0., -1.4210854715202E-14));
#235 = CARTESIAN_POINT('', (-1.94289029309402E-16, 0., -88.9));
#236 = CARTESIAN_POINT('', (3.14499999999999, 0., -88.9));
#237 = TRIMMED_CURVE('cutting part line', #238, (#243), (#244), .T., .CARTESIAN.);
#238 = CIRCLE('', #239, 4.76300000000001);
#239 = AXIS2_PLACEMENT_3D('', #240, #241, #242);
#240 = CARTESIAN_POINT('', (7.908, -8.30711723994658E-15, -88.9));
#241 = DIRECTION('', (-7.42984650638829E-17, 1., -1.45683264831065E-18));
#242 = DIRECTION('', (-1., -7.42984650638829E-17, 0.));
#243 = CARTESIAN_POINT('', (3.14499999999999, -8.66100082904585E-15, -88.9));
#244 = CARTESIAN_POINT('', (7.908, -8.30017834604268E-15, -84.137));
#245 = COMPOSITE_CURVE('cutting part line', (#246, #247, #248, #249), .U.);
#246 = COMPOSITE_CURVE_SEGMENT(.CONTINUOUS., .T., #216);
#247 = COMPOSITE_CURVE_SEGMENT(.CONTINUOUS., .T., #223);
#248 = COMPOSITE_CURVE_SEGMENT(.CONTINUOUS., .T., #230);
#249 = COMPOSITE_CURVE_SEGMENT(.CONTINUOUS., .T., #237);
#250 = GEOMETRIC_SET('', (#245, #288));
#251 = PRESENTATION_STYLE_ASSIGNMENT((#252));
#252 = CURVE_STYLE('', #254, POSITIVE_LENGTH_MEASURE(1.E-6), #253);
#253 = COLOUR_RGB('', 0., 0., 1.);
#254 = DRAUGHTING_PRE_DEFINED_CURVE_FONT('continuous');
#255 = STYLED_ITEM('', (#251), #245);
#256 = PRESENTATION_STYLE_ASSIGNMENT((#257));
#257 = CURVE_STYLE('', #259, POSITIVE_LENGTH_MEASURE(1.E-6), #258);
#258 = COLOUR_RGB('', 0., 0., 1.);
#259 = DRAUGHTING_PRE_DEFINED_CURVE_FONT('continuous');
#260 = OVER_RIDING_STYLED_ITEM('', (#256), #216, #255);
#261 = PRESENTATION_STYLE_ASSIGNMENT((#262));
#262 = CURVE_STYLE('', #264, POSITIVE_LENGTH_MEASURE(1.E-6), #263);
#263 = COLOUR_RGB('', 0., 0., 1.);
#264 = DRAUGHTING_PRE_DEFINED_CURVE_FONT('continuous');
#265 = OVER_RIDING_STYLED_ITEM('', (#261), #223, #255);
#266 = PRESENTATION_STYLE_ASSIGNMENT((#267));
#267 = CURVE_STYLE('', #269, POSITIVE_LENGTH_MEASURE(1.E-6), #268);
#268 = COLOUR_RGB('', 0., 0., 1.);
#269 = DRAUGHTING_PRE_DEFINED_CURVE_FONT('continuous');
#270 = OVER_RIDING_STYLED_ITEM('', (#266), #230, #255);
#271 = PRESENTATION_STYLE_ASSIGNMENT((#272));
#272 = CURVE_STYLE('', #274, POSITIVE_LENGTH_MEASURE(1.E-6), #273);
#273 = COLOUR_RGB('', 0., 0., 1.);
#274 = DRAUGHTING_PRE_DEFINED_CURVE_FONT('continuous');
#275 = OVER_RIDING_STYLED_ITEM('', (#271), #237, #255);
#276 = AXIS2_PLACEMENT_3D('MCS', #277, #278, #279);
#277 = CARTESIAN_POINT('', (0., 0., -48.4));
#278 = DIRECTION('', (0., 0., 1.));
#279 = DIRECTION('', (1., 0., 0.));
#280 = AXIS2_PLACEMENT_3D('PCS', #281, #282, #283);
#281 = CARTESIAN_POINT('', (0., 0., 0.));
#282 = DIRECTION('', (0., 0., 1.));
#283 = DIRECTION('', (1., 0., 0.));
#284 = AXIS2_PLACEMENT_3D('CIP', #285, #286, #287);
#285 = CARTESIAN_POINT('', (0., 0., -88.9));
#286 = DIRECTION('', (0., 0., 1.));
#287 = DIRECTION('', (1., 0., 0.));
#288 = CARTESIAN_POINT('CRP', (3.145, 0., -88.8999999999996));
#289 = (
   GEOMETRIC_REPRESENTATION_CONTEXT (3)
   GLOBAL_UNCERTAINTY_ASSIGNED_CONTEXT ((#291))
   GLOBAL_UNIT_ASSIGNED_CONTEXT ((#290, #292, #293))
   REPRESENTATION_CONTEXT ('', '3D')
);
#290 = (
   LENGTH_UNIT ()
   NAMED_UNIT (*)
   SI_UNIT (.MILLI., .METRE.)
);
#291 = UNCERTAINTY_MEASURE_WITH_UNIT(LENGTH_MEASURE(1.E-6), #290, 'DISTANCE_ACCURACY_VALUE', '');
#292 = (
   NAMED_UNIT (*)
   SI_UNIT ($, .STERADIAN.)
   SOLID_ANGLE_UNIT ()
);
#293 = (
   NAMED_UNIT (*)
   PLANE_ANGLE_UNIT ()
   SI_UNIT ($, .RADIAN.)
);
#294 = SHAPE_REPRESENTATION('', (), #289);
#295 = PRODUCT_DEFINITION_SHAPE('', '', #296);
#296 = PRODUCT_DEFINITION('', '', #299, #303);
#297 = APPLICATION_CONTEXT('configuration controlled 3D designs of mechanical parts and assemblies');
#298 = APPLICATION_PROTOCOL_DEFINITION('International Standard', 'automotive_design', 2002, #297);
#299 = PRODUCT_DEFINITION_FORMATION_WITH_SPECIFIED_SOURCE('', '', #300, .NOT_KNOWN.);
#300 = PRODUCT('titg19203C4Fzo6t', '1U000-0630-476-XA   1620', '', (#301));
#301 = PRODUCT_CONTEXT('', #297, 'mechanical');
#302 = PRODUCT_RELATED_PRODUCT_CATEGORY('detail', '', (#300));
#303 = PRODUCT_DEFINITION_CONTEXT('part definition', #297, 'design');
#304 = SHAPE_DEFINITION_REPRESENTATION(#295, #294);
#305 = CONSTRUCTIVE_GEOMETRY_REPRESENTATION('supplemental geometry', (#276, #280, #284), #289);
#306 = CONSTRUCTIVE_GEOMETRY_REPRESENTATION_RELATIONSHIP('', '', #294, #305);
#307 = SHAPE_REPRESENTATION_RELATIONSHIP('', '', #294, #308);
#308 = SHAPE_REPRESENTATION('', (#250), #289);
#309 = SHAPE_REPRESENTATION_RELATIONSHIP('', '', #294, #310);
#310 = ADVANCED_BREP_SHAPE_REPRESENTATION('', (#1, #77), #289);
ENDSEC;
END-ISO-10303-21;
