ISO-10303-21;
HEADER;
FILE_DESCRIPTION(('STEP'), '1');
FILE_NAME('C:\\Users\\ds2002\\OneDrive - Sandvik\\HomeShare\\Documents\\Batchrepair\\CorSRT2\\NEW_MILPR_SLDQC\\Output28.11\\MOD000000000000000020082281200000.stp', '2018-11-28T15:14:31', (''), (''), 'Express v3.0.0.0', 'Express Tool', 'Unknown');
FILE_SCHEMA(('AUTOMOTIVE_DESIGN'));
ENDSEC;

DATA;
#1 = MANIFOLD_SOLID_BREP('NOCUT', #2);
#2 = CLOSED_SHELL('', (#3, #20, #59));
#3 = ADVANCED_FACE('', (#4), #15, .T.);
#4 = FACE_OUTER_BOUND('', #5, .T.);
#5 = EDGE_LOOP('', (#6));
#6 = ORIENTED_EDGE('', *, *, #7, .F.);
#7 = EDGE_CURVE('', #8, #8, #10, .T.);
#8 = VERTEX_POINT('', #9);
#9 = CARTESIAN_POINT('', (-6.35, 0., 0.));
#10 = CIRCLE('', #11, 6.35);
#11 = AXIS2_PLACEMENT_3D('', #12, #13, #14);
#12 = CARTESIAN_POINT('', (-2.4980018054066E-16, 1.4432899320127E-15, 0.));
#13 = DIRECTION('', (0., 0., -1.));
#14 = DIRECTION('', (-1., -2.27289753072867E-16, 0.));
#15 = B_SPLINE_SURFACE_WITH_KNOTS('', 1, 1, ((#16, #17), (#18, #19)), .UNSPECIFIED., .F., .F., .U., (2, 2), (2, 2), (-6.351, 6.351), (-6.35100000000001, 6.351), .UNSPECIFIED.);
#16 = CARTESIAN_POINT('', (-6.351, -6.351, 0.));
#17 = CARTESIAN_POINT('', (-6.351, 6.351, 0.));
#18 = CARTESIAN_POINT('', (6.351, -6.351, 0.));
#19 = CARTESIAN_POINT('', (6.351, 6.351, 0.));
#20 = ADVANCED_FACE('', (#21), #40, .T.);
#21 = FACE_OUTER_BOUND('', #22, .T.);
#22 = EDGE_LOOP('', (#23, #31, #32, #33));
#23 = ORIENTED_EDGE('', *, *, #24, .T.);
#24 = EDGE_CURVE('', #25, #8, #27, .T.);
#25 = VERTEX_POINT('', #26);
#26 = CARTESIAN_POINT('', (-6.35, 0., -73.025));
#27 = LINE('', #28, #29);
#28 = CARTESIAN_POINT('', (-6.35, 0., -73.025));
#29 = VECTOR('', #30, 73.025);
#30 = DIRECTION('', (0., 0., 73.025));
#31 = ORIENTED_EDGE('', *, *, #7, .T.);
#32 = ORIENTED_EDGE('', *, *, #24, .F.);
#33 = ORIENTED_EDGE('', *, *, #34, .F.);
#34 = EDGE_CURVE('', #25, #25, #35, .T.);
#35 = CIRCLE('', #36, 6.35);
#36 = AXIS2_PLACEMENT_3D('', #37, #38, #39);
#37 = CARTESIAN_POINT('', (-2.4980018054066E-16, 1.4432899320127E-15, -73.025));
#38 = DIRECTION('', (0., 0., -1.));
#39 = DIRECTION('', (-1., -2.27289753072867E-16, 0.));
#40 = (
   BOUNDED_SURFACE ()
   B_SPLINE_SURFACE (2, 1, ((#41, #42), (#43, #44), (#45, #46), (#47, #48), (#49, #50), (#51, #52), (#53, #54), (#55, #56), (#57, #58)), .UNSPECIFIED., .T., .F., .U.)
   B_SPLINE_SURFACE_WITH_KNOTS ((3, 2, 2, 2, 3), (2, 2), (0., 0.25, 0.5, 0.75, 1.), (0., 1.), .UNSPECIFIED.)
   GEOMETRIC_REPRESENTATION_ITEM ()
   RATIONAL_B_SPLINE_SURFACE (((1., 1.), (0.707106781186548, 0.707106781186548), (1., 1.), (0.707106781186548, 0.707106781186548), (1., 1.), (0.707106781186548, 0.707106781186548), (1., 1.), (0.707106781186548, 0.707106781186548), (1., 1.)))
   REPRESENTATION_ITEM ('')
   SURFACE ()
);
#41 = CARTESIAN_POINT('', (-6.35, 0., 7.3037));
#42 = CARTESIAN_POINT('', (-6.35, 0., -80.3287));
#43 = CARTESIAN_POINT('', (-6.35, 6.35, 7.3037));
#44 = CARTESIAN_POINT('', (-6.35, 6.35, -80.3287));
#45 = CARTESIAN_POINT('', (-1.85987086635762E-15, 6.35, 7.3037));
#46 = CARTESIAN_POINT('', (-1.85987086635762E-15, 6.35, -80.3287));
#47 = CARTESIAN_POINT('', (6.35, 6.35, 7.3037));
#48 = CARTESIAN_POINT('', (6.35, 6.35, -80.3287));
#49 = CARTESIAN_POINT('', (6.35, 3.22014137163391E-15, 7.3037));
#50 = CARTESIAN_POINT('', (6.35, 3.22014137163391E-15, -80.3287));
#51 = CARTESIAN_POINT('', (6.35, -6.35, 7.3037));
#52 = CARTESIAN_POINT('', (6.35, -6.35, -80.3287));
#53 = CARTESIAN_POINT('', (2.13792122273487E-15, -6.35, 7.3037));
#54 = CARTESIAN_POINT('', (2.13792122273487E-15, -6.35, -80.3287));
#55 = CARTESIAN_POINT('', (-6.35, -6.35, 7.3037));
#56 = CARTESIAN_POINT('', (-6.35, -6.35, -80.3287));
#57 = CARTESIAN_POINT('', (-6.35, 0., 7.3037));
#58 = CARTESIAN_POINT('', (-6.35, 0., -80.3287));
#59 = ADVANCED_FACE('', (#60), #63, .T.);
#60 = FACE_OUTER_BOUND('', #61, .T.);
#61 = EDGE_LOOP('', (#62));
#62 = ORIENTED_EDGE('', *, *, #34, .T.);
#63 = B_SPLINE_SURFACE_WITH_KNOTS('', 1, 1, ((#64, #65), (#66, #67)), .UNSPECIFIED., .F., .F., .U., (2, 2), (2, 2), (-6.351, 6.351), (-12.701, 0.00100000000000033), .UNSPECIFIED.);
#64 = CARTESIAN_POINT('', (6.351, -6.351, -73.025));
#65 = CARTESIAN_POINT('', (6.351, 6.351, -73.025));
#66 = CARTESIAN_POINT('', (-6.351, -6.351, -73.025));
#67 = CARTESIAN_POINT('', (-6.351, 6.351, -73.025));
#68 = DRAUGHTING_MODEL('', (#76, #215, #255, #260, #265, #270, #275), #289);
#69 = PRESENTATION_STYLE_ASSIGNMENT((#70));
#70 = SURFACE_STYLE_USAGE(.POSITIVE., #71);
#71 = SURFACE_SIDE_STYLE('', (#72));
#72 = SURFACE_STYLE_FILL_AREA(#73);
#73 = FILL_AREA_STYLE('', (#74));
#74 = FILL_AREA_STYLE_COLOUR('', #75);
#75 = COLOUR_RGB('', 0.50196078431373, 0.50196078431373, 0.50196078431373);
#76 = STYLED_ITEM('', (#69), #1);
#77 = MANIFOLD_SOLID_BREP('CUT', #78);
#78 = CLOSED_SHELL('', (#79, #96, #199));
#79 = ADVANCED_FACE('', (#80), #91, .T.);
#80 = FACE_OUTER_BOUND('', #81, .T.);
#81 = EDGE_LOOP('', (#82));
#82 = ORIENTED_EDGE('', *, *, #83, .F.);
#83 = EDGE_CURVE('', #84, #84, #86, .T.);
#84 = VERTEX_POINT('', #85);
#85 = CARTESIAN_POINT('', (-6.32, 0., -73.025));
#86 = CIRCLE('', #87, 6.32);
#87 = AXIS2_PLACEMENT_3D('', #88, #89, #90);
#88 = CARTESIAN_POINT('', (-1.63757896132211E-15, 2.66453525910038E-15, -73.025));
#89 = DIRECTION('', (0., 0., -1.));
#90 = DIRECTION('', (-1., -4.21603680237401E-16, 0.));
#91 = B_SPLINE_SURFACE_WITH_KNOTS('', 1, 1, ((#92, #93), (#94, #95)), .UNSPECIFIED., .F., .F., .U., (2, 2), (2, 2), (-6.321, 6.321), (-6.32100000000001, 6.321), .UNSPECIFIED.);
#92 = CARTESIAN_POINT('', (-6.321, -6.321, -73.025));
#93 = CARTESIAN_POINT('', (-6.321, 6.321, -73.025));
#94 = CARTESIAN_POINT('', (6.321, -6.321, -73.025));
#95 = CARTESIAN_POINT('', (6.321, 6.321, -73.025));
#96 = ADVANCED_FACE('', (#97), #117, .T.);
#97 = FACE_OUTER_BOUND('', #98, .T.);
#98 = EDGE_LOOP('', (#99, #108, #115, #116));
#99 = ORIENTED_EDGE('', *, *, #100, .T.);
#100 = EDGE_CURVE('', #84, #101, #103, .T.);
#101 = VERTEX_POINT('', #102);
#102 = CARTESIAN_POINT('', (-3.145, 0., -76.2));
#103 = CIRCLE('', #104, 3.17500000000001);
#104 = AXIS2_PLACEMENT_3D('', #105, #106, #107);
#105 = CARTESIAN_POINT('', (-6.32, 0., -76.2));
#106 = DIRECTION('', (0., 1., 0.));
#107 = DIRECTION('', (4.75560098737073E-15, 0., 1.));
#108 = ORIENTED_EDGE('', *, *, #109, .F.);
#109 = EDGE_CURVE('', #101, #101, #110, .T.);
#110 = CIRCLE('', #111, 3.145);
#111 = AXIS2_PLACEMENT_3D('', #112, #113, #114);
#112 = CARTESIAN_POINT('', (-6.66133814775094E-16, -9.43689570931383E-16, -76.2));
#113 = DIRECTION('', (4.61464841310732E-30, 1.53790713665498E-14, -1.));
#114 = DIRECTION('', (-1., 3.00060276925718E-16, 0.));
#115 = ORIENTED_EDGE('', *, *, #100, .F.);
#116 = ORIENTED_EDGE('', *, *, #83, .T.);
#117 = (
   BOUNDED_SURFACE ()
   B_SPLINE_SURFACE (2, 2, ((#118, #119, #120, #121, #122, #123, #124, #125, #126), (#127, #128, #129, #130, #131, #132, #133, #134, #135), (#136, #137, #138, #139, #140, #141, #142, #143, #144), (#145, #146, #147, #148, #149, #150, #151, #152, #153), (#154, #155, #156, #157, #158, #159, #160, #161, #162), (#163, #164, #165, #166, #167, #168, #169, #170, #171), (#172, #173, #174, #175, #176, #177, #178, #179, #180), (#181, #182, #183, #184, #185, #186, #187, #188, #189), (#190, #191, #192, #193, #194, #195, #196, #197, #198)), .UNSPECIFIED., .T., .T., .U.)
   B_SPLINE_SURFACE_WITH_KNOTS ((3, 2, 2, 2, 3), (3, 2, 2, 2, 3), (0., 0.25, 0.5, 0.75, 1.), (0., 0.25, 0.5, 0.75, 1.), .UNSPECIFIED.)
   GEOMETRIC_REPRESENTATION_ITEM ()
   RATIONAL_B_SPLINE_SURFACE (((1., 0.707106781186548, 1., 0.707106781186548, 1., 0.707106781186548, 1., 0.707106781186548, 1.), (0.707106781186548, 0.5, 0.707106781186548, 0.5, 0.707106781186548, 0.5, 0.707106781186548, 0.5, 0.707106781186548), (1., 0.707106781186548, 1., 0.707106781186548, 1., 0.707106781186548, 1., 0.707106781186548, 1.), (0.707106781186548, 0.5, 0.707106781186548, 0.5, 0.707106781186548, 0.5, 0.707106781186548, 0.5, 0.707106781186548), (1., 0.707106781186548, 1., 0.707106781186548, 1., 0.707106781186548, 1., 0.707106781186548, 1.), (0.707106781186548, 0.5, 0.707106781186548, 0.5, 0.707106781186548, 0.5, 0.707106781186548, 0.5, 0.707106781186548), (1., 0.707106781186548, 1., 0.707106781186548, 1., 0.707106781186548, 1., 0.707106781186548, 1.), (0.707106781186548, 0.5, 0.707106781186548, 0.5, 0.707106781186548, 0.5, 0.707106781186548, 0.5, 0.707106781186548), (1., 0.707106781186548, 1., 0.707106781186548, 1., 0.707106781186548, 1., 0.707106781186548, 1.)))
   REPRESENTATION_ITEM ('')
   SURFACE ()
);
#118 = CARTESIAN_POINT('', (-9.49499999999999, 0., -76.2));
#119 = CARTESIAN_POINT('', (-9.49499999999999, 0., -79.375));
#120 = CARTESIAN_POINT('', (-6.31999999999999, 0., -79.375));
#121 = CARTESIAN_POINT('', (-3.14499999999999, 0., -79.375));
#122 = CARTESIAN_POINT('', (-3.14499999999999, 0., -76.2));
#123 = CARTESIAN_POINT('', (-3.14499999999999, 0., -73.025));
#124 = CARTESIAN_POINT('', (-6.31999999999999, 0., -73.025));
#125 = CARTESIAN_POINT('', (-9.49499999999999, 0., -73.025));
#126 = CARTESIAN_POINT('', (-9.49499999999999, 0., -76.2));
#127 = CARTESIAN_POINT('', (-9.49499999999999, -9.49499999999999, -76.2));
#128 = CARTESIAN_POINT('', (-9.49499999999999, -9.49499999999999, -79.375));
#129 = CARTESIAN_POINT('', (-6.31999999999999, -6.31999999999999, -79.375));
#130 = CARTESIAN_POINT('', (-3.14499999999999, -3.14499999999999, -79.375));
#131 = CARTESIAN_POINT('', (-3.14499999999999, -3.14499999999999, -76.2));
#132 = CARTESIAN_POINT('', (-3.14499999999999, -3.14499999999999, -73.025));
#133 = CARTESIAN_POINT('', (-6.31999999999999, -6.31999999999999, -73.025));
#134 = CARTESIAN_POINT('', (-9.49499999999999, -9.49499999999999, -73.025));
#135 = CARTESIAN_POINT('', (-9.49499999999999, -9.49499999999999, -76.2));
#136 = CARTESIAN_POINT('', (-3.24593632699558E-15, -9.49499999999999, -76.2));
#137 = CARTESIAN_POINT('', (-3.24593632699558E-15, -9.49499999999999, -79.375));
#138 = CARTESIAN_POINT('', (-3.05152364763094E-15, -6.31999999999999, -79.375));
#139 = CARTESIAN_POINT('', (-2.8571109682663E-15, -3.14499999999999, -79.375));
#140 = CARTESIAN_POINT('', (-2.8571109682663E-15, -3.14499999999999, -76.2));
#141 = CARTESIAN_POINT('', (-2.8571109682663E-15, -3.14499999999999, -73.025));
#142 = CARTESIAN_POINT('', (-3.05152364763094E-15, -6.31999999999999, -73.025));
#143 = CARTESIAN_POINT('', (-3.24593632699558E-15, -9.49499999999999, -73.025));
#144 = CARTESIAN_POINT('', (-3.24593632699558E-15, -9.49499999999999, -76.2));
#145 = CARTESIAN_POINT('', (9.49499999999999, -9.49499999999999, -76.2));
#146 = CARTESIAN_POINT('', (9.49499999999999, -9.49499999999999, -79.375));
#147 = CARTESIAN_POINT('', (6.31999999999998, -6.31999999999999, -79.375));
#148 = CARTESIAN_POINT('', (3.14499999999998, -3.14499999999999, -79.375));
#149 = CARTESIAN_POINT('', (3.14499999999998, -3.14499999999999, -76.2));
#150 = CARTESIAN_POINT('', (3.14499999999998, -3.14499999999999, -73.025));
#151 = CARTESIAN_POINT('', (6.31999999999998, -6.31999999999999, -73.025));
#152 = CARTESIAN_POINT('', (9.49499999999999, -9.49499999999999, -73.025));
#153 = CARTESIAN_POINT('', (9.49499999999999, -9.49499999999999, -76.2));
#154 = CARTESIAN_POINT('', (9.49499999999999, -3.38324818504072E-15, -76.2));
#155 = CARTESIAN_POINT('', (9.49499999999999, -3.38324818504072E-15, -79.375));
#156 = CARTESIAN_POINT('', (6.31999999999999, -2.99442282631144E-15, -79.375));
#157 = CARTESIAN_POINT('', (3.14499999999999, -2.60559746758215E-15, -79.375));
#158 = CARTESIAN_POINT('', (3.14499999999999, -2.60559746758215E-15, -76.2));
#159 = CARTESIAN_POINT('', (3.14499999999999, -2.60559746758215E-15, -73.025));
#160 = CARTESIAN_POINT('', (6.31999999999999, -2.99442282631144E-15, -73.025));
#161 = CARTESIAN_POINT('', (9.49499999999999, -3.38324818504072E-15, -73.025));
#162 = CARTESIAN_POINT('', (9.49499999999999, -3.38324818504072E-15, -76.2));
#163 = CARTESIAN_POINT('', (9.49499999999999, 9.49499999999998, -76.2));
#164 = CARTESIAN_POINT('', (9.49499999999999, 9.49499999999998, -79.375));
#165 = CARTESIAN_POINT('', (6.31999999999999, 6.31999999999998, -79.375));
#166 = CARTESIAN_POINT('', (3.14499999999999, 3.14499999999999, -79.375));
#167 = CARTESIAN_POINT('', (3.14499999999999, 3.14499999999999, -76.2));
#168 = CARTESIAN_POINT('', (3.14499999999999, 3.14499999999999, -73.025));
#169 = CARTESIAN_POINT('', (6.31999999999999, 6.31999999999998, -73.025));
#170 = CARTESIAN_POINT('', (9.49499999999999, 9.49499999999998, -73.025));
#171 = CARTESIAN_POINT('', (9.49499999999999, 9.49499999999998, -76.2));
#172 = CARTESIAN_POINT('', (1.30011399383555E-15, 9.49499999999999, -76.2));
#173 = CARTESIAN_POINT('', (1.30011399383555E-15, 9.49499999999999, -79.375));
#174 = CARTESIAN_POINT('', (7.16875955741626E-16, 6.31999999999999, -79.375));
#175 = CARTESIAN_POINT('', (1.33637917647699E-16, 3.14499999999999, -79.375));
#176 = CARTESIAN_POINT('', (1.33637917647699E-16, 3.14499999999999, -76.2));
#177 = CARTESIAN_POINT('', (1.33637917647699E-16, 3.14499999999999, -73.025));
#178 = CARTESIAN_POINT('', (7.16875955741626E-16, 6.31999999999999, -73.025));
#179 = CARTESIAN_POINT('', (1.30011399383555E-15, 9.49499999999999, -73.025));
#180 = CARTESIAN_POINT('', (1.30011399383555E-15, 9.49499999999999, -76.2));
#181 = CARTESIAN_POINT('', (-9.49499999999999, 9.49499999999999, -76.2));
#182 = CARTESIAN_POINT('', (-9.49499999999999, 9.49499999999999, -79.375));
#183 = CARTESIAN_POINT('', (-6.31999999999999, 6.31999999999999, -79.375));
#184 = CARTESIAN_POINT('', (-3.14499999999999, 3.14499999999999, -79.375));
#185 = CARTESIAN_POINT('', (-3.14499999999999, 3.14499999999999, -76.2));
#186 = CARTESIAN_POINT('', (-3.14499999999999, 3.14499999999999, -73.025));
#187 = CARTESIAN_POINT('', (-6.31999999999999, 6.31999999999999, -73.025));
#188 = CARTESIAN_POINT('', (-9.49499999999999, 9.49499999999999, -73.025));
#189 = CARTESIAN_POINT('', (-9.49499999999999, 9.49499999999999, -76.2));
#190 = CARTESIAN_POINT('', (-9.49499999999999, 0., -76.2));
#191 = CARTESIAN_POINT('', (-9.49499999999999, 0., -79.375));
#192 = CARTESIAN_POINT('', (-6.31999999999999, 0., -79.375));
#193 = CARTESIAN_POINT('', (-3.14499999999999, 0., -79.375));
#194 = CARTESIAN_POINT('', (-3.14499999999999, 0., -76.2));
#195 = CARTESIAN_POINT('', (-3.14499999999999, 0., -73.025));
#196 = CARTESIAN_POINT('', (-6.31999999999999, 0., -73.025));
#197 = CARTESIAN_POINT('', (-9.49499999999999, 0., -73.025));
#198 = CARTESIAN_POINT('', (-9.49499999999999, 0., -76.2));
#199 = ADVANCED_FACE('', (#200), #203, .T.);
#200 = FACE_OUTER_BOUND('', #201, .T.);
#201 = EDGE_LOOP('', (#202));
#202 = ORIENTED_EDGE('', *, *, #109, .T.);
#203 = B_SPLINE_SURFACE_WITH_KNOTS('', 1, 1, ((#204, #205), (#206, #207)), .UNSPECIFIED., .F., .F., .U., (2, 2), (2, 2), (-3.146, 3.146), (-6.291, 0.00100000000000033), .UNSPECIFIED.);
#204 = CARTESIAN_POINT('', (3.146, -3.146, -76.2));
#205 = CARTESIAN_POINT('', (3.146, 3.146, -76.2));
#206 = CARTESIAN_POINT('', (-3.146, -3.146, -76.2));
#207 = CARTESIAN_POINT('', (-3.146, 3.146, -76.2));
#208 = PRESENTATION_STYLE_ASSIGNMENT((#209));
#209 = SURFACE_STYLE_USAGE(.POSITIVE., #210);
#210 = SURFACE_SIDE_STYLE('', (#211));
#211 = SURFACE_STYLE_FILL_AREA(#212);
#212 = FILL_AREA_STYLE('', (#213));
#213 = FILL_AREA_STYLE_COLOUR('', #214);
#214 = COLOUR_RGB('', 0.8, 0.8, 0.8);
#215 = STYLED_ITEM('', (#208), #77);
#216 = TRIMMED_CURVE('cutting part line', #217, (#221), (#222), .T., .CARTESIAN.);
#217 = LINE('', #218, #219);
#218 = CARTESIAN_POINT('', (6.32, 0., -73.025));
#219 = VECTOR('', #220, 6.32);
#220 = DIRECTION('', (-6.32, 0., 0.));
#221 = CARTESIAN_POINT('', (6.32, 0., -73.025));
#222 = CARTESIAN_POINT('', (0., 0., -73.025));
#223 = TRIMMED_CURVE('cutting part line', #224, (#228), (#229), .T., .CARTESIAN.);
#224 = LINE('', #225, #226);
#225 = CARTESIAN_POINT('', (0., 0., -73.025));
#226 = VECTOR('', #227, 3.175);
#227 = DIRECTION('', (0., 0., -3.175));
#228 = CARTESIAN_POINT('', (0., 0., -73.025));
#229 = CARTESIAN_POINT('', (0., 0., -76.2));
#230 = TRIMMED_CURVE('cutting part line', #231, (#235), (#236), .T., .CARTESIAN.);
#231 = LINE('', #232, #233);
#232 = CARTESIAN_POINT('', (6.24500451351651E-17, 0., -76.2));
#233 = VECTOR('', #234, 3.145);
#234 = DIRECTION('', (3.145, 0., 0.));
#235 = CARTESIAN_POINT('', (6.24500451351651E-17, 0., -76.2));
#236 = CARTESIAN_POINT('', (3.145, 0., -76.2));
#237 = TRIMMED_CURVE('cutting part line', #238, (#243), (#244), .T., .CARTESIAN.);
#238 = CIRCLE('', #239, 3.17500000000003);
#239 = AXIS2_PLACEMENT_3D('', #240, #241, #242);
#240 = CARTESIAN_POINT('', (6.32000000000002, -1.80331423590261E-15, -76.2));
#241 = DIRECTION('', (-6.7749830242874E-17, 1., 3.36429153959176E-31));
#242 = DIRECTION('', (-1., -6.7749830242874E-17, 8.95171950563897E-15));
#243 = CARTESIAN_POINT('', (3.14499999999999, -2.01841994692374E-15, -76.2));
#244 = CARTESIAN_POINT('', (6.31999999999999, -1.80331423590262E-15, -73.025));
#245 = COMPOSITE_CURVE('cutting part line', (#246, #247, #248, #249), .U.);
#246 = COMPOSITE_CURVE_SEGMENT(.CONTINUOUS., .T., #216);
#247 = COMPOSITE_CURVE_SEGMENT(.CONTINUOUS., .T., #223);
#248 = COMPOSITE_CURVE_SEGMENT(.CONTINUOUS., .T., #230);
#249 = COMPOSITE_CURVE_SEGMENT(.CONTINUOUS., .T., #237);
#250 = GEOMETRIC_SET('', (#245, #288));
#251 = PRESENTATION_STYLE_ASSIGNMENT((#252));
#252 = CURVE_STYLE('', #254, POSITIVE_LENGTH_MEASURE(1.E-6), #253);
#253 = COLOUR_RGB('', 0., 0., 1.);
#254 = DRAUGHTING_PRE_DEFINED_CURVE_FONT('continuous');
#255 = STYLED_ITEM('', (#251), #245);
#256 = PRESENTATION_STYLE_ASSIGNMENT((#257));
#257 = CURVE_STYLE('', #259, POSITIVE_LENGTH_MEASURE(1.E-6), #258);
#258 = COLOUR_RGB('', 0., 0., 1.);
#259 = DRAUGHTING_PRE_DEFINED_CURVE_FONT('continuous');
#260 = OVER_RIDING_STYLED_ITEM('', (#256), #216, #255);
#261 = PRESENTATION_STYLE_ASSIGNMENT((#262));
#262 = CURVE_STYLE('', #264, POSITIVE_LENGTH_MEASURE(1.E-6), #263);
#263 = COLOUR_RGB('', 0., 0., 1.);
#264 = DRAUGHTING_PRE_DEFINED_CURVE_FONT('continuous');
#265 = OVER_RIDING_STYLED_ITEM('', (#261), #223, #255);
#266 = PRESENTATION_STYLE_ASSIGNMENT((#267));
#267 = CURVE_STYLE('', #269, POSITIVE_LENGTH_MEASURE(1.E-6), #268);
#268 = COLOUR_RGB('', 0., 0., 1.);
#269 = DRAUGHTING_PRE_DEFINED_CURVE_FONT('continuous');
#270 = OVER_RIDING_STYLED_ITEM('', (#266), #230, #255);
#271 = PRESENTATION_STYLE_ASSIGNMENT((#272));
#272 = CURVE_STYLE('', #274, POSITIVE_LENGTH_MEASURE(1.E-6), #273);
#273 = COLOUR_RGB('', 0., 0., 1.);
#274 = DRAUGHTING_PRE_DEFINED_CURVE_FONT('continuous');
#275 = OVER_RIDING_STYLED_ITEM('', (#271), #237, #255);
#276 = AXIS2_PLACEMENT_3D('MCS', #277, #278, #279);
#277 = CARTESIAN_POINT('', (0., 0., -45.3));
#278 = DIRECTION('', (0., 0., 1.));
#279 = DIRECTION('', (1., 0., 0.));
#280 = AXIS2_PLACEMENT_3D('PCS', #281, #282, #283);
#281 = CARTESIAN_POINT('', (0., 0., 0.));
#282 = DIRECTION('', (0., 0., 1.));
#283 = DIRECTION('', (1., 0., 0.));
#284 = AXIS2_PLACEMENT_3D('CIP', #285, #286, #287);
#285 = CARTESIAN_POINT('', (0., 0., -76.2));
#286 = DIRECTION('', (0., 0., 1.));
#287 = DIRECTION('', (1., 0., 0.));
#288 = CARTESIAN_POINT('CRP', (3.145, 0., -76.2000000000007));
#289 = (
   GEOMETRIC_REPRESENTATION_CONTEXT (3)
   GLOBAL_UNCERTAINTY_ASSIGNED_CONTEXT ((#291))
   GLOBAL_UNIT_ASSIGNED_CONTEXT ((#290, #292, #293))
   REPRESENTATION_CONTEXT ('', '3D')
);
#290 = (
   LENGTH_UNIT ()
   NAMED_UNIT (*)
   SI_UNIT (.MILLI., .METRE.)
);
#291 = UNCERTAINTY_MEASURE_WITH_UNIT(LENGTH_MEASURE(1.E-6), #290, 'DISTANCE_ACCURACY_VALUE', '');
#292 = (
   NAMED_UNIT (*)
   SI_UNIT ($, .STERADIAN.)
   SOLID_ANGLE_UNIT ()
);
#293 = (
   NAMED_UNIT (*)
   PLANE_ANGLE_UNIT ()
   SI_UNIT ($, .RADIAN.)
);
#294 = SHAPE_REPRESENTATION('', (), #289);
#295 = PRODUCT_DEFINITION_SHAPE('', '', #296);
#296 = PRODUCT_DEFINITION('', '', #299, #303);
#297 = APPLICATION_CONTEXT('configuration controlled 3D designs of mechanical parts and assemblies');
#298 = APPLICATION_PROTOCOL_DEFINITION('International Standard', 'automotive_design', 2002, #297);
#299 = PRODUCT_DEFINITION_FORMATION_WITH_SPECIFIED_SOURCE('', '', #300, .NOT_KNOWN.);
#300 = PRODUCT('titg19203C4Fzo6m', '1U000-0630-318-XA   1620', '', (#301));
#301 = PRODUCT_CONTEXT('', #297, 'mechanical');
#302 = PRODUCT_RELATED_PRODUCT_CATEGORY('detail', '', (#300));
#303 = PRODUCT_DEFINITION_CONTEXT('part definition', #297, 'design');
#304 = SHAPE_DEFINITION_REPRESENTATION(#295, #294);
#305 = CONSTRUCTIVE_GEOMETRY_REPRESENTATION('supplemental geometry', (#276, #280, #284), #289);
#306 = CONSTRUCTIVE_GEOMETRY_REPRESENTATION_RELATIONSHIP('', '', #294, #305);
#307 = SHAPE_REPRESENTATION_RELATIONSHIP('', '', #294, #308);
#308 = SHAPE_REPRESENTATION('', (#250), #289);
#309 = SHAPE_REPRESENTATION_RELATIONSHIP('', '', #294, #310);
#310 = ADVANCED_BREP_SHAPE_REPRESENTATION('', (#1, #77), #289);
ENDSEC;
END-ISO-10303-21;
