ISO-10303-21;
HEADER;
FILE_DESCRIPTION(('STEP'), '1');
FILE_NAME('C:\\Users\\ds2002\\OneDrive - Sandvik\\HomeShare\\Documents\\Batchrepair\\CorSRT2\\NEW_MILPR_SLDQC\\Output28.11\\MOD000000000000000020082280100000.stp', '2018-11-28T15:14:35', (''), (''), 'Express v3.0.0.0', 'Express Tool', 'Unknown');
FILE_SCHEMA(('AUTOMOTIVE_DESIGN'));
ENDSEC;

DATA;
#1 = MANIFOLD_SOLID_BREP('NOCUT', #2);
#2 = CLOSED_SHELL('', (#3, #20, #59));
#3 = ADVANCED_FACE('', (#4), #15, .T.);
#4 = FACE_OUTER_BOUND('', #5, .T.);
#5 = EDGE_LOOP('', (#6));
#6 = ORIENTED_EDGE('', *, *, #7, .F.);
#7 = EDGE_CURVE('', #8, #8, #10, .T.);
#8 = VERTEX_POINT('', #9);
#9 = CARTESIAN_POINT('', (-3.175, 0., 0.));
#10 = CIRCLE('', #11, 3.175);
#11 = AXIS2_PLACEMENT_3D('', #12, #13, #14);
#12 = CARTESIAN_POINT('', (-1.2490009027033E-16, 7.21644966006352E-16, 0.));
#13 = DIRECTION('', (0., 0., -1.));
#14 = DIRECTION('', (-1., -2.27289753072867E-16, 0.));
#15 = B_SPLINE_SURFACE_WITH_KNOTS('', 1, 1, ((#16, #17), (#18, #19)), .UNSPECIFIED., .F., .F., .U., (2, 2), (2, 2), (-3.176, 3.176), (-3.176, 3.176), .UNSPECIFIED.);
#16 = CARTESIAN_POINT('', (-3.176, -3.176, 0.));
#17 = CARTESIAN_POINT('', (-3.176, 3.176, 0.));
#18 = CARTESIAN_POINT('', (3.176, -3.176, 0.));
#19 = CARTESIAN_POINT('', (3.176, 3.176, 0.));
#20 = ADVANCED_FACE('', (#21), #40, .T.);
#21 = FACE_OUTER_BOUND('', #22, .T.);
#22 = EDGE_LOOP('', (#23, #31, #32, #33));
#23 = ORIENTED_EDGE('', *, *, #24, .T.);
#24 = EDGE_CURVE('', #25, #8, #27, .T.);
#25 = VERTEX_POINT('', #26);
#26 = CARTESIAN_POINT('', (-3.175, 0., -49.225));
#27 = LINE('', #28, #29);
#28 = CARTESIAN_POINT('', (-3.175, 0., -49.225));
#29 = VECTOR('', #30, 49.225);
#30 = DIRECTION('', (0., 0., 49.225));
#31 = ORIENTED_EDGE('', *, *, #7, .T.);
#32 = ORIENTED_EDGE('', *, *, #24, .F.);
#33 = ORIENTED_EDGE('', *, *, #34, .F.);
#34 = EDGE_CURVE('', #25, #25, #35, .T.);
#35 = CIRCLE('', #36, 3.175);
#36 = AXIS2_PLACEMENT_3D('', #37, #38, #39);
#37 = CARTESIAN_POINT('', (-1.2490009027033E-16, 7.21644966006352E-16, -49.225));
#38 = DIRECTION('', (0., 0., -1.));
#39 = DIRECTION('', (-1., -2.27289753072867E-16, 0.));
#40 = (
   BOUNDED_SURFACE ()
   B_SPLINE_SURFACE (2, 1, ((#41, #42), (#43, #44), (#45, #46), (#47, #48), (#49, #50), (#51, #52), (#53, #54), (#55, #56), (#57, #58)), .UNSPECIFIED., .T., .F., .U.)
   B_SPLINE_SURFACE_WITH_KNOTS ((3, 2, 2, 2, 3), (2, 2), (0., 0.25, 0.5, 0.75, 1.), (0., 1.), .UNSPECIFIED.)
   GEOMETRIC_REPRESENTATION_ITEM ()
   RATIONAL_B_SPLINE_SURFACE (((1., 1.), (0.707106781186548, 0.707106781186548), (1., 1.), (0.707106781186548, 0.707106781186548), (1., 1.), (0.707106781186548, 0.707106781186548), (1., 1.), (0.707106781186548, 0.707106781186548), (1., 1.)))
   REPRESENTATION_ITEM ('')
   SURFACE ()
);
#41 = CARTESIAN_POINT('', (-3.175, 0., 4.9237));
#42 = CARTESIAN_POINT('', (-3.175, 0., -54.1487));
#43 = CARTESIAN_POINT('', (-3.175, 3.175, 4.9237));
#44 = CARTESIAN_POINT('', (-3.175, 3.175, -54.1487));
#45 = CARTESIAN_POINT('', (-9.29935433178808E-16, 3.175, 4.9237));
#46 = CARTESIAN_POINT('', (-9.29935433178808E-16, 3.175, -54.1487));
#47 = CARTESIAN_POINT('', (3.175, 3.175, 4.9237));
#48 = CARTESIAN_POINT('', (3.175, 3.175, -54.1487));
#49 = CARTESIAN_POINT('', (3.175, 1.61007068581696E-15, 4.9237));
#50 = CARTESIAN_POINT('', (3.175, 1.61007068581696E-15, -54.1487));
#51 = CARTESIAN_POINT('', (3.175, -3.175, 4.9237));
#52 = CARTESIAN_POINT('', (3.175, -3.175, -54.1487));
#53 = CARTESIAN_POINT('', (1.06896061136743E-15, -3.175, 4.9237));
#54 = CARTESIAN_POINT('', (1.06896061136743E-15, -3.175, -54.1487));
#55 = CARTESIAN_POINT('', (-3.175, -3.175, 4.9237));
#56 = CARTESIAN_POINT('', (-3.175, -3.175, -54.1487));
#57 = CARTESIAN_POINT('', (-3.175, 0., 4.9237));
#58 = CARTESIAN_POINT('', (-3.175, 0., -54.1487));
#59 = ADVANCED_FACE('', (#60), #63, .T.);
#60 = FACE_OUTER_BOUND('', #61, .T.);
#61 = EDGE_LOOP('', (#62));
#62 = ORIENTED_EDGE('', *, *, #34, .T.);
#63 = B_SPLINE_SURFACE_WITH_KNOTS('', 1, 1, ((#64, #65), (#66, #67)), .UNSPECIFIED., .F., .F., .U., (2, 2), (2, 2), (-3.176, 3.176), (-6.351, 0.00099999999999989), .UNSPECIFIED.);
#64 = CARTESIAN_POINT('', (3.176, -3.176, -49.225));
#65 = CARTESIAN_POINT('', (3.176, 3.176, -49.225));
#66 = CARTESIAN_POINT('', (-3.176, -3.176, -49.225));
#67 = CARTESIAN_POINT('', (-3.176, 3.176, -49.225));
#68 = DRAUGHTING_MODEL('', (#76, #215, #255, #260, #265, #270, #275), #289);
#69 = PRESENTATION_STYLE_ASSIGNMENT((#70));
#70 = SURFACE_STYLE_USAGE(.POSITIVE., #71);
#71 = SURFACE_SIDE_STYLE('', (#72));
#72 = SURFACE_STYLE_FILL_AREA(#73);
#73 = FILL_AREA_STYLE('', (#74));
#74 = FILL_AREA_STYLE_COLOUR('', #75);
#75 = COLOUR_RGB('', 0.50196078431373, 0.50196078431373, 0.50196078431373);
#76 = STYLED_ITEM('', (#69), #1);
#77 = MANIFOLD_SOLID_BREP('CUT', #78);
#78 = CLOSED_SHELL('', (#79, #96, #199));
#79 = ADVANCED_FACE('', (#80), #91, .T.);
#80 = FACE_OUTER_BOUND('', #81, .T.);
#81 = EDGE_LOOP('', (#82));
#82 = ORIENTED_EDGE('', *, *, #83, .F.);
#83 = EDGE_CURVE('', #84, #84, #86, .T.);
#84 = VERTEX_POINT('', #85);
#85 = CARTESIAN_POINT('', (-2.375, 0., -49.225));
#86 = CIRCLE('', #87, 2.375);
#87 = AXIS2_PLACEMENT_3D('', #88, #89, #90);
#88 = CARTESIAN_POINT('', (-4.85722573273506E-16, 6.10622663543836E-16, -49.225));
#89 = DIRECTION('', (0., 0., -1.));
#90 = DIRECTION('', (-1., -2.57104279386878E-16, 0.));
#91 = B_SPLINE_SURFACE_WITH_KNOTS('', 1, 1, ((#92, #93), (#94, #95)), .UNSPECIFIED., .F., .F., .U., (2, 2), (2, 2), (-2.376, 2.376), (-2.376, 2.376), .UNSPECIFIED.);
#92 = CARTESIAN_POINT('', (-2.376, -2.376, -49.225));
#93 = CARTESIAN_POINT('', (-2.376, 2.376, -49.225));
#94 = CARTESIAN_POINT('', (2.376, -2.376, -49.225));
#95 = CARTESIAN_POINT('', (2.376, 2.376, -49.225));
#96 = ADVANCED_FACE('', (#97), #117, .T.);
#97 = FACE_OUTER_BOUND('', #98, .T.);
#98 = EDGE_LOOP('', (#99, #108, #115, #116));
#99 = ORIENTED_EDGE('', *, *, #100, .T.);
#100 = EDGE_CURVE('', #84, #101, #103, .T.);
#101 = VERTEX_POINT('', #102);
#102 = CARTESIAN_POINT('', (-0.800000000000006, 0., -50.8));
#103 = CIRCLE('', #104, 1.575);
#104 = AXIS2_PLACEMENT_3D('', #105, #106, #107);
#105 = CARTESIAN_POINT('', (-2.375, 0., -50.8));
#106 = DIRECTION('', (0., 1., 0.));
#107 = DIRECTION('', (3.10157543387345E-15, 0., 1.));
#108 = ORIENTED_EDGE('', *, *, #109, .F.);
#109 = EDGE_CURVE('', #101, #101, #110, .T.);
#110 = CIRCLE('', #111, 0.800000000000006);
#111 = AXIS2_PLACEMENT_3D('', #112, #113, #114);
#112 = CARTESIAN_POINT('', (-1.49186218934005E-16, -6.93889390390723E-17, -50.8));
#113 = DIRECTION('', (0., 0., -1.));
#114 = DIRECTION('', (-1., 8.67361737988397E-17, 0.));
#115 = ORIENTED_EDGE('', *, *, #100, .F.);
#116 = ORIENTED_EDGE('', *, *, #83, .T.);
#117 = (
   BOUNDED_SURFACE ()
   B_SPLINE_SURFACE (2, 2, ((#118, #119, #120, #121, #122, #123, #124, #125, #126), (#127, #128, #129, #130, #131, #132, #133, #134, #135), (#136, #137, #138, #139, #140, #141, #142, #143, #144), (#145, #146, #147, #148, #149, #150, #151, #152, #153), (#154, #155, #156, #157, #158, #159, #160, #161, #162), (#163, #164, #165, #166, #167, #168, #169, #170, #171), (#172, #173, #174, #175, #176, #177, #178, #179, #180), (#181, #182, #183, #184, #185, #186, #187, #188, #189), (#190, #191, #192, #193, #194, #195, #196, #197, #198)), .UNSPECIFIED., .T., .T., .U.)
   B_SPLINE_SURFACE_WITH_KNOTS ((3, 2, 2, 2, 3), (3, 2, 2, 2, 3), (0., 0.25, 0.5, 0.75, 1.), (0., 0.25, 0.5, 0.75, 1.), .UNSPECIFIED.)
   GEOMETRIC_REPRESENTATION_ITEM ()
   RATIONAL_B_SPLINE_SURFACE (((1., 0.707106781186548, 1., 0.707106781186548, 1., 0.707106781186548, 1., 0.707106781186548, 1.), (0.707106781186548, 0.5, 0.707106781186548, 0.5, 0.707106781186548, 0.5, 0.707106781186548, 0.5, 0.707106781186548), (1., 0.707106781186548, 1., 0.707106781186548, 1., 0.707106781186548, 1., 0.707106781186548, 1.), (0.707106781186548, 0.5, 0.707106781186548, 0.5, 0.707106781186548, 0.5, 0.707106781186548, 0.5, 0.707106781186548), (1., 0.707106781186548, 1., 0.707106781186548, 1., 0.707106781186548, 1., 0.707106781186548, 1.), (0.707106781186548, 0.5, 0.707106781186548, 0.5, 0.707106781186548, 0.5, 0.707106781186548, 0.5, 0.707106781186548), (1., 0.707106781186548, 1., 0.707106781186548, 1., 0.707106781186548, 1., 0.707106781186548, 1.), (0.707106781186548, 0.5, 0.707106781186548, 0.5, 0.707106781186548, 0.5, 0.707106781186548, 0.5, 0.707106781186548), (1., 0.707106781186548, 1., 0.707106781186548, 1., 0.707106781186548, 1., 0.707106781186548, 1.)))
   REPRESENTATION_ITEM ('')
   SURFACE ()
);
#118 = CARTESIAN_POINT('', (-3.94999999999999, 0., -50.8));
#119 = CARTESIAN_POINT('', (-3.94999999999999, 0., -52.375));
#120 = CARTESIAN_POINT('', (-2.375, 0., -52.375));
#121 = CARTESIAN_POINT('', (-0.80000000000001, 0., -52.375));
#122 = CARTESIAN_POINT('', (-0.80000000000001, 0., -50.8));
#123 = CARTESIAN_POINT('', (-0.80000000000001, 0., -49.225));
#124 = CARTESIAN_POINT('', (-2.375, 0., -49.225));
#125 = CARTESIAN_POINT('', (-3.94999999999999, 0., -49.225));
#126 = CARTESIAN_POINT('', (-3.94999999999999, 0., -50.8));
#127 = CARTESIAN_POINT('', (-3.94999999999999, -3.94999999999999, -50.8));
#128 = CARTESIAN_POINT('', (-3.95, -3.94999999999999, -52.375));
#129 = CARTESIAN_POINT('', (-2.37500000000001, -2.375, -52.375));
#130 = CARTESIAN_POINT('', (-0.800000000000018, -0.800000000000008, -52.375));
#131 = CARTESIAN_POINT('', (-0.800000000000009, -0.800000000000011, -50.8));
#132 = CARTESIAN_POINT('', (-0.8, -0.800000000000014, -49.225));
#133 = CARTESIAN_POINT('', (-2.37499999999999, -2.375, -49.225));
#134 = CARTESIAN_POINT('', (-3.94999999999998, -3.94999999999999, -49.225));
#135 = CARTESIAN_POINT('', (-3.94999999999999, -3.94999999999999, -50.8));
#136 = CARTESIAN_POINT('', (1.53448909656869E-15, -3.94999999999999, -50.8));
#137 = CARTESIAN_POINT('', (-1.05159084465783E-14, -3.95, -52.375));
#138 = CARTESIAN_POINT('', (-1.04194675111455E-14, -2.37500000000001, -52.375));
#139 = CARTESIAN_POINT('', (-1.03230265757126E-14, -0.800000000000016, -52.375));
#140 = CARTESIAN_POINT('', (1.7273709674344E-15, -0.80000000000001, -50.8));
#141 = CARTESIAN_POINT('', (1.37777685105814E-14, -0.800000000000004, -49.225));
#142 = CARTESIAN_POINT('', (1.36813275751486E-14, -2.37499999999999, -49.225));
#143 = CARTESIAN_POINT('', (1.35848866397157E-14, -3.94999999999998, -49.225));
#144 = CARTESIAN_POINT('', (1.53448909656869E-15, -3.94999999999999, -50.8));
#145 = CARTESIAN_POINT('', (3.94999999999999, -3.94999999999999, -50.8));
#146 = CARTESIAN_POINT('', (3.94999999999998, -3.95, -52.375));
#147 = CARTESIAN_POINT('', (2.37499999999999, -2.37500000000002, -52.375));
#148 = CARTESIAN_POINT('', (0.799999999999998, -0.800000000000025, -52.375));
#149 = CARTESIAN_POINT('', (0.800000000000012, -0.800000000000009, -50.8));
#150 = CARTESIAN_POINT('', (0.800000000000027, -0.799999999999993, -49.225));
#151 = CARTESIAN_POINT('', (2.37500000000002, -2.37499999999998, -49.225));
#152 = CARTESIAN_POINT('', (3.95000000000001, -3.94999999999997, -49.225));
#153 = CARTESIAN_POINT('', (3.94999999999999, -3.94999999999999, -50.8));
#154 = CARTESIAN_POINT('', (3.94999999999999, 1.29262135373705E-15, -50.8));
#155 = CARTESIAN_POINT('', (3.94999999999999, -1.71418202701664E-14, -52.375));
#156 = CARTESIAN_POINT('', (2.375, -1.69489383993006E-14, -52.375));
#157 = CARTESIAN_POINT('', (0.800000000000006, -1.67560565284349E-14, -52.375));
#158 = CARTESIAN_POINT('', (0.800000000000012, 1.67838509546853E-15, -50.8));
#159 = CARTESIAN_POINT('', (0.800000000000017, 2.01128267193719E-14, -49.225));
#160 = CARTESIAN_POINT('', (2.37500000000001, 1.99199448485062E-14, -49.225));
#161 = CARTESIAN_POINT('', (3.95, 1.97270629776404E-14, -49.225));
#162 = CARTESIAN_POINT('', (3.94999999999999, 1.29262135373705E-15, -50.8));
#163 = CARTESIAN_POINT('', (3.94999999999999, 3.94999999999999, -50.8));
#164 = CARTESIAN_POINT('', (3.95, 3.94999999999997, -52.375));
#165 = CARTESIAN_POINT('', (2.37500000000001, 2.37499999999998, -52.375));
#166 = CARTESIAN_POINT('', (0.800000000000015, 0.799999999999991, -52.375));
#167 = CARTESIAN_POINT('', (0.800000000000011, 0.800000000000012, -50.8));
#168 = CARTESIAN_POINT('', (0.800000000000007, 0.800000000000034, -49.225));
#169 = CARTESIAN_POINT('', (2.375, 2.37500000000002, -49.225));
#170 = CARTESIAN_POINT('', (3.94999999999999, 3.95000000000001, -49.225));
#171 = CARTESIAN_POINT('', (3.94999999999999, 3.94999999999999, -50.8));
#172 = CARTESIAN_POINT('', (7.25603228494763E-16, 3.94999999999999, -50.8));
#173 = CARTESIAN_POINT('', (7.10964730925114E-15, 3.94999999999998, -52.375));
#174 = CARTESIAN_POINT('', (6.82032450295257E-15, 2.37499999999999, -52.375));
#175 = CARTESIAN_POINT('', (6.53100169665404E-15, 0.8, -52.375));
#176 = CARTESIAN_POINT('', (1.46957615897662E-16, 0.800000000000012, -50.8));
#177 = CARTESIAN_POINT('', (-6.23708646485872E-15, 0.800000000000024, -49.225));
#178 = CARTESIAN_POINT('', (-5.94776365856019E-15, 2.37500000000001, -49.225));
#179 = CARTESIAN_POINT('', (-5.65844085226162E-15, 3.95, -49.225));
#180 = CARTESIAN_POINT('', (7.25603228494763E-16, 3.94999999999999, -50.8));
#181 = CARTESIAN_POINT('', (-3.94999999999999, 3.94999999999999, -50.8));
#182 = CARTESIAN_POINT('', (-3.94999999999998, 3.94999999999999, -52.375));
#183 = CARTESIAN_POINT('', (-2.37499999999999, 2.375, -52.375));
#184 = CARTESIAN_POINT('', (-0.800000000000002, 0.800000000000008, -52.375));
#185 = CARTESIAN_POINT('', (-0.800000000000011, 0.800000000000011, -50.8));
#186 = CARTESIAN_POINT('', (-0.80000000000002, 0.800000000000014, -49.225));
#187 = CARTESIAN_POINT('', (-2.37500000000001, 2.375, -49.225));
#188 = CARTESIAN_POINT('', (-3.95, 3.94999999999999, -49.225));
#189 = CARTESIAN_POINT('', (-3.94999999999999, 3.94999999999999, -50.8));
#190 = CARTESIAN_POINT('', (-3.94999999999999, 0., -50.8));
#191 = CARTESIAN_POINT('', (-3.94999999999999, 0., -52.375));
#192 = CARTESIAN_POINT('', (-2.375, 0., -52.375));
#193 = CARTESIAN_POINT('', (-0.80000000000001, 0., -52.375));
#194 = CARTESIAN_POINT('', (-0.80000000000001, 0., -50.8));
#195 = CARTESIAN_POINT('', (-0.80000000000001, 0., -49.225));
#196 = CARTESIAN_POINT('', (-2.375, 0., -49.225));
#197 = CARTESIAN_POINT('', (-3.94999999999999, 0., -49.225));
#198 = CARTESIAN_POINT('', (-3.94999999999999, 0., -50.8));
#199 = ADVANCED_FACE('', (#200), #203, .T.);
#200 = FACE_OUTER_BOUND('', #201, .T.);
#201 = EDGE_LOOP('', (#202));
#202 = ORIENTED_EDGE('', *, *, #109, .T.);
#203 = B_SPLINE_SURFACE_WITH_KNOTS('', 1, 1, ((#204, #205), (#206, #207)), .UNSPECIFIED., .F., .F., .U., (2, 2), (2, 2), (-0.801000000000006, 0.801000000000006), (-1.60100000000001, 0.001000000000006), .UNSPECIFIED.);
#204 = CARTESIAN_POINT('', (0.801000000000006, -0.801000000000006, -50.8));
#205 = CARTESIAN_POINT('', (0.801000000000006, 0.801000000000006, -50.8));
#206 = CARTESIAN_POINT('', (-0.801000000000006, -0.801000000000006, -50.8));
#207 = CARTESIAN_POINT('', (-0.801000000000006, 0.801000000000006, -50.8));
#208 = PRESENTATION_STYLE_ASSIGNMENT((#209));
#209 = SURFACE_STYLE_USAGE(.POSITIVE., #210);
#210 = SURFACE_SIDE_STYLE('', (#211));
#211 = SURFACE_STYLE_FILL_AREA(#212);
#212 = FILL_AREA_STYLE('', (#213));
#213 = FILL_AREA_STYLE_COLOUR('', #214);
#214 = COLOUR_RGB('', 0.8, 0.8, 0.8);
#215 = STYLED_ITEM('', (#208), #77);
#216 = TRIMMED_CURVE('cutting part line', #217, (#221), (#222), .T., .CARTESIAN.);
#217 = LINE('', #218, #219);
#218 = CARTESIAN_POINT('', (2.375, 0., -49.225));
#219 = VECTOR('', #220, 2.375);
#220 = DIRECTION('', (-2.375, 0., 7.105427357601E-15));
#221 = CARTESIAN_POINT('', (2.375, 0., -49.225));
#222 = CARTESIAN_POINT('', (0., 0., -49.225));
#223 = TRIMMED_CURVE('cutting part line', #224, (#228), (#229), .T., .CARTESIAN.);
#224 = LINE('', #225, #226);
#225 = CARTESIAN_POINT('', (0., 0., -49.225));
#226 = VECTOR('', #227, 1.57500000000004);
#227 = DIRECTION('', (0., 0., -1.57500000000004));
#228 = CARTESIAN_POINT('', (0., 0., -49.225));
#229 = CARTESIAN_POINT('', (0., 0., -50.8));
#230 = TRIMMED_CURVE('cutting part line', #231, (#235), (#236), .T., .CARTESIAN.);
#231 = LINE('', #232, #233);
#232 = CARTESIAN_POINT('', (-1.56125112837913E-17, 0., -50.8));
#233 = VECTOR('', #234, 0.800000000000006);
#234 = DIRECTION('', (0.800000000000006, 0., 0.));
#235 = CARTESIAN_POINT('', (-1.56125112837913E-17, 0., -50.8));
#236 = CARTESIAN_POINT('', (0.800000000000006, 0., -50.8));
#237 = TRIMMED_CURVE('cutting part line', #238, (#243), (#244), .T., .CARTESIAN.);
#238 = CIRCLE('', #239, 1.575);
#239 = AXIS2_PLACEMENT_3D('', #240, #241, #242);
#240 = CARTESIAN_POINT('', (2.37500000000001, 9.10482890497984E-16, -50.8));
#241 = DIRECTION('', (3.71175753272526E-16, 1., -1.17349101894292E-14));
#242 = DIRECTION('', (-1., 3.71175753272632E-16, 9.02276489854098E-15));
#243 = CARTESIAN_POINT('', (0.800000000000008, 1.49508470190238E-15, -50.8));
#244 = CARTESIAN_POINT('', (2.37500000000001, 1.93929664388489E-14, -49.225));
#245 = COMPOSITE_CURVE('cutting part line', (#246, #247, #248, #249), .U.);
#246 = COMPOSITE_CURVE_SEGMENT(.CONTINUOUS., .T., #216);
#247 = COMPOSITE_CURVE_SEGMENT(.CONTINUOUS., .T., #223);
#248 = COMPOSITE_CURVE_SEGMENT(.CONTINUOUS., .T., #230);
#249 = COMPOSITE_CURVE_SEGMENT(.CONTINUOUS., .T., #237);
#250 = GEOMETRIC_SET('', (#245, #288));
#251 = PRESENTATION_STYLE_ASSIGNMENT((#252));
#252 = CURVE_STYLE('', #254, POSITIVE_LENGTH_MEASURE(1.E-6), #253);
#253 = COLOUR_RGB('', 0., 0., 1.);
#254 = DRAUGHTING_PRE_DEFINED_CURVE_FONT('continuous');
#255 = STYLED_ITEM('', (#251), #245);
#256 = PRESENTATION_STYLE_ASSIGNMENT((#257));
#257 = CURVE_STYLE('', #259, POSITIVE_LENGTH_MEASURE(1.E-6), #258);
#258 = COLOUR_RGB('', 0., 0., 1.);
#259 = DRAUGHTING_PRE_DEFINED_CURVE_FONT('continuous');
#260 = OVER_RIDING_STYLED_ITEM('', (#256), #216, #255);
#261 = PRESENTATION_STYLE_ASSIGNMENT((#262));
#262 = CURVE_STYLE('', #264, POSITIVE_LENGTH_MEASURE(1.E-6), #263);
#263 = COLOUR_RGB('', 0., 0., 1.);
#264 = DRAUGHTING_PRE_DEFINED_CURVE_FONT('continuous');
#265 = OVER_RIDING_STYLED_ITEM('', (#261), #223, #255);
#266 = PRESENTATION_STYLE_ASSIGNMENT((#267));
#267 = CURVE_STYLE('', #269, POSITIVE_LENGTH_MEASURE(1.E-6), #268);
#268 = COLOUR_RGB('', 0., 0., 1.);
#269 = DRAUGHTING_PRE_DEFINED_CURVE_FONT('continuous');
#270 = OVER_RIDING_STYLED_ITEM('', (#266), #230, #255);
#271 = PRESENTATION_STYLE_ASSIGNMENT((#272));
#272 = CURVE_STYLE('', #274, POSITIVE_LENGTH_MEASURE(1.E-6), #273);
#273 = COLOUR_RGB('', 0., 0., 1.);
#274 = DRAUGHTING_PRE_DEFINED_CURVE_FONT('continuous');
#275 = OVER_RIDING_STYLED_ITEM('', (#271), #237, #255);
#276 = AXIS2_PLACEMENT_3D('MCS', #277, #278, #279);
#277 = CARTESIAN_POINT('', (0., 0., -36.));
#278 = DIRECTION('', (0., 0., 1.));
#279 = DIRECTION('', (1., 0., 0.));
#280 = AXIS2_PLACEMENT_3D('PCS', #281, #282, #283);
#281 = CARTESIAN_POINT('', (0., 0., 0.));
#282 = DIRECTION('', (0., 0., 1.));
#283 = DIRECTION('', (1., 0., 0.));
#284 = AXIS2_PLACEMENT_3D('CIP', #285, #286, #287);
#285 = CARTESIAN_POINT('', (0., 0., -50.8));
#286 = DIRECTION('', (0., 0., 1.));
#287 = DIRECTION('', (1., 0., 0.));
#288 = CARTESIAN_POINT('CRP', (0.8, 0., -50.7999999999993));
#289 = (
   GEOMETRIC_REPRESENTATION_CONTEXT (3)
   GLOBAL_UNCERTAINTY_ASSIGNED_CONTEXT ((#291))
   GLOBAL_UNIT_ASSIGNED_CONTEXT ((#290, #292, #293))
   REPRESENTATION_CONTEXT ('', '3D')
);
#290 = (
   LENGTH_UNIT ()
   NAMED_UNIT (*)
   SI_UNIT (.MILLI., .METRE.)
);
#291 = UNCERTAINTY_MEASURE_WITH_UNIT(LENGTH_MEASURE(1.E-6), #290, 'DISTANCE_ACCURACY_VALUE', '');
#292 = (
   NAMED_UNIT (*)
   SI_UNIT ($, .STERADIAN.)
   SOLID_ANGLE_UNIT ()
);
#293 = (
   NAMED_UNIT (*)
   PLANE_ANGLE_UNIT ()
   SI_UNIT ($, .RADIAN.)
);
#294 = SHAPE_REPRESENTATION('', (), #289);
#295 = PRODUCT_DEFINITION_SHAPE('', '', #296);
#296 = PRODUCT_DEFINITION('', '', #299, #303);
#297 = APPLICATION_CONTEXT('configuration controlled 3D designs of mechanical parts and assemblies');
#298 = APPLICATION_PROTOCOL_DEFINITION('International Standard', 'automotive_design', 2002, #297);
#299 = PRODUCT_DEFINITION_FORMATION_WITH_SPECIFIED_SOURCE('', '', #300, .NOT_KNOWN.);
#300 = PRODUCT('titg19203C4Fzo68', '1U000-0160-158-XA   1620', '', (#301));
#301 = PRODUCT_CONTEXT('', #297, 'mechanical');
#302 = PRODUCT_RELATED_PRODUCT_CATEGORY('detail', '', (#300));
#303 = PRODUCT_DEFINITION_CONTEXT('part definition', #297, 'design');
#304 = SHAPE_DEFINITION_REPRESENTATION(#295, #294);
#305 = CONSTRUCTIVE_GEOMETRY_REPRESENTATION('supplemental geometry', (#276, #280, #284), #289);
#306 = CONSTRUCTIVE_GEOMETRY_REPRESENTATION_RELATIONSHIP('', '', #294, #305);
#307 = SHAPE_REPRESENTATION_RELATIONSHIP('', '', #294, #308);
#308 = SHAPE_REPRESENTATION('', (#250), #289);
#309 = SHAPE_REPRESENTATION_RELATIONSHIP('', '', #294, #310);
#310 = ADVANCED_BREP_SHAPE_REPRESENTATION('', (#1, #77), #289);
ENDSEC;
END-ISO-10303-21;
