ISO-10303-21;
HEADER;
FILE_DESCRIPTION(('STEP'), '1');
FILE_NAME('C:\\Users\\ds2002\\OneDrive - Sandvik\\HomeShare\\Documents\\Batchrepair\\CorSRT2\\NEW_MILPR_SLDQC\\Output28.11\\MOD000000000000000020082281001000.stp', '2018-11-28T15:14:36', (''), (''), 'Express v3.0.0.0', 'Express Tool', 'Unknown');
FILE_SCHEMA(('AUTOMOTIVE_DESIGN'));
ENDSEC;

DATA;
#1 = MANIFOLD_SOLID_BREP('NOCUT', #2);
#2 = CLOSED_SHELL('', (#3, #20, #59));
#3 = ADVANCED_FACE('', (#4), #15, .T.);
#4 = FACE_OUTER_BOUND('', #5, .T.);
#5 = EDGE_LOOP('', (#6));
#6 = ORIENTED_EDGE('', *, *, #7, .F.);
#7 = EDGE_CURVE('', #8, #8, #10, .T.);
#8 = VERTEX_POINT('', #9);
#9 = CARTESIAN_POINT('', (-7., 0., 0.));
#10 = CIRCLE('', #11, 7.);
#11 = AXIS2_PLACEMENT_3D('', #12, #13, #14);
#12 = CARTESIAN_POINT('', (3.05311331771918E-16, 8.88178419700125E-16, 0.));
#13 = DIRECTION('', (0., 0., -1.));
#14 = DIRECTION('', (-1., -1.26882631385732E-16, 0.));
#15 = B_SPLINE_SURFACE_WITH_KNOTS('', 1, 1, ((#16, #17), (#18, #19)), .UNSPECIFIED., .F., .F., .U., (2, 2), (2, 2), (-7.001, 7.001), (-7.00100000000001, 7.001), .UNSPECIFIED.);
#16 = CARTESIAN_POINT('', (-7.001, -7.001, 0.));
#17 = CARTESIAN_POINT('', (-7.001, 7.001, 0.));
#18 = CARTESIAN_POINT('', (7.001, -7.001, 0.));
#19 = CARTESIAN_POINT('', (7.001, 7.001, 0.));
#20 = ADVANCED_FACE('', (#21), #40, .T.);
#21 = FACE_OUTER_BOUND('', #22, .T.);
#22 = EDGE_LOOP('', (#23, #31, #32, #33));
#23 = ORIENTED_EDGE('', *, *, #24, .T.);
#24 = EDGE_CURVE('', #25, #8, #27, .T.);
#25 = VERTEX_POINT('', #26);
#26 = CARTESIAN_POINT('', (-7., 0., -79.));
#27 = LINE('', #28, #29);
#28 = CARTESIAN_POINT('', (-6.99999999999999, -5.42335631509267E-30, -79.));
#29 = VECTOR('', #30, 79.);
#30 = DIRECTION('', (-1.06581410364015E-14, 4.93025584102775E-30, 79.));
#31 = ORIENTED_EDGE('', *, *, #7, .T.);
#32 = ORIENTED_EDGE('', *, *, #24, .F.);
#33 = ORIENTED_EDGE('', *, *, #34, .F.);
#34 = EDGE_CURVE('', #25, #25, #35, .T.);
#35 = CIRCLE('', #36, 7.);
#36 = AXIS2_PLACEMENT_3D('', #37, #38, #39);
#37 = CARTESIAN_POINT('', (3.05311331771918E-16, 8.88178419700125E-16, -79.));
#38 = DIRECTION('', (-8.76707857291812E-31, 6.90959706397133E-15, -1.));
#39 = DIRECTION('', (-1., -1.26882631385732E-16, 0.));
#40 = (
   BOUNDED_SURFACE ()
   B_SPLINE_SURFACE (2, 1, ((#41, #42), (#43, #44), (#45, #46), (#47, #48), (#49, #50), (#51, #52), (#53, #54), (#55, #56), (#57, #58)), .UNSPECIFIED., .T., .F., .U.)
   B_SPLINE_SURFACE_WITH_KNOTS ((3, 2, 2, 2, 3), (2, 2), (0., 0.25, 0.5, 0.75, 1.), (0., 1.), .UNSPECIFIED.)
   GEOMETRIC_REPRESENTATION_ITEM ()
   RATIONAL_B_SPLINE_SURFACE (((1., 1.), (0.707106781186548, 0.707106781186548), (1., 1.), (0.707106781186548, 0.707106781186548), (1., 1.), (0.707106781186548, 0.707106781186548), (1., 1.), (0.707106781186548, 0.707106781186548), (1., 1.)))
   REPRESENTATION_ITEM ('')
   SURFACE ()
);
#41 = CARTESIAN_POINT('', (-7., 0., 7.9012));
#42 = CARTESIAN_POINT('', (-6.99999999999999, -5.91645678915759E-30, -86.9012));
#43 = CARTESIAN_POINT('', (-7., 7., 7.9012));
#44 = CARTESIAN_POINT('', (-6.99999999999998, 7., -86.9012));
#45 = CARTESIAN_POINT('', (3.76246553825839E-15, 7., 7.9012));
#46 = CARTESIAN_POINT('', (1.57912435119411E-14, 7., -86.9012));
#47 = CARTESIAN_POINT('', (7., 6.99999999999999, 7.9012));
#48 = CARTESIAN_POINT('', (7.00000000000002, 6.99999999999999, -86.9012));
#49 = CARTESIAN_POINT('', (7., -5.80408538834779E-15, 7.9012));
#50 = CARTESIAN_POINT('', (7.00000000000001, -5.8040853883478E-15, -86.9012));
#51 = CARTESIAN_POINT('', (7., -7.00000000000001, 7.9012));
#52 = CARTESIAN_POINT('', (7.00000000000001, -7.00000000000001, -86.9012));
#53 = CARTESIAN_POINT('', (-1.18436709068625E-15, -7., 7.9012));
#54 = CARTESIAN_POINT('', (1.08444108829965E-14, -7., -86.9012));
#55 = CARTESIAN_POINT('', (-7., -7., 7.9012));
#56 = CARTESIAN_POINT('', (-6.99999999999999, -7., -86.9012));
#57 = CARTESIAN_POINT('', (-7., 0., 7.9012));
#58 = CARTESIAN_POINT('', (-6.99999999999999, -5.91645678915759E-30, -86.9012));
#59 = ADVANCED_FACE('', (#60), #63, .T.);
#60 = FACE_OUTER_BOUND('', #61, .T.);
#61 = EDGE_LOOP('', (#62));
#62 = ORIENTED_EDGE('', *, *, #34, .T.);
#63 = B_SPLINE_SURFACE_WITH_KNOTS('', 1, 1, ((#64, #65), (#66, #67)), .UNSPECIFIED., .F., .F., .U., (2, 2), (2, 2), (-7.001, 7.001), (-14.001, 0.00100000000000033), .UNSPECIFIED.);
#64 = CARTESIAN_POINT('', (7.001, -7.001, -79.));
#65 = CARTESIAN_POINT('', (7.001, 7.001, -79.));
#66 = CARTESIAN_POINT('', (-7.001, -7.001, -79.));
#67 = CARTESIAN_POINT('', (-7.001, 7.001, -79.));
#68 = DRAUGHTING_MODEL('', (#76, #215, #255, #260, #265, #270, #275), #289);
#69 = PRESENTATION_STYLE_ASSIGNMENT((#70));
#70 = SURFACE_STYLE_USAGE(.POSITIVE., #71);
#71 = SURFACE_SIDE_STYLE('', (#72));
#72 = SURFACE_STYLE_FILL_AREA(#73);
#73 = FILL_AREA_STYLE('', (#74));
#74 = FILL_AREA_STYLE_COLOUR('', #75);
#75 = COLOUR_RGB('', 0.50196078431373, 0.50196078431373, 0.50196078431373);
#76 = STYLED_ITEM('', (#69), #1);
#77 = MANIFOLD_SOLID_BREP('CUT', #78);
#78 = CLOSED_SHELL('', (#79, #96, #199));
#79 = ADVANCED_FACE('', (#80), #91, .T.);
#80 = FACE_OUTER_BOUND('', #81, .T.);
#81 = EDGE_LOOP('', (#82));
#82 = ORIENTED_EDGE('', *, *, #83, .F.);
#83 = EDGE_CURVE('', #84, #84, #86, .T.);
#84 = VERTEX_POINT('', #85);
#85 = CARTESIAN_POINT('', (-7., 0., -79.));
#86 = CIRCLE('', #87, 7.);
#87 = AXIS2_PLACEMENT_3D('', #88, #89, #90);
#88 = CARTESIAN_POINT('', (3.05311331771918E-16, 8.88178419700125E-16, -79.));
#89 = DIRECTION('', (-8.76707857291812E-31, 6.90959706397133E-15, -1.));
#90 = DIRECTION('', (-1., -1.26882631385732E-16, 0.));
#91 = B_SPLINE_SURFACE_WITH_KNOTS('', 1, 1, ((#92, #93), (#94, #95)), .UNSPECIFIED., .F., .F., .U., (2, 2), (2, 2), (-7.001, 7.001), (-7.00100000000001, 7.001), .UNSPECIFIED.);
#92 = CARTESIAN_POINT('', (-7.001, -7.001, -79.));
#93 = CARTESIAN_POINT('', (-7.001, 7.001, -79.));
#94 = CARTESIAN_POINT('', (7.001, -7.001, -79.));
#95 = CARTESIAN_POINT('', (7.001, 7.001, -79.));
#96 = ADVANCED_FACE('', (#97), #117, .T.);
#97 = FACE_OUTER_BOUND('', #98, .T.);
#98 = EDGE_LOOP('', (#99, #108, #115, #116));
#99 = ORIENTED_EDGE('', *, *, #100, .T.);
#100 = EDGE_CURVE('', #84, #101, #103, .T.);
#101 = VERTEX_POINT('', #102);
#102 = CARTESIAN_POINT('', (-2.99999999999999, 0., -83.));
#103 = CIRCLE('', #104, 4.00000000000002);
#104 = AXIS2_PLACEMENT_3D('', #105, #106, #107);
#105 = CARTESIAN_POINT('', (-7., -3.94430452610507E-31, -83.));
#106 = DIRECTION('', (-9.86076131526265E-32, 1., 3.88938454866321E-62));
#107 = DIRECTION('', (2.66453525910037E-15, 2.62743462060902E-46, 1.));
#108 = ORIENTED_EDGE('', *, *, #109, .F.);
#109 = EDGE_CURVE('', #101, #101, #110, .T.);
#110 = CIRCLE('', #111, 2.99999999999999);
#111 = AXIS2_PLACEMENT_3D('', #112, #113, #114);
#112 = CARTESIAN_POINT('', (1.38777878078145E-17, 3.88578058618805E-16, -83.));
#113 = DIRECTION('', (0., 0., -1.));
#114 = DIRECTION('', (-1., -1.29526019539602E-16, 0.));
#115 = ORIENTED_EDGE('', *, *, #100, .F.);
#116 = ORIENTED_EDGE('', *, *, #83, .T.);
#117 = (
   BOUNDED_SURFACE ()
   B_SPLINE_SURFACE (2, 2, ((#118, #119, #120, #121, #122, #123, #124, #125, #126), (#127, #128, #129, #130, #131, #132, #133, #134, #135), (#136, #137, #138, #139, #140, #141, #142, #143, #144), (#145, #146, #147, #148, #149, #150, #151, #152, #153), (#154, #155, #156, #157, #158, #159, #160, #161, #162), (#163, #164, #165, #166, #167, #168, #169, #170, #171), (#172, #173, #174, #175, #176, #177, #178, #179, #180), (#181, #182, #183, #184, #185, #186, #187, #188, #189), (#190, #191, #192, #193, #194, #195, #196, #197, #198)), .UNSPECIFIED., .T., .T., .U.)
   B_SPLINE_SURFACE_WITH_KNOTS ((3, 2, 2, 2, 3), (3, 2, 2, 2, 3), (0., 0.25, 0.5, 0.75, 1.), (0., 0.25, 0.5, 0.75, 1.), .UNSPECIFIED.)
   GEOMETRIC_REPRESENTATION_ITEM ()
   RATIONAL_B_SPLINE_SURFACE (((1., 0.707106781186548, 1., 0.707106781186548, 1., 0.707106781186548, 1., 0.707106781186548, 1.), (0.707106781186548, 0.5, 0.707106781186548, 0.5, 0.707106781186548, 0.5, 0.707106781186548, 0.5, 0.707106781186548), (1., 0.707106781186548, 1., 0.707106781186548, 1., 0.707106781186548, 1., 0.707106781186548, 1.), (0.707106781186548, 0.5, 0.707106781186548, 0.5, 0.707106781186548, 0.5, 0.707106781186548, 0.5, 0.707106781186548), (1., 0.707106781186548, 1., 0.707106781186548, 1., 0.707106781186548, 1., 0.707106781186548, 1.), (0.707106781186548, 0.5, 0.707106781186548, 0.5, 0.707106781186548, 0.5, 0.707106781186548, 0.5, 0.707106781186548), (1., 0.707106781186548, 1., 0.707106781186548, 1., 0.707106781186548, 1., 0.707106781186548, 1.), (0.707106781186548, 0.5, 0.707106781186548, 0.5, 0.707106781186548, 0.5, 0.707106781186548, 0.5, 0.707106781186548), (1., 0.707106781186548, 1., 0.707106781186548, 1., 0.707106781186548, 1., 0.707106781186548, 1.)))
   REPRESENTATION_ITEM ('')
   SURFACE ()
);
#118 = CARTESIAN_POINT('', (-11., 0., -83.));
#119 = CARTESIAN_POINT('', (-11., 0., -87.));
#120 = CARTESIAN_POINT('', (-6.99999999999999, -3.94430452610506E-31, -87.));
#121 = CARTESIAN_POINT('', (-2.99999999999999, 0., -87.));
#122 = CARTESIAN_POINT('', (-2.99999999999999, 0., -83.));
#123 = CARTESIAN_POINT('', (-2.99999999999999, 0., -79.));
#124 = CARTESIAN_POINT('', (-6.99999999999999, -3.94430452610506E-31, -79.));
#125 = CARTESIAN_POINT('', (-11., 0., -79.));
#126 = CARTESIAN_POINT('', (-11., 0., -83.));
#127 = CARTESIAN_POINT('', (-11., -11., -83.));
#128 = CARTESIAN_POINT('', (-11., -11., -87.));
#129 = CARTESIAN_POINT('', (-6.99999999999999, -6.99999999999999, -87.));
#130 = CARTESIAN_POINT('', (-3., -2.99999999999999, -87.));
#131 = CARTESIAN_POINT('', (-2.99999999999999, -2.99999999999999, -83.));
#132 = CARTESIAN_POINT('', (-2.99999999999999, -2.99999999999999, -79.));
#133 = CARTESIAN_POINT('', (-6.99999999999999, -6.99999999999999, -79.));
#134 = CARTESIAN_POINT('', (-11., -11., -79.));
#135 = CARTESIAN_POINT('', (-11., -11., -83.));
#136 = CARTESIAN_POINT('', (-3.11604639370639E-15, -11., -83.));
#137 = CARTESIAN_POINT('', (-3.11604639370639E-15, -11., -87.));
#138 = CARTESIAN_POINT('', (-2.87111703387692E-15, -6.99999999999999, -87.));
#139 = CARTESIAN_POINT('', (-2.62618767404745E-15, -3., -87.));
#140 = CARTESIAN_POINT('', (-2.62618767404745E-15, -2.99999999999999, -83.));
#141 = CARTESIAN_POINT('', (-2.62618767404745E-15, -2.99999999999999, -79.));
#142 = CARTESIAN_POINT('', (-2.87111703387692E-15, -6.99999999999999, -79.));
#143 = CARTESIAN_POINT('', (-3.11604639370639E-15, -11., -79.));
#144 = CARTESIAN_POINT('', (-3.11604639370639E-15, -11., -83.));
#145 = CARTESIAN_POINT('', (11., -11., -83.));
#146 = CARTESIAN_POINT('', (11., -11., -87.));
#147 = CARTESIAN_POINT('', (6.99999999999999, -7., -87.));
#148 = CARTESIAN_POINT('', (2.99999999999999, -3., -87.));
#149 = CARTESIAN_POINT('', (2.99999999999999, -3., -83.));
#150 = CARTESIAN_POINT('', (2.99999999999999, -3., -79.));
#151 = CARTESIAN_POINT('', (6.99999999999999, -7., -79.));
#152 = CARTESIAN_POINT('', (11., -11., -79.));
#153 = CARTESIAN_POINT('', (11., -11., -83.));
#154 = CARTESIAN_POINT('', (11., -8.45253883666309E-15, -83.));
#155 = CARTESIAN_POINT('', (11., -8.45253883666309E-15, -87.));
#156 = CARTESIAN_POINT('', (6.99999999999999, -7.96268011700415E-15, -87.));
#157 = CARTESIAN_POINT('', (2.99999999999999, -7.47282139734521E-15, -87.));
#158 = CARTESIAN_POINT('', (2.99999999999999, -7.47282139734521E-15, -83.));
#159 = CARTESIAN_POINT('', (2.99999999999999, -7.47282139734521E-15, -79.));
#160 = CARTESIAN_POINT('', (6.99999999999999, -7.96268011700415E-15, -79.));
#161 = CARTESIAN_POINT('', (11., -8.45253883666309E-15, -79.));
#162 = CARTESIAN_POINT('', (11., -8.45253883666309E-15, -83.));
#163 = CARTESIAN_POINT('', (11., 11., -83.));
#164 = CARTESIAN_POINT('', (11., 11., -87.));
#165 = CARTESIAN_POINT('', (7., 6.99999999999998, -87.));
#166 = CARTESIAN_POINT('', (3., 2.99999999999998, -87.));
#167 = CARTESIAN_POINT('', (3., 2.99999999999998, -83.));
#168 = CARTESIAN_POINT('', (3., 2.99999999999998, -79.));
#169 = CARTESIAN_POINT('', (7., 6.99999999999998, -79.));
#170 = CARTESIAN_POINT('', (11., 11., -79.));
#171 = CARTESIAN_POINT('', (11., 11., -83.));
#172 = CARTESIAN_POINT('', (6.68360392201879E-15, 11., -83.));
#173 = CARTESIAN_POINT('', (6.68360392201879E-15, 11., -87.));
#174 = CARTESIAN_POINT('', (5.94881584253038E-15, 6.99999999999999, -87.));
#175 = CARTESIAN_POINT('', (5.21402776304196E-15, 2.99999999999999, -87.));
#176 = CARTESIAN_POINT('', (5.21402776304196E-15, 2.99999999999999, -83.));
#177 = CARTESIAN_POINT('', (5.21402776304196E-15, 2.99999999999999, -79.));
#178 = CARTESIAN_POINT('', (5.94881584253038E-15, 6.99999999999999, -79.));
#179 = CARTESIAN_POINT('', (6.68360392201879E-15, 11., -79.));
#180 = CARTESIAN_POINT('', (6.68360392201879E-15, 11., -83.));
#181 = CARTESIAN_POINT('', (-11., 11., -83.));
#182 = CARTESIAN_POINT('', (-11., 11., -87.));
#183 = CARTESIAN_POINT('', (-6.99999999999998, 6.99999999999999, -87.));
#184 = CARTESIAN_POINT('', (-2.99999999999999, 2.99999999999999, -87.));
#185 = CARTESIAN_POINT('', (-2.99999999999999, 2.99999999999999, -83.));
#186 = CARTESIAN_POINT('', (-2.99999999999998, 2.99999999999999, -79.));
#187 = CARTESIAN_POINT('', (-6.99999999999998, 6.99999999999999, -79.));
#188 = CARTESIAN_POINT('', (-11., 11., -79.));
#189 = CARTESIAN_POINT('', (-11., 11., -83.));
#190 = CARTESIAN_POINT('', (-11., 0., -83.));
#191 = CARTESIAN_POINT('', (-11., 0., -87.));
#192 = CARTESIAN_POINT('', (-6.99999999999999, -3.94430452610506E-31, -87.));
#193 = CARTESIAN_POINT('', (-2.99999999999999, 0., -87.));
#194 = CARTESIAN_POINT('', (-2.99999999999999, 0., -83.));
#195 = CARTESIAN_POINT('', (-2.99999999999999, 0., -79.));
#196 = CARTESIAN_POINT('', (-6.99999999999999, -3.94430452610506E-31, -79.));
#197 = CARTESIAN_POINT('', (-11., 0., -79.));
#198 = CARTESIAN_POINT('', (-11., 0., -83.));
#199 = ADVANCED_FACE('', (#200), #203, .T.);
#200 = FACE_OUTER_BOUND('', #201, .T.);
#201 = EDGE_LOOP('', (#202));
#202 = ORIENTED_EDGE('', *, *, #109, .T.);
#203 = B_SPLINE_SURFACE_WITH_KNOTS('', 1, 1, ((#204, #205), (#206, #207)), .UNSPECIFIED., .F., .F., .U., (2, 2), (2, 2), (-3.00099999999999, 3.00099999999999), (-6.00099999999999, 0.00099999999999012), .UNSPECIFIED.);
#204 = CARTESIAN_POINT('', (3.00099999999999, -3.00099999999999, -83.));
#205 = CARTESIAN_POINT('', (3.00099999999999, 3.00099999999999, -83.));
#206 = CARTESIAN_POINT('', (-3.00099999999999, -3.00099999999999, -83.));
#207 = CARTESIAN_POINT('', (-3.00099999999999, 3.00099999999999, -83.));
#208 = PRESENTATION_STYLE_ASSIGNMENT((#209));
#209 = SURFACE_STYLE_USAGE(.POSITIVE., #210);
#210 = SURFACE_SIDE_STYLE('', (#211));
#211 = SURFACE_STYLE_FILL_AREA(#212);
#212 = FILL_AREA_STYLE('', (#213));
#213 = FILL_AREA_STYLE_COLOUR('', #214);
#214 = COLOUR_RGB('', 0.8, 0.8, 0.8);
#215 = STYLED_ITEM('', (#208), #77);
#216 = TRIMMED_CURVE('cutting part line', #217, (#221), (#222), .T., .CARTESIAN.);
#217 = LINE('', #218, #219);
#218 = CARTESIAN_POINT('', (7., 0., -79.));
#219 = VECTOR('', #220, 7.);
#220 = DIRECTION('', (-7., 0., 0.));
#221 = CARTESIAN_POINT('', (7., 0., -79.));
#222 = CARTESIAN_POINT('', (-2.77555756156289E-17, 0., -79.));
#223 = TRIMMED_CURVE('cutting part line', #224, (#228), (#229), .T., .CARTESIAN.);
#224 = LINE('', #225, #226);
#225 = CARTESIAN_POINT('', (0., 0., -79.));
#226 = VECTOR('', #227, 4.);
#227 = DIRECTION('', (0., 0., -4.));
#228 = CARTESIAN_POINT('', (0., 0., -79.));
#229 = CARTESIAN_POINT('', (0., 0., -83.));
#230 = TRIMMED_CURVE('cutting part line', #231, (#235), (#236), .T., .CARTESIAN.);
#231 = LINE('', #232, #233);
#232 = CARTESIAN_POINT('', (2.91433543964104E-16, 0., -83.));
#233 = VECTOR('', #234, 2.99999999999999);
#234 = DIRECTION('', (2.99999999999999, 0., 0.));
#235 = CARTESIAN_POINT('', (2.91433543964104E-16, 0., -83.));
#236 = CARTESIAN_POINT('', (2.99999999999999, 0., -83.));
#237 = TRIMMED_CURVE('cutting part line', #238, (#243), (#244), .T., .CARTESIAN.);
#238 = CIRCLE('', #239, 4.00000000000002);
#239 = AXIS2_PLACEMENT_3D('', #240, #241, #242);
#240 = CARTESIAN_POINT('', (7.00000000000002, -6.59284873146056E-15, -83.));
#241 = DIRECTION('', (-6.93889390390725E-17, 1., -1.73472347597673E-18));
#242 = DIRECTION('', (-1., -6.93889390390725E-17, 3.55271367880048E-15));
#243 = CARTESIAN_POINT('', (2.99999999999999, -6.87040448761685E-15, -83.));
#244 = CARTESIAN_POINT('', (6.99999999999999, -6.58590983755666E-15, -79.));
#245 = COMPOSITE_CURVE('cutting part line', (#246, #247, #248, #249), .U.);
#246 = COMPOSITE_CURVE_SEGMENT(.CONTINUOUS., .T., #216);
#247 = COMPOSITE_CURVE_SEGMENT(.CONTINUOUS., .T., #223);
#248 = COMPOSITE_CURVE_SEGMENT(.CONTINUOUS., .T., #230);
#249 = COMPOSITE_CURVE_SEGMENT(.CONTINUOUS., .T., #237);
#250 = GEOMETRIC_SET('', (#245, #288));
#251 = PRESENTATION_STYLE_ASSIGNMENT((#252));
#252 = CURVE_STYLE('', #254, POSITIVE_LENGTH_MEASURE(1.E-6), #253);
#253 = COLOUR_RGB('', 0., 0., 1.);
#254 = DRAUGHTING_PRE_DEFINED_CURVE_FONT('continuous');
#255 = STYLED_ITEM('', (#251), #245);
#256 = PRESENTATION_STYLE_ASSIGNMENT((#257));
#257 = CURVE_STYLE('', #259, POSITIVE_LENGTH_MEASURE(1.E-6), #258);
#258 = COLOUR_RGB('', 0., 0., 1.);
#259 = DRAUGHTING_PRE_DEFINED_CURVE_FONT('continuous');
#260 = OVER_RIDING_STYLED_ITEM('', (#256), #216, #255);
#261 = PRESENTATION_STYLE_ASSIGNMENT((#262));
#262 = CURVE_STYLE('', #264, POSITIVE_LENGTH_MEASURE(1.E-6), #263);
#263 = COLOUR_RGB('', 0., 0., 1.);
#264 = DRAUGHTING_PRE_DEFINED_CURVE_FONT('continuous');
#265 = OVER_RIDING_STYLED_ITEM('', (#261), #223, #255);
#266 = PRESENTATION_STYLE_ASSIGNMENT((#267));
#267 = CURVE_STYLE('', #269, POSITIVE_LENGTH_MEASURE(1.E-6), #268);
#268 = COLOUR_RGB('', 0., 0., 1.);
#269 = DRAUGHTING_PRE_DEFINED_CURVE_FONT('continuous');
#270 = OVER_RIDING_STYLED_ITEM('', (#266), #230, #255);
#271 = PRESENTATION_STYLE_ASSIGNMENT((#272));
#272 = CURVE_STYLE('', #274, POSITIVE_LENGTH_MEASURE(1.E-6), #273);
#273 = COLOUR_RGB('', 0., 0., 1.);
#274 = DRAUGHTING_PRE_DEFINED_CURVE_FONT('continuous');
#275 = OVER_RIDING_STYLED_ITEM('', (#271), #237, #255);
#276 = AXIS2_PLACEMENT_3D('MCS', #277, #278, #279);
#277 = CARTESIAN_POINT('', (0., 0., -45.));
#278 = DIRECTION('', (0., 0., 1.));
#279 = DIRECTION('', (1., 0., 0.));
#280 = AXIS2_PLACEMENT_3D('PCS', #281, #282, #283);
#281 = CARTESIAN_POINT('', (0., 0., 0.));
#282 = DIRECTION('', (0., 0., 1.));
#283 = DIRECTION('', (1., 0., 0.));
#284 = AXIS2_PLACEMENT_3D('CIP', #285, #286, #287);
#285 = CARTESIAN_POINT('', (0., 0., -83.));
#286 = DIRECTION('', (0., 0., 1.));
#287 = DIRECTION('', (1., 0., 0.));
#288 = CARTESIAN_POINT('CRP', (3., 0., -83.));
#289 = (
   GEOMETRIC_REPRESENTATION_CONTEXT (3)
   GLOBAL_UNCERTAINTY_ASSIGNED_CONTEXT ((#291))
   GLOBAL_UNIT_ASSIGNED_CONTEXT ((#290, #292, #293))
   REPRESENTATION_CONTEXT ('', '3D')
);
#290 = (
   LENGTH_UNIT ()
   NAMED_UNIT (*)
   SI_UNIT (.MILLI., .METRE.)
);
#291 = UNCERTAINTY_MEASURE_WITH_UNIT(LENGTH_MEASURE(1.E-6), #290, 'DISTANCE_ACCURACY_VALUE', '');
#292 = (
   NAMED_UNIT (*)
   SI_UNIT ($, .STERADIAN.)
   SOLID_ANGLE_UNIT ()
);
#293 = (
   NAMED_UNIT (*)
   PLANE_ANGLE_UNIT ()
   SI_UNIT ($, .RADIAN.)
);
#294 = SHAPE_REPRESENTATION('', (), #289);
#295 = PRODUCT_DEFINITION_SHAPE('', '', #296);
#296 = PRODUCT_DEFINITION('', '', #299, #303);
#297 = APPLICATION_CONTEXT('configuration controlled 3D designs of mechanical parts and assemblies');
#298 = APPLICATION_PROTOCOL_DEFINITION('International Standard', 'automotive_design', 2002, #297);
#299 = PRODUCT_DEFINITION_FORMATION_WITH_SPECIFIED_SOURCE('', '', #300, .NOT_KNOWN.);
#300 = PRODUCT('titg2DF09776fbwn', '1U000-0600-400-XA   1620', '', (#301));
#301 = PRODUCT_CONTEXT('', #297, 'mechanical');
#302 = PRODUCT_RELATED_PRODUCT_CATEGORY('detail', '', (#300));
#303 = PRODUCT_DEFINITION_CONTEXT('part definition', #297, 'design');
#304 = SHAPE_DEFINITION_REPRESENTATION(#295, #294);
#305 = CONSTRUCTIVE_GEOMETRY_REPRESENTATION('supplemental geometry', (#276, #280, #284), #289);
#306 = CONSTRUCTIVE_GEOMETRY_REPRESENTATION_RELATIONSHIP('', '', #294, #305);
#307 = SHAPE_REPRESENTATION_RELATIONSHIP('', '', #294, #308);
#308 = SHAPE_REPRESENTATION('', (#250), #289);
#309 = SHAPE_REPRESENTATION_RELATIONSHIP('', '', #294, #310);
#310 = ADVANCED_BREP_SHAPE_REPRESENTATION('', (#1, #77), #289);
ENDSEC;
END-ISO-10303-21;
