ISO-10303-21;
HEADER;
FILE_DESCRIPTION(('STEP'), '1');
FILE_NAME('C:\\Users\\ds2002\\OneDrive - Sandvik\\HomeShare\\Documents\\Batchrepair\\CorSRT2\\NEW_MILPR_SLDQC\\Output28.11\\MOD000000000000000020082280800000.stp', '2018-11-28T15:14:33', (''), (''), 'Express v3.0.0.0', 'Express Tool', 'Unknown');
FILE_SCHEMA(('AUTOMOTIVE_DESIGN'));
ENDSEC;

DATA;
#1 = MANIFOLD_SOLID_BREP('NOCUT', #2);
#2 = CLOSED_SHELL('', (#3, #20, #59));
#3 = ADVANCED_FACE('', (#4), #15, .T.);
#4 = FACE_OUTER_BOUND('', #5, .T.);
#5 = EDGE_LOOP('', (#6));
#6 = ORIENTED_EDGE('', *, *, #7, .F.);
#7 = EDGE_CURVE('', #8, #8, #10, .T.);
#8 = VERTEX_POINT('', #9);
#9 = CARTESIAN_POINT('', (-5., 0., 0.));
#10 = CIRCLE('', #11, 5.);
#11 = AXIS2_PLACEMENT_3D('', #12, #13, #14);
#12 = CARTESIAN_POINT('', (-1.12410081243297E-15, 6.66133814775094E-16, 0.));
#13 = DIRECTION('', (0., 0., -1.));
#14 = DIRECTION('', (-1., -1.33226762955019E-16, 0.));
#15 = B_SPLINE_SURFACE_WITH_KNOTS('', 1, 1, ((#16, #17), (#18, #19)), .UNSPECIFIED., .F., .F., .U., (2, 2), (2, 2), (-5.001, 5.001), (-5.00100000000001, 5.001), .UNSPECIFIED.);
#16 = CARTESIAN_POINT('', (-5.001, -5.001, 0.));
#17 = CARTESIAN_POINT('', (-5.001, 5.001, 0.));
#18 = CARTESIAN_POINT('', (5.001, -5.001, 0.));
#19 = CARTESIAN_POINT('', (5.001, 5.001, 0.));
#20 = ADVANCED_FACE('', (#21), #40, .T.);
#21 = FACE_OUTER_BOUND('', #22, .T.);
#22 = EDGE_LOOP('', (#23, #31, #32, #33));
#23 = ORIENTED_EDGE('', *, *, #24, .T.);
#24 = EDGE_CURVE('', #25, #8, #27, .T.);
#25 = VERTEX_POINT('', #26);
#26 = CARTESIAN_POINT('', (-5., 0., -69.5));
#27 = LINE('', #28, #29);
#28 = CARTESIAN_POINT('', (-5., 0., -69.5));
#29 = VECTOR('', #30, 69.5);
#30 = DIRECTION('', (0., 0., 69.5));
#31 = ORIENTED_EDGE('', *, *, #7, .T.);
#32 = ORIENTED_EDGE('', *, *, #24, .F.);
#33 = ORIENTED_EDGE('', *, *, #34, .F.);
#34 = EDGE_CURVE('', #25, #25, #35, .T.);
#35 = CIRCLE('', #36, 5.);
#36 = AXIS2_PLACEMENT_3D('', #37, #38, #39);
#37 = CARTESIAN_POINT('', (-1.12410081243297E-15, 6.66133814775094E-16, -69.5));
#38 = DIRECTION('', (0., 0., -1.));
#39 = DIRECTION('', (-1., -1.33226762955019E-16, 0.));
#40 = (
   BOUNDED_SURFACE ()
   B_SPLINE_SURFACE (2, 1, ((#41, #42), (#43, #44), (#45, #46), (#47, #48), (#49, #50), (#51, #52), (#53, #54), (#55, #56), (#57, #58)), .UNSPECIFIED., .T., .F., .U.)
   B_SPLINE_SURFACE_WITH_KNOTS ((3, 2, 2, 2, 3), (2, 2), (0., 0.25, 0.5, 0.75, 1.), (0., 1.), .UNSPECIFIED.)
   GEOMETRIC_REPRESENTATION_ITEM ()
   RATIONAL_B_SPLINE_SURFACE (((1., 1.), (0.707106781186548, 0.707106781186548), (1., 1.), (0.707106781186548, 0.707106781186548), (1., 1.), (0.707106781186548, 0.707106781186548), (1., 1.), (0.707106781186548, 0.707106781186548), (1., 1.)))
   REPRESENTATION_ITEM ('')
   SURFACE ()
);
#41 = CARTESIAN_POINT('', (-5., 0., 6.9512));
#42 = CARTESIAN_POINT('', (-5., 0., -76.4512));
#43 = CARTESIAN_POINT('', (-5., 5., 6.9512));
#44 = CARTESIAN_POINT('', (-5., 5., -76.4512));
#45 = CARTESIAN_POINT('', (-9.72295514561932E-16, 5., 6.9512));
#46 = CARTESIAN_POINT('', (-9.72295514561932E-16, 5., -76.4512));
#47 = CARTESIAN_POINT('', (5., 5., 6.9512));
#48 = CARTESIAN_POINT('', (5., 5., -76.4512));
#49 = CARTESIAN_POINT('', (5., 1.5005018192738E-15, 6.9512));
#50 = CARTESIAN_POINT('', (5., 1.5005018192738E-15, -76.4512));
#51 = CARTESIAN_POINT('', (5., -5., 6.9512));
#52 = CARTESIAN_POINT('', (5., -5., -76.4512));
#53 = CARTESIAN_POINT('', (1.14052970428555E-15, -5., 6.9512));
#54 = CARTESIAN_POINT('', (1.14052970428555E-15, -5., -76.4512));
#55 = CARTESIAN_POINT('', (-5., -5., 6.9512));
#56 = CARTESIAN_POINT('', (-5., -5., -76.4512));
#57 = CARTESIAN_POINT('', (-5., 0., 6.9512));
#58 = CARTESIAN_POINT('', (-5., 0., -76.4512));
#59 = ADVANCED_FACE('', (#60), #63, .T.);
#60 = FACE_OUTER_BOUND('', #61, .T.);
#61 = EDGE_LOOP('', (#62));
#62 = ORIENTED_EDGE('', *, *, #34, .T.);
#63 = B_SPLINE_SURFACE_WITH_KNOTS('', 1, 1, ((#64, #65), (#66, #67)), .UNSPECIFIED., .F., .F., .U., (2, 2), (2, 2), (-5.001, 5.001), (-10.001, 0.00100000000000033), .UNSPECIFIED.);
#64 = CARTESIAN_POINT('', (5.001, -5.001, -69.5));
#65 = CARTESIAN_POINT('', (5.001, 5.001, -69.5));
#66 = CARTESIAN_POINT('', (-5.001, -5.001, -69.5));
#67 = CARTESIAN_POINT('', (-5.001, 5.001, -69.5));
#68 = DRAUGHTING_MODEL('', (#76, #215, #255, #260, #265, #270, #275), #289);
#69 = PRESENTATION_STYLE_ASSIGNMENT((#70));
#70 = SURFACE_STYLE_USAGE(.POSITIVE., #71);
#71 = SURFACE_SIDE_STYLE('', (#72));
#72 = SURFACE_STYLE_FILL_AREA(#73);
#73 = FILL_AREA_STYLE('', (#74));
#74 = FILL_AREA_STYLE_COLOUR('', #75);
#75 = COLOUR_RGB('', 0.50196078431373, 0.50196078431373, 0.50196078431373);
#76 = STYLED_ITEM('', (#69), #1);
#77 = MANIFOLD_SOLID_BREP('CUT', #78);
#78 = CLOSED_SHELL('', (#79, #96, #199));
#79 = ADVANCED_FACE('', (#80), #91, .T.);
#80 = FACE_OUTER_BOUND('', #81, .T.);
#81 = EDGE_LOOP('', (#82));
#82 = ORIENTED_EDGE('', *, *, #83, .F.);
#83 = EDGE_CURVE('', #84, #84, #86, .T.);
#84 = VERTEX_POINT('', #85);
#85 = CARTESIAN_POINT('', (-5., 0., -69.5));
#86 = CIRCLE('', #87, 5.);
#87 = AXIS2_PLACEMENT_3D('', #88, #89, #90);
#88 = CARTESIAN_POINT('', (-1.12410081243297E-15, 6.66133814775094E-16, -69.5));
#89 = DIRECTION('', (0., 0., -1.));
#90 = DIRECTION('', (-1., -1.33226762955019E-16, 0.));
#91 = B_SPLINE_SURFACE_WITH_KNOTS('', 1, 1, ((#92, #93), (#94, #95)), .UNSPECIFIED., .F., .F., .U., (2, 2), (2, 2), (-5.001, 5.001), (-5.001, 5.001), .UNSPECIFIED.);
#92 = CARTESIAN_POINT('', (-5.001, -5.001, -69.5));
#93 = CARTESIAN_POINT('', (-5.001, 5.001, -69.5));
#94 = CARTESIAN_POINT('', (5.001, -5.001, -69.5));
#95 = CARTESIAN_POINT('', (5.001, 5.001, -69.5));
#96 = ADVANCED_FACE('', (#97), #117, .T.);
#97 = FACE_OUTER_BOUND('', #98, .T.);
#98 = EDGE_LOOP('', (#99, #108, #115, #116));
#99 = ORIENTED_EDGE('', *, *, #100, .T.);
#100 = EDGE_CURVE('', #84, #101, #103, .T.);
#101 = VERTEX_POINT('', #102);
#102 = CARTESIAN_POINT('', (-2.50000000000001, 0., -72.));
#103 = CIRCLE('', #104, 2.49999999999996);
#104 = AXIS2_PLACEMENT_3D('', #105, #106, #107);
#105 = CARTESIAN_POINT('', (-4.99999999999997, 0., -72.));
#106 = DIRECTION('', (0., 1., 0.));
#107 = DIRECTION('', (-3.55271367880056E-15, 0., 1.));
#108 = ORIENTED_EDGE('', *, *, #109, .F.);
#109 = EDGE_CURVE('', #101, #101, #110, .T.);
#110 = CIRCLE('', #111, 2.50000000000001);
#111 = AXIS2_PLACEMENT_3D('', #112, #113, #114);
#112 = CARTESIAN_POINT('', (7.35522753814166E-16, -4.9960036108132E-16, -72.));
#113 = DIRECTION('', (0., 0., -1.));
#114 = DIRECTION('', (-1., 1.99840144432527E-16, 0.));
#115 = ORIENTED_EDGE('', *, *, #100, .F.);
#116 = ORIENTED_EDGE('', *, *, #83, .T.);
#117 = (
   BOUNDED_SURFACE ()
   B_SPLINE_SURFACE (2, 2, ((#118, #119, #120, #121, #122, #123, #124, #125, #126), (#127, #128, #129, #130, #131, #132, #133, #134, #135), (#136, #137, #138, #139, #140, #141, #142, #143, #144), (#145, #146, #147, #148, #149, #150, #151, #152, #153), (#154, #155, #156, #157, #158, #159, #160, #161, #162), (#163, #164, #165, #166, #167, #168, #169, #170, #171), (#172, #173, #174, #175, #176, #177, #178, #179, #180), (#181, #182, #183, #184, #185, #186, #187, #188, #189), (#190, #191, #192, #193, #194, #195, #196, #197, #198)), .UNSPECIFIED., .T., .T., .U.)
   B_SPLINE_SURFACE_WITH_KNOTS ((3, 2, 2, 2, 3), (3, 2, 2, 2, 3), (0., 0.25, 0.5, 0.75, 1.), (0., 0.25, 0.5, 0.75, 1.), .UNSPECIFIED.)
   GEOMETRIC_REPRESENTATION_ITEM ()
   RATIONAL_B_SPLINE_SURFACE (((1., 0.707106781186548, 1., 0.707106781186548, 1., 0.707106781186548, 1., 0.707106781186548, 1.), (0.707106781186548, 0.5, 0.707106781186548, 0.5, 0.707106781186548, 0.5, 0.707106781186548, 0.5, 0.707106781186548), (1., 0.707106781186548, 1., 0.707106781186548, 1., 0.707106781186548, 1., 0.707106781186548, 1.), (0.707106781186548, 0.5, 0.707106781186548, 0.5, 0.707106781186548, 0.5, 0.707106781186548, 0.5, 0.707106781186548), (1., 0.707106781186548, 1., 0.707106781186548, 1., 0.707106781186548, 1., 0.707106781186548, 1.), (0.707106781186548, 0.5, 0.707106781186548, 0.5, 0.707106781186548, 0.5, 0.707106781186548, 0.5, 0.707106781186548), (1., 0.707106781186548, 1., 0.707106781186548, 1., 0.707106781186548, 1., 0.707106781186548, 1.), (0.707106781186548, 0.5, 0.707106781186548, 0.5, 0.707106781186548, 0.5, 0.707106781186548, 0.5, 0.707106781186548), (1., 0.707106781186548, 1., 0.707106781186548, 1., 0.707106781186548, 1., 0.707106781186548, 1.)))
   REPRESENTATION_ITEM ('')
   SURFACE ()
);
#118 = CARTESIAN_POINT('', (-7.49999999999995, 0., -72.));
#119 = CARTESIAN_POINT('', (-7.49999999999995, 0., -74.5));
#120 = CARTESIAN_POINT('', (-4.99999999999998, 0., -74.5));
#121 = CARTESIAN_POINT('', (-2.50000000000001, 0., -74.5));
#122 = CARTESIAN_POINT('', (-2.50000000000001, 0., -72.));
#123 = CARTESIAN_POINT('', (-2.50000000000001, 0., -69.5));
#124 = CARTESIAN_POINT('', (-4.99999999999998, 0., -69.5));
#125 = CARTESIAN_POINT('', (-7.49999999999995, 0., -69.5));
#126 = CARTESIAN_POINT('', (-7.49999999999995, 0., -72.));
#127 = CARTESIAN_POINT('', (-7.49999999999995, -7.49999999999995, -72.));
#128 = CARTESIAN_POINT('', (-7.49999999999995, -7.49999999999995, -74.5));
#129 = CARTESIAN_POINT('', (-4.99999999999998, -4.99999999999998, -74.5));
#130 = CARTESIAN_POINT('', (-2.50000000000001, -2.50000000000001, -74.5));
#131 = CARTESIAN_POINT('', (-2.50000000000001, -2.50000000000001, -72.));
#132 = CARTESIAN_POINT('', (-2.50000000000001, -2.50000000000001, -69.5));
#133 = CARTESIAN_POINT('', (-4.99999999999998, -4.99999999999998, -69.5));
#134 = CARTESIAN_POINT('', (-7.49999999999995, -7.49999999999995, -69.5));
#135 = CARTESIAN_POINT('', (-7.49999999999995, -7.49999999999995, -72.));
#136 = CARTESIAN_POINT('', (-9.58842910761575E-16, -7.49999999999995, -72.));
#137 = CARTESIAN_POINT('', (-9.58842910761575E-16, -7.49999999999995, -74.5));
#138 = CARTESIAN_POINT('', (-8.05762060868158E-16, -4.99999999999998, -74.5));
#139 = CARTESIAN_POINT('', (-6.5268121097474E-16, -2.50000000000001, -74.5));
#140 = CARTESIAN_POINT('', (-6.5268121097474E-16, -2.50000000000001, -72.));
#141 = CARTESIAN_POINT('', (-6.5268121097474E-16, -2.50000000000001, -69.5));
#142 = CARTESIAN_POINT('', (-8.05762060868158E-16, -4.99999999999998, -69.5));
#143 = CARTESIAN_POINT('', (-9.58842910761575E-16, -7.49999999999995, -69.5));
#144 = CARTESIAN_POINT('', (-9.58842910761575E-16, -7.49999999999995, -72.));
#145 = CARTESIAN_POINT('', (7.49999999999995, -7.49999999999995, -72.));
#146 = CARTESIAN_POINT('', (7.49999999999995, -7.49999999999995, -74.5));
#147 = CARTESIAN_POINT('', (4.99999999999998, -4.99999999999998, -74.5));
#148 = CARTESIAN_POINT('', (2.50000000000001, -2.50000000000001, -74.5));
#149 = CARTESIAN_POINT('', (2.50000000000001, -2.50000000000001, -72.));
#150 = CARTESIAN_POINT('', (2.50000000000001, -2.50000000000001, -69.5));
#151 = CARTESIAN_POINT('', (4.99999999999998, -4.99999999999998, -69.5));
#152 = CARTESIAN_POINT('', (7.49999999999995, -7.49999999999995, -69.5));
#153 = CARTESIAN_POINT('', (7.49999999999995, -7.49999999999995, -72.));
#154 = CARTESIAN_POINT('', (7.49999999999995, -3.58302035846088E-15, -72.));
#155 = CARTESIAN_POINT('', (7.49999999999995, -3.58302035846088E-15, -74.5));
#156 = CARTESIAN_POINT('', (4.99999999999998, -3.27685865867405E-15, -74.5));
#157 = CARTESIAN_POINT('', (2.50000000000001, -2.97069695888722E-15, -74.5));
#158 = CARTESIAN_POINT('', (2.50000000000001, -2.97069695888722E-15, -72.));
#159 = CARTESIAN_POINT('', (2.50000000000001, -2.97069695888722E-15, -69.5));
#160 = CARTESIAN_POINT('', (4.99999999999998, -3.27685865867405E-15, -69.5));
#161 = CARTESIAN_POINT('', (7.49999999999995, -3.58302035846088E-15, -69.5));
#162 = CARTESIAN_POINT('', (7.49999999999995, -3.58302035846088E-15, -72.));
#163 = CARTESIAN_POINT('', (7.49999999999995, 7.49999999999994, -72.));
#164 = CARTESIAN_POINT('', (7.49999999999995, 7.49999999999994, -74.5));
#165 = CARTESIAN_POINT('', (4.99999999999998, 4.99999999999998, -74.5));
#166 = CARTESIAN_POINT('', (2.50000000000001, 2.50000000000001, -74.5));
#167 = CARTESIAN_POINT('', (2.50000000000001, 2.50000000000001, -72.));
#168 = CARTESIAN_POINT('', (2.50000000000001, 2.50000000000001, -69.5));
#169 = CARTESIAN_POINT('', (4.99999999999998, 4.99999999999998, -69.5));
#170 = CARTESIAN_POINT('', (7.49999999999995, 7.49999999999994, -69.5));
#171 = CARTESIAN_POINT('', (7.49999999999995, 7.49999999999994, -72.));
#172 = CARTESIAN_POINT('', (3.54266254705982E-15, 7.49999999999995, -72.));
#173 = CARTESIAN_POINT('', (3.54266254705982E-15, 7.49999999999995, -74.5));
#174 = CARTESIAN_POINT('', (3.08341999737957E-15, 4.99999999999998, -74.5));
#175 = CARTESIAN_POINT('', (2.62417744769931E-15, 2.50000000000001, -74.5));
#176 = CARTESIAN_POINT('', (2.62417744769931E-15, 2.50000000000001, -72.));
#177 = CARTESIAN_POINT('', (2.62417744769931E-15, 2.50000000000001, -69.5));
#178 = CARTESIAN_POINT('', (3.08341999737957E-15, 4.99999999999998, -69.5));
#179 = CARTESIAN_POINT('', (3.54266254705982E-15, 7.49999999999995, -69.5));
#180 = CARTESIAN_POINT('', (3.54266254705982E-15, 7.49999999999995, -72.));
#181 = CARTESIAN_POINT('', (-7.49999999999994, 7.49999999999995, -72.));
#182 = CARTESIAN_POINT('', (-7.49999999999994, 7.49999999999995, -74.5));
#183 = CARTESIAN_POINT('', (-4.99999999999998, 4.99999999999998, -74.5));
#184 = CARTESIAN_POINT('', (-2.50000000000001, 2.50000000000001, -74.5));
#185 = CARTESIAN_POINT('', (-2.50000000000001, 2.50000000000001, -72.));
#186 = CARTESIAN_POINT('', (-2.50000000000001, 2.50000000000001, -69.5));
#187 = CARTESIAN_POINT('', (-4.99999999999998, 4.99999999999998, -69.5));
#188 = CARTESIAN_POINT('', (-7.49999999999994, 7.49999999999995, -69.5));
#189 = CARTESIAN_POINT('', (-7.49999999999994, 7.49999999999995, -72.));
#190 = CARTESIAN_POINT('', (-7.49999999999995, 0., -72.));
#191 = CARTESIAN_POINT('', (-7.49999999999995, 0., -74.5));
#192 = CARTESIAN_POINT('', (-4.99999999999998, 0., -74.5));
#193 = CARTESIAN_POINT('', (-2.50000000000001, 0., -74.5));
#194 = CARTESIAN_POINT('', (-2.50000000000001, 0., -72.));
#195 = CARTESIAN_POINT('', (-2.50000000000001, 0., -69.5));
#196 = CARTESIAN_POINT('', (-4.99999999999998, 0., -69.5));
#197 = CARTESIAN_POINT('', (-7.49999999999995, 0., -69.5));
#198 = CARTESIAN_POINT('', (-7.49999999999995, 0., -72.));
#199 = ADVANCED_FACE('', (#200), #203, .T.);
#200 = FACE_OUTER_BOUND('', #201, .T.);
#201 = EDGE_LOOP('', (#202));
#202 = ORIENTED_EDGE('', *, *, #109, .T.);
#203 = B_SPLINE_SURFACE_WITH_KNOTS('', 1, 1, ((#204, #205), (#206, #207)), .UNSPECIFIED., .F., .F., .U., (2, 2), (2, 2), (-2.50100000000001, 2.50100000000001), (-5.00100000000001, 0.00100000000001055), .UNSPECIFIED.);
#204 = CARTESIAN_POINT('', (2.50100000000001, -2.50100000000001, -72.));
#205 = CARTESIAN_POINT('', (2.50100000000001, 2.50100000000001, -72.));
#206 = CARTESIAN_POINT('', (-2.50100000000001, -2.50100000000001, -72.));
#207 = CARTESIAN_POINT('', (-2.50100000000001, 2.50100000000001, -72.));
#208 = PRESENTATION_STYLE_ASSIGNMENT((#209));
#209 = SURFACE_STYLE_USAGE(.POSITIVE., #210);
#210 = SURFACE_SIDE_STYLE('', (#211));
#211 = SURFACE_STYLE_FILL_AREA(#212);
#212 = FILL_AREA_STYLE('', (#213));
#213 = FILL_AREA_STYLE_COLOUR('', #214);
#214 = COLOUR_RGB('', 0.8, 0.8, 0.8);
#215 = STYLED_ITEM('', (#208), #77);
#216 = TRIMMED_CURVE('cutting part line', #217, (#221), (#222), .T., .CARTESIAN.);
#217 = LINE('', #218, #219);
#218 = CARTESIAN_POINT('', (5., 0., -69.5));
#219 = VECTOR('', #220, 5.);
#220 = DIRECTION('', (-5., 0., 0.));
#221 = CARTESIAN_POINT('', (5., 0., -69.5));
#222 = CARTESIAN_POINT('', (0., 0., -69.5));
#223 = TRIMMED_CURVE('cutting part line', #224, (#228), (#229), .T., .CARTESIAN.);
#224 = LINE('', #225, #226);
#225 = CARTESIAN_POINT('', (0., 0., -69.5));
#226 = VECTOR('', #227, 2.5);
#227 = DIRECTION('', (0., 0., -2.5));
#228 = CARTESIAN_POINT('', (0., 0., -69.5));
#229 = CARTESIAN_POINT('', (0., 0., -72.));
#230 = TRIMMED_CURVE('cutting part line', #231, (#235), (#236), .T., .CARTESIAN.);
#231 = LINE('', #232, #233);
#232 = CARTESIAN_POINT('', (-9.71445146547012E-17, 0., -72.));
#233 = VECTOR('', #234, 2.50000000000001);
#234 = DIRECTION('', (2.50000000000001, 0., 0.));
#235 = CARTESIAN_POINT('', (-9.71445146547012E-17, 0., -72.));
#236 = CARTESIAN_POINT('', (2.50000000000001, 0., -72.));
#237 = TRIMMED_CURVE('cutting part line', #238, (#243), (#244), .T., .CARTESIAN.);
#238 = CIRCLE('', #239, 2.5);
#239 = AXIS2_PLACEMENT_3D('', #240, #241, #242);
#240 = CARTESIAN_POINT('', (5.00000000000001, -2.28897781768789E-15, -72.));
#241 = DIRECTION('', (-7.21644966006361E-17, 1., -7.6297325987171E-32));
#242 = DIRECTION('', (-1., -7.21644966006361E-17, 5.68434188608081E-15));
#243 = CARTESIAN_POINT('', (2.50000000000001, -2.46938905918948E-15, -72.));
#244 = CARTESIAN_POINT('', (4.99999999999998, -2.2889778176879E-15, -69.5));
#245 = COMPOSITE_CURVE('cutting part line', (#246, #247, #248, #249), .U.);
#246 = COMPOSITE_CURVE_SEGMENT(.CONTINUOUS., .T., #216);
#247 = COMPOSITE_CURVE_SEGMENT(.CONTINUOUS., .T., #223);
#248 = COMPOSITE_CURVE_SEGMENT(.CONTINUOUS., .T., #230);
#249 = COMPOSITE_CURVE_SEGMENT(.CONTINUOUS., .T., #237);
#250 = GEOMETRIC_SET('', (#245, #288));
#251 = PRESENTATION_STYLE_ASSIGNMENT((#252));
#252 = CURVE_STYLE('', #254, POSITIVE_LENGTH_MEASURE(1.E-6), #253);
#253 = COLOUR_RGB('', 0., 0., 1.);
#254 = DRAUGHTING_PRE_DEFINED_CURVE_FONT('continuous');
#255 = STYLED_ITEM('', (#251), #245);
#256 = PRESENTATION_STYLE_ASSIGNMENT((#257));
#257 = CURVE_STYLE('', #259, POSITIVE_LENGTH_MEASURE(1.E-6), #258);
#258 = COLOUR_RGB('', 0., 0., 1.);
#259 = DRAUGHTING_PRE_DEFINED_CURVE_FONT('continuous');
#260 = OVER_RIDING_STYLED_ITEM('', (#256), #216, #255);
#261 = PRESENTATION_STYLE_ASSIGNMENT((#262));
#262 = CURVE_STYLE('', #264, POSITIVE_LENGTH_MEASURE(1.E-6), #263);
#263 = COLOUR_RGB('', 0., 0., 1.);
#264 = DRAUGHTING_PRE_DEFINED_CURVE_FONT('continuous');
#265 = OVER_RIDING_STYLED_ITEM('', (#261), #223, #255);
#266 = PRESENTATION_STYLE_ASSIGNMENT((#267));
#267 = CURVE_STYLE('', #269, POSITIVE_LENGTH_MEASURE(1.E-6), #268);
#268 = COLOUR_RGB('', 0., 0., 1.);
#269 = DRAUGHTING_PRE_DEFINED_CURVE_FONT('continuous');
#270 = OVER_RIDING_STYLED_ITEM('', (#266), #230, #255);
#271 = PRESENTATION_STYLE_ASSIGNMENT((#272));
#272 = CURVE_STYLE('', #274, POSITIVE_LENGTH_MEASURE(1.E-6), #273);
#273 = COLOUR_RGB('', 0., 0., 1.);
#274 = DRAUGHTING_PRE_DEFINED_CURVE_FONT('continuous');
#275 = OVER_RIDING_STYLED_ITEM('', (#271), #237, #255);
#276 = AXIS2_PLACEMENT_3D('MCS', #277, #278, #279);
#277 = CARTESIAN_POINT('', (0., 0., -40.));
#278 = DIRECTION('', (0., 0., 1.));
#279 = DIRECTION('', (1., 0., 0.));
#280 = AXIS2_PLACEMENT_3D('PCS', #281, #282, #283);
#281 = CARTESIAN_POINT('', (0., 0., 0.));
#282 = DIRECTION('', (0., 0., 1.));
#283 = DIRECTION('', (1., 0., 0.));
#284 = AXIS2_PLACEMENT_3D('CIP', #285, #286, #287);
#285 = CARTESIAN_POINT('', (0., 0., -72.));
#286 = DIRECTION('', (0., 0., 1.));
#287 = DIRECTION('', (1., 0., 0.));
#288 = CARTESIAN_POINT('CRP', (2.5, 0., -72.));
#289 = (
   GEOMETRIC_REPRESENTATION_CONTEXT (3)
   GLOBAL_UNCERTAINTY_ASSIGNED_CONTEXT ((#291))
   GLOBAL_UNIT_ASSIGNED_CONTEXT ((#290, #292, #293))
   REPRESENTATION_CONTEXT ('', '3D')
);
#290 = (
   LENGTH_UNIT ()
   NAMED_UNIT (*)
   SI_UNIT (.MILLI., .METRE.)
);
#291 = UNCERTAINTY_MEASURE_WITH_UNIT(LENGTH_MEASURE(1.E-6), #290, 'DISTANCE_ACCURACY_VALUE', '');
#292 = (
   NAMED_UNIT (*)
   SI_UNIT ($, .STERADIAN.)
   SOLID_ANGLE_UNIT ()
);
#293 = (
   NAMED_UNIT (*)
   PLANE_ANGLE_UNIT ()
   SI_UNIT ($, .RADIAN.)
);
#294 = SHAPE_REPRESENTATION('', (), #289);
#295 = PRODUCT_DEFINITION_SHAPE('', '', #296);
#296 = PRODUCT_DEFINITION('', '', #299, #303);
#297 = APPLICATION_CONTEXT('configuration controlled 3D designs of mechanical parts and assemblies');
#298 = APPLICATION_PROTOCOL_DEFINITION('International Standard', 'automotive_design', 2002, #297);
#299 = PRODUCT_DEFINITION_FORMATION_WITH_SPECIFIED_SOURCE('', '', #300, .NOT_KNOWN.);
#300 = PRODUCT('titg21C84430y26o', '1U000-0500-250-XA   1620', '', (#301));
#301 = PRODUCT_CONTEXT('', #297, 'mechanical');
#302 = PRODUCT_RELATED_PRODUCT_CATEGORY('detail', '', (#300));
#303 = PRODUCT_DEFINITION_CONTEXT('part definition', #297, 'design');
#304 = SHAPE_DEFINITION_REPRESENTATION(#295, #294);
#305 = CONSTRUCTIVE_GEOMETRY_REPRESENTATION('supplemental geometry', (#276, #280, #284), #289);
#306 = CONSTRUCTIVE_GEOMETRY_REPRESENTATION_RELATIONSHIP('', '', #294, #305);
#307 = SHAPE_REPRESENTATION_RELATIONSHIP('', '', #294, #308);
#308 = SHAPE_REPRESENTATION('', (#250), #289);
#309 = SHAPE_REPRESENTATION_RELATIONSHIP('', '', #294, #310);
#310 = ADVANCED_BREP_SHAPE_REPRESENTATION('', (#1, #77), #289);
ENDSEC;
END-ISO-10303-21;
