ISO-10303-21;
HEADER;
/* Generated by software containing ST-Developer
 * from STEP Tools, Inc. (www.steptools.com) 
 */
/* OPTION: using custom schema-name function */

FILE_DESCRIPTION(
/* description */ (''),
/* implementation_level */ '2;1');

FILE_NAME(
/* name */ '1586151906632.stp',
/* time_stamp */ '2020-04-06T11:15:37+06:00',
/* author */ (''),
/* organization */ ('SMS'),
/* preprocessor_version */ 'ST-DEVELOPER v16.7',
/* originating_system */ 'SIEMENS PLM Software NX 12.0',
/* authorisation */ '');

FILE_SCHEMA (('AUTOMOTIVE_DESIGN { 1 0 10303 214 3 1 1 1 }'));
ENDSEC;

DATA;
#10=CONSTRUCTIVE_GEOMETRY_REPRESENTATION_RELATIONSHIP(
'supplemental geometry','',#26,#11);
#11=CONSTRUCTIVE_GEOMETRY_REPRESENTATION('supplemental geometry',(#380,
#381,#382),#640);
#12=GEOMETRICALLY_BOUNDED_WIREFRAME_SHAPE_REPRESENTATION(
'202042244mod000_00-None',(#27),#640);
#13=SHAPE_REPRESENTATION_RELATIONSHIP('None',
'relationship between 202042244mod000_00-None and 202042244mod000_00-N
one',#26,#15);
#14=SHAPE_REPRESENTATION_RELATIONSHIP('None',
'relationship between 202042244mod000_00-None and 202042244mod000_00-N
one',#26,#12);
#15=ADVANCED_BREP_SHAPE_REPRESENTATION('202042244mod000_00-None',(#33),
#640);
#16=SHAPE_DEFINITION_REPRESENTATION(#17,#26);
#17=PRODUCT_DEFINITION_SHAPE('','',#18);
#18=PRODUCT_DEFINITION(' ','',#20,#19);
#19=PRODUCT_DEFINITION_CONTEXT('part definition',#25,'design');
#20=PRODUCT_DEFINITION_FORMATION_WITH_SPECIFIED_SOURCE(' ',' ',#22,
 .NOT_KNOWN.);
#21=PRODUCT_RELATED_PRODUCT_CATEGORY('part','',(#22));
#22=PRODUCT('202042244mod000_00','202042244mod000_00',' ',(#23));
#23=PRODUCT_CONTEXT(' ',#25,'mechanical');
#24=APPLICATION_PROTOCOL_DEFINITION('international standard',
'automotive_design',2010,#25);
#25=APPLICATION_CONTEXT(
'core data for automotive mechanical design processes');
#26=SHAPE_REPRESENTATION('202042244mod000_00-None',(#379),#640);
#27=GEOMETRIC_CURVE_SET('None',(#526,#527,#528));
#28=SURFACE_STYLE_USAGE(.BOTH.,#29);
#29=SURFACE_SIDE_STYLE('',(#30));
#30=SURFACE_STYLE_FILL_AREA(#31);
#31=FILL_AREA_STYLE('',(#32));
#32=FILL_AREA_STYLE_COLOUR('',#378);
#33=MANIFOLD_SOLID_BREP('NOCUT',#34);
#34=CLOSED_SHELL('',(#99,#100,#101,#102,#103,#104,#105,#106,#107,#108,#109,
#110,#111,#112,#113,#114,#115,#116,#117));
#35=CYLINDRICAL_SURFACE('',#396,9.525);
#36=CYLINDRICAL_SURFACE('',#404,1.99999999999999);
#37=(
BOUNDED_CURVE()
B_SPLINE_CURVE(3,(#560,#561,#562,#563),.UNSPECIFIED.,.F.,.F.)
B_SPLINE_CURVE_WITH_KNOTS((4,4),(0.,1.),.UNSPECIFIED.)
CURVE()
GEOMETRIC_REPRESENTATION_ITEM()
RATIONAL_B_SPLINE_CURVE((1.,0.930008748906387,0.930008748906387,1.))
REPRESENTATION_ITEM('')
);
#38=(
BOUNDED_CURVE()
B_SPLINE_CURVE(3,(#567,#568,#569,#570),.UNSPECIFIED.,.F.,.F.)
B_SPLINE_CURVE_WITH_KNOTS((4,4),(0.,1.),.UNSPECIFIED.)
CURVE()
GEOMETRIC_REPRESENTATION_ITEM()
RATIONAL_B_SPLINE_CURVE((1.,0.930008748906387,0.930008748906387,1.))
REPRESENTATION_ITEM('')
);
#39=(
BOUNDED_CURVE()
B_SPLINE_CURVE(3,(#582,#583,#584,#585),.UNSPECIFIED.,.F.,.F.)
B_SPLINE_CURVE_WITH_KNOTS((4,4),(0.,1.),.UNSPECIFIED.)
CURVE()
GEOMETRIC_REPRESENTATION_ITEM()
RATIONAL_B_SPLINE_CURVE((1.,0.930008748906387,0.930008748906387,1.))
REPRESENTATION_ITEM('')
);
#40=(
BOUNDED_CURVE()
B_SPLINE_CURVE(3,(#589,#590,#591,#592),.UNSPECIFIED.,.F.,.F.)
B_SPLINE_CURVE_WITH_KNOTS((4,4),(0.,1.),.UNSPECIFIED.)
CURVE()
GEOMETRIC_REPRESENTATION_ITEM()
RATIONAL_B_SPLINE_CURVE((1.,0.930008748906388,0.930008748906388,1.))
REPRESENTATION_ITEM('')
);
#41=FACE_BOUND('',#146,.T.);
#42=FACE_BOUND('',#147,.T.);
#43=FACE_BOUND('',#148,.T.);
#44=FACE_BOUND('',#149,.T.);
#45=FACE_BOUND('',#152,.T.);
#46=FACE_BOUND('',#153,.T.);
#47=FACE_BOUND('',#154,.T.);
#48=FACE_BOUND('',#155,.T.);
#49=FACE_BOUND('',#157,.T.);
#50=FACE_BOUND('',#158,.T.);
#51=TOROIDAL_SURFACE('',#392,8.525,0.999999999999999);
#52=TOROIDAL_SURFACE('',#402,5.23205080756888,1.);
#53=TOROIDAL_SURFACE('',#407,5.23205080756888,1.);
#54=TOROIDAL_SURFACE('',#413,8.525,0.999999999999999);
#55=CONICAL_SURFACE('',#388,9.025,60.0000000000001);
#56=CONICAL_SURFACE('',#398,8.525,45.0000000000001);
#57=CONICAL_SURFACE('',#411,8.525,45.0000000000001);
#58=CONICAL_SURFACE('',#414,9.025,60.0000000000001);
#59=LINE('',#540,#79);
#60=LINE('',#544,#80);
#61=LINE('',#552,#81);
#62=LINE('',#554,#82);
#63=LINE('',#557,#83);
#64=LINE('',#565,#84);
#65=LINE('',#574,#85);
#66=LINE('',#577,#86);
#67=LINE('',#579,#87);
#68=LINE('',#587,#88);
#69=LINE('',#597,#89);
#70=LINE('',#598,#90);
#71=LINE('',#606,#91);
#72=LINE('',#608,#92);
#73=LINE('',#612,#93);
#74=LINE('',#615,#94);
#75=LINE('',#629,#95);
#76=LINE('',#631,#96);
#77=LINE('',#634,#97);
#78=LINE('',#635,#98);
#79=VECTOR('',#437,1.);
#80=VECTOR('',#440,1.);
#81=VECTOR('',#451,1.);
#82=VECTOR('',#452,1.);
#83=VECTOR('',#455,1.);
#84=VECTOR('',#456,1.);
#85=VECTOR('',#459,1.);
#86=VECTOR('',#462,1.);
#87=VECTOR('',#463,1.);
#88=VECTOR('',#464,1.);
#89=VECTOR('',#469,1.);
#90=VECTOR('',#470,1.);
#91=VECTOR('',#481,1.);
#92=VECTOR('',#482,1.);
#93=VECTOR('',#485,1.);
#94=VECTOR('',#486,1.);
#95=VECTOR('',#509,1.);
#96=VECTOR('',#512,1.);
#97=VECTOR('',#517,1.);
#98=VECTOR('',#518,1.);
#99=ADVANCED_FACE('',(#127),#118,.T.);
#100=ADVANCED_FACE('',(#128),#55,.T.);
#101=ADVANCED_FACE('',(#129),#51,.T.);
#102=ADVANCED_FACE('',(#41,#42,#43,#44),#35,.T.);
#103=ADVANCED_FACE('',(#130),#56,.T.);
#104=ADVANCED_FACE('',(#131),#52,.T.);
#105=ADVANCED_FACE('',(#45,#46,#47,#48),#36,.F.);
#106=ADVANCED_FACE('',(#132),#53,.T.);
#107=ADVANCED_FACE('',(#49,#50),#119,.F.);
#108=ADVANCED_FACE('',(#133),#120,.F.);
#109=ADVANCED_FACE('',(#134),#57,.T.);
#110=ADVANCED_FACE('',(#135),#54,.T.);
#111=ADVANCED_FACE('',(#136),#58,.T.);
#112=ADVANCED_FACE('',(#137),#121,.F.);
#113=ADVANCED_FACE('',(#138),#122,.F.);
#114=ADVANCED_FACE('',(#139),#123,.F.);
#115=ADVANCED_FACE('',(#140),#124,.F.);
#116=ADVANCED_FACE('',(#141),#125,.F.);
#117=ADVANCED_FACE('',(#142),#126,.F.);
#118=PLANE('',#385);
#119=PLANE('',#408);
#120=PLANE('',#410);
#121=PLANE('',#415);
#122=PLANE('',#416);
#123=PLANE('',#417);
#124=PLANE('',#418);
#125=PLANE('',#419);
#126=PLANE('',#420);
#127=FACE_OUTER_BOUND('',#143,.T.);
#128=FACE_OUTER_BOUND('',#144,.T.);
#129=FACE_OUTER_BOUND('',#145,.T.);
#130=FACE_OUTER_BOUND('',#150,.T.);
#131=FACE_OUTER_BOUND('',#151,.T.);
#132=FACE_OUTER_BOUND('',#156,.T.);
#133=FACE_OUTER_BOUND('',#159,.T.);
#134=FACE_OUTER_BOUND('',#160,.T.);
#135=FACE_OUTER_BOUND('',#161,.T.);
#136=FACE_OUTER_BOUND('',#162,.T.);
#137=FACE_OUTER_BOUND('',#163,.T.);
#138=FACE_OUTER_BOUND('',#164,.T.);
#139=FACE_OUTER_BOUND('',#165,.T.);
#140=FACE_OUTER_BOUND('',#166,.T.);
#141=FACE_OUTER_BOUND('',#167,.T.);
#142=FACE_OUTER_BOUND('',#168,.T.);
#143=EDGE_LOOP('',(#169,#170));
#144=EDGE_LOOP('',(#171,#172,#173,#174));
#145=EDGE_LOOP('',(#175,#176,#177,#178));
#146=EDGE_LOOP('',(#179,#180,#181,#182,#183,#184));
#147=EDGE_LOOP('',(#185,#186,#187,#188));
#148=EDGE_LOOP('',(#189,#190,#191,#192,#193,#194));
#149=EDGE_LOOP('',(#195,#196,#197,#198));
#150=EDGE_LOOP('',(#199,#200,#201,#202));
#151=EDGE_LOOP('',(#203,#204,#205,#206));
#152=EDGE_LOOP('',(#207,#208,#209,#210,#211,#212));
#153=EDGE_LOOP('',(#213));
#154=EDGE_LOOP('',(#214,#215));
#155=EDGE_LOOP('',(#216,#217));
#156=EDGE_LOOP('',(#218,#219,#220,#221));
#157=EDGE_LOOP('',(#222));
#158=EDGE_LOOP('',(#223,#224));
#159=EDGE_LOOP('',(#225,#226));
#160=EDGE_LOOP('',(#227,#228,#229,#230));
#161=EDGE_LOOP('',(#231,#232,#233,#234));
#162=EDGE_LOOP('',(#235,#236,#237,#238));
#163=EDGE_LOOP('',(#239,#240));
#164=EDGE_LOOP('',(#241,#242,#243,#244));
#165=EDGE_LOOP('',(#245,#246));
#166=EDGE_LOOP('',(#247,#248,#249,#250));
#167=EDGE_LOOP('',(#251,#252));
#168=EDGE_LOOP('',(#253,#254));
#169=ORIENTED_EDGE('',*,*,#288,.T.);
#170=ORIENTED_EDGE('',*,*,#289,.T.);
#171=ORIENTED_EDGE('',*,*,#290,.F.);
#172=ORIENTED_EDGE('',*,*,#291,.F.);
#173=ORIENTED_EDGE('',*,*,#292,.T.);
#174=ORIENTED_EDGE('',*,*,#293,.T.);
#175=ORIENTED_EDGE('',*,*,#294,.T.);
#176=ORIENTED_EDGE('',*,*,#295,.T.);
#177=ORIENTED_EDGE('',*,*,#292,.F.);
#178=ORIENTED_EDGE('',*,*,#296,.F.);
#179=ORIENTED_EDGE('',*,*,#297,.F.);
#180=ORIENTED_EDGE('',*,*,#297,.T.);
#181=ORIENTED_EDGE('',*,*,#294,.F.);
#182=ORIENTED_EDGE('',*,*,#298,.T.);
#183=ORIENTED_EDGE('',*,*,#298,.F.);
#184=ORIENTED_EDGE('',*,*,#299,.F.);
#185=ORIENTED_EDGE('',*,*,#300,.T.);
#186=ORIENTED_EDGE('',*,*,#301,.T.);
#187=ORIENTED_EDGE('',*,*,#302,.T.);
#188=ORIENTED_EDGE('',*,*,#303,.T.);
#189=ORIENTED_EDGE('',*,*,#304,.T.);
#190=ORIENTED_EDGE('',*,*,#305,.F.);
#191=ORIENTED_EDGE('',*,*,#305,.T.);
#192=ORIENTED_EDGE('',*,*,#306,.T.);
#193=ORIENTED_EDGE('',*,*,#307,.T.);
#194=ORIENTED_EDGE('',*,*,#307,.F.);
#195=ORIENTED_EDGE('',*,*,#308,.T.);
#196=ORIENTED_EDGE('',*,*,#309,.T.);
#197=ORIENTED_EDGE('',*,*,#310,.T.);
#198=ORIENTED_EDGE('',*,*,#311,.T.);
#199=ORIENTED_EDGE('',*,*,#312,.T.);
#200=ORIENTED_EDGE('',*,*,#313,.T.);
#201=ORIENTED_EDGE('',*,*,#304,.F.);
#202=ORIENTED_EDGE('',*,*,#314,.F.);
#203=ORIENTED_EDGE('',*,*,#290,.T.);
#204=ORIENTED_EDGE('',*,*,#315,.T.);
#205=ORIENTED_EDGE('',*,*,#316,.F.);
#206=ORIENTED_EDGE('',*,*,#317,.F.);
#207=ORIENTED_EDGE('',*,*,#318,.F.);
#208=ORIENTED_EDGE('',*,*,#289,.F.);
#209=ORIENTED_EDGE('',*,*,#319,.T.);
#210=ORIENTED_EDGE('',*,*,#319,.F.);
#211=ORIENTED_EDGE('',*,*,#288,.F.);
#212=ORIENTED_EDGE('',*,*,#318,.T.);
#213=ORIENTED_EDGE('',*,*,#320,.T.);
#214=ORIENTED_EDGE('',*,*,#321,.T.);
#215=ORIENTED_EDGE('',*,*,#321,.F.);
#216=ORIENTED_EDGE('',*,*,#322,.T.);
#217=ORIENTED_EDGE('',*,*,#322,.F.);
#218=ORIENTED_EDGE('',*,*,#315,.F.);
#219=ORIENTED_EDGE('',*,*,#323,.T.);
#220=ORIENTED_EDGE('',*,*,#317,.T.);
#221=ORIENTED_EDGE('',*,*,#324,.F.);
#222=ORIENTED_EDGE('',*,*,#320,.F.);
#223=ORIENTED_EDGE('',*,*,#316,.T.);
#224=ORIENTED_EDGE('',*,*,#324,.T.);
#225=ORIENTED_EDGE('',*,*,#312,.F.);
#226=ORIENTED_EDGE('',*,*,#325,.F.);
#227=ORIENTED_EDGE('',*,*,#313,.F.);
#228=ORIENTED_EDGE('',*,*,#325,.T.);
#229=ORIENTED_EDGE('',*,*,#314,.T.);
#230=ORIENTED_EDGE('',*,*,#306,.F.);
#231=ORIENTED_EDGE('',*,*,#295,.F.);
#232=ORIENTED_EDGE('',*,*,#299,.T.);
#233=ORIENTED_EDGE('',*,*,#296,.T.);
#234=ORIENTED_EDGE('',*,*,#326,.F.);
#235=ORIENTED_EDGE('',*,*,#291,.T.);
#236=ORIENTED_EDGE('',*,*,#323,.F.);
#237=ORIENTED_EDGE('',*,*,#293,.F.);
#238=ORIENTED_EDGE('',*,*,#326,.T.);
#239=ORIENTED_EDGE('',*,*,#327,.T.);
#240=ORIENTED_EDGE('',*,*,#301,.F.);
#241=ORIENTED_EDGE('',*,*,#327,.F.);
#242=ORIENTED_EDGE('',*,*,#300,.F.);
#243=ORIENTED_EDGE('',*,*,#328,.T.);
#244=ORIENTED_EDGE('',*,*,#302,.F.);
#245=ORIENTED_EDGE('',*,*,#328,.F.);
#246=ORIENTED_EDGE('',*,*,#303,.F.);
#247=ORIENTED_EDGE('',*,*,#329,.T.);
#248=ORIENTED_EDGE('',*,*,#308,.F.);
#249=ORIENTED_EDGE('',*,*,#330,.F.);
#250=ORIENTED_EDGE('',*,*,#310,.F.);
#251=ORIENTED_EDGE('',*,*,#329,.F.);
#252=ORIENTED_EDGE('',*,*,#309,.F.);
#253=ORIENTED_EDGE('',*,*,#330,.T.);
#254=ORIENTED_EDGE('',*,*,#311,.F.);
#255=VERTEX_POINT('',#533);
#256=VERTEX_POINT('',#534);
#257=VERTEX_POINT('',#538);
#258=VERTEX_POINT('',#539);
#259=VERTEX_POINT('',#541);
#260=VERTEX_POINT('',#543);
#261=VERTEX_POINT('',#547);
#262=VERTEX_POINT('',#548);
#263=VERTEX_POINT('',#553);
#264=VERTEX_POINT('',#555);
#265=VERTEX_POINT('',#558);
#266=VERTEX_POINT('',#559);
#267=VERTEX_POINT('',#564);
#268=VERTEX_POINT('',#566);
#269=VERTEX_POINT('',#572);
#270=VERTEX_POINT('',#573);
#271=VERTEX_POINT('',#575);
#272=VERTEX_POINT('',#578);
#273=VERTEX_POINT('',#580);
#274=VERTEX_POINT('',#581);
#275=VERTEX_POINT('',#586);
#276=VERTEX_POINT('',#588);
#277=VERTEX_POINT('',#595);
#278=VERTEX_POINT('',#596);
#279=VERTEX_POINT('',#601);
#280=VERTEX_POINT('',#603);
#281=VERTEX_POINT('',#607);
#282=VERTEX_POINT('',#609);
#283=VERTEX_POINT('',#611);
#284=VERTEX_POINT('',#613);
#285=VERTEX_POINT('',#614);
#286=VERTEX_POINT('',#616);
#287=VERTEX_POINT('',#617);
#288=EDGE_CURVE('',#255,#256,#331,.T.);
#289=EDGE_CURVE('',#256,#255,#332,.T.);
#290=EDGE_CURVE('',#257,#258,#333,.T.);
#291=EDGE_CURVE('',#259,#257,#59,.T.);
#292=EDGE_CURVE('',#259,#260,#334,.T.);
#293=EDGE_CURVE('',#260,#258,#60,.T.);
#294=EDGE_CURVE('',#261,#262,#335,.T.);
#295=EDGE_CURVE('',#262,#260,#336,.T.);
#296=EDGE_CURVE('',#261,#259,#337,.T.);
#297=EDGE_CURVE('',#263,#262,#61,.T.);
#298=EDGE_CURVE('',#261,#264,#62,.T.);
#299=EDGE_CURVE('',#262,#261,#338,.T.);
#300=EDGE_CURVE('',#265,#266,#63,.T.);
#301=EDGE_CURVE('',#266,#267,#37,.T.);
#302=EDGE_CURVE('',#267,#268,#64,.T.);
#303=EDGE_CURVE('',#268,#265,#38,.T.);
#304=EDGE_CURVE('',#269,#270,#339,.T.);
#305=EDGE_CURVE('',#271,#270,#65,.T.);
#306=EDGE_CURVE('',#270,#269,#340,.T.);
#307=EDGE_CURVE('',#269,#272,#66,.T.);
#308=EDGE_CURVE('',#273,#274,#67,.T.);
#309=EDGE_CURVE('',#274,#275,#39,.T.);
#310=EDGE_CURVE('',#275,#276,#68,.T.);
#311=EDGE_CURVE('',#276,#273,#40,.T.);
#312=EDGE_CURVE('',#277,#278,#341,.T.);
#313=EDGE_CURVE('',#278,#270,#69,.T.);
#314=EDGE_CURVE('',#277,#269,#70,.T.);
#315=EDGE_CURVE('',#258,#279,#342,.T.);
#316=EDGE_CURVE('',#280,#279,#343,.T.);
#317=EDGE_CURVE('',#257,#280,#344,.T.);
#318=EDGE_CURVE('',#255,#281,#71,.T.);
#319=EDGE_CURVE('',#256,#282,#72,.T.);
#320=EDGE_CURVE('',#283,#283,#345,.T.);
#321=EDGE_CURVE('',#284,#285,#73,.T.);
#322=EDGE_CURVE('',#286,#287,#74,.T.);
#323=EDGE_CURVE('',#258,#257,#346,.T.);
#324=EDGE_CURVE('',#279,#280,#347,.T.);
#325=EDGE_CURVE('',#278,#277,#348,.T.);
#326=EDGE_CURVE('',#260,#259,#349,.T.);
#327=EDGE_CURVE('',#266,#267,#75,.T.);
#328=EDGE_CURVE('',#265,#268,#76,.T.);
#329=EDGE_CURVE('',#275,#274,#77,.T.);
#330=EDGE_CURVE('',#276,#273,#78,.T.);
#331=CIRCLE('',#383,1.99999999999999);
#332=CIRCLE('',#384,1.99999999999999);
#333=CIRCLE('',#386,5.73205080756887);
#334=CIRCLE('',#387,9.025);
#335=CIRCLE('',#389,9.525);
#336=CIRCLE('',#390,0.999999999999999);
#337=CIRCLE('',#391,0.999999999999999);
#338=CIRCLE('',#393,9.525);
#339=CIRCLE('',#394,9.525);
#340=CIRCLE('',#395,9.525);
#341=CIRCLE('',#397,8.525);
#342=CIRCLE('',#399,1.);
#343=CIRCLE('',#400,5.23205080756887);
#344=CIRCLE('',#401,1.);
#345=CIRCLE('',#403,1.99999999999999);
#346=CIRCLE('',#405,5.73205080756887);
#347=CIRCLE('',#406,5.23205080756887);
#348=CIRCLE('',#409,8.525);
#349=CIRCLE('',#412,9.025);
#350=CURVE_STYLE('',#353,POSITIVE_LENGTH_MEASURE(0.18),#377);
#351=CURVE_STYLE('',#354,POSITIVE_LENGTH_MEASURE(0.18),#377);
#352=CURVE_STYLE('',#355,POSITIVE_LENGTH_MEASURE(0.18),#377);
#353=DRAUGHTING_PRE_DEFINED_CURVE_FONT('continuous');
#354=DRAUGHTING_PRE_DEFINED_CURVE_FONT('continuous');
#355=DRAUGHTING_PRE_DEFINED_CURVE_FONT('continuous');
#356=PRESENTATION_LAYER_ASSIGNMENT('1','Layer 1',(#526,#527,#528,#380,#381,
#382,#33));
#357=STYLED_ITEM('',(#364),#526);
#358=STYLED_ITEM('',(#365),#527);
#359=STYLED_ITEM('',(#366),#528);
#360=STYLED_ITEM('',(#367),#380);
#361=STYLED_ITEM('',(#368),#381);
#362=STYLED_ITEM('',(#369),#382);
#363=STYLED_ITEM('',(#370),#33);
#364=PRESENTATION_STYLE_ASSIGNMENT((#371));
#365=PRESENTATION_STYLE_ASSIGNMENT((#372));
#366=PRESENTATION_STYLE_ASSIGNMENT((#373));
#367=PRESENTATION_STYLE_ASSIGNMENT((#350));
#368=PRESENTATION_STYLE_ASSIGNMENT((#351));
#369=PRESENTATION_STYLE_ASSIGNMENT((#352));
#370=PRESENTATION_STYLE_ASSIGNMENT((#28));
#371=POINT_STYLE('',#374,POSITIVE_LENGTH_MEASURE(3.),#377);
#372=POINT_STYLE('',#375,POSITIVE_LENGTH_MEASURE(3.),#377);
#373=POINT_STYLE('',#376,POSITIVE_LENGTH_MEASURE(3.),#377);
#374=PRE_DEFINED_POINT_MARKER_SYMBOL('plus');
#375=PRE_DEFINED_POINT_MARKER_SYMBOL('plus');
#376=PRE_DEFINED_POINT_MARKER_SYMBOL('plus');
#377=COLOUR_RGB('Medium Maroon',0.6,0.4,0.4);
#378=COLOUR_RGB('Medium Gray',0.501960784313725,0.501960784313725,0.501960784313725);
#379=AXIS2_PLACEMENT_3D('',#525,#421,#422);
#380=AXIS2_PLACEMENT_3D('PCS',#529,#423,#424);
#381=AXIS2_PLACEMENT_3D('MCS',#530,#425,#426);
#382=AXIS2_PLACEMENT_3D('CSW',#531,#427,#428);
#383=AXIS2_PLACEMENT_3D('',#532,#429,#430);
#384=AXIS2_PLACEMENT_3D('',#535,#431,#432);
#385=AXIS2_PLACEMENT_3D('',#536,#433,#434);
#386=AXIS2_PLACEMENT_3D('',#537,#435,#436);
#387=AXIS2_PLACEMENT_3D('',#542,#438,#439);
#388=AXIS2_PLACEMENT_3D('',#545,#441,#442);
#389=AXIS2_PLACEMENT_3D('',#546,#443,#444);
#390=AXIS2_PLACEMENT_3D('',#549,#445,#446);
#391=AXIS2_PLACEMENT_3D('',#550,#447,#448);
#392=AXIS2_PLACEMENT_3D('',#551,#449,#450);
#393=AXIS2_PLACEMENT_3D('',#556,#453,#454);
#394=AXIS2_PLACEMENT_3D('',#571,#457,#458);
#395=AXIS2_PLACEMENT_3D('',#576,#460,#461);
#396=AXIS2_PLACEMENT_3D('',#593,#465,#466);
#397=AXIS2_PLACEMENT_3D('',#594,#467,#468);
#398=AXIS2_PLACEMENT_3D('',#599,#471,#472);
#399=AXIS2_PLACEMENT_3D('',#600,#473,#474);
#400=AXIS2_PLACEMENT_3D('',#602,#475,#476);
#401=AXIS2_PLACEMENT_3D('',#604,#477,#478);
#402=AXIS2_PLACEMENT_3D('',#605,#479,#480);
#403=AXIS2_PLACEMENT_3D('',#610,#483,#484);
#404=AXIS2_PLACEMENT_3D('',#618,#487,#488);
#405=AXIS2_PLACEMENT_3D('',#619,#489,#490);
#406=AXIS2_PLACEMENT_3D('',#620,#491,#492);
#407=AXIS2_PLACEMENT_3D('',#621,#493,#494);
#408=AXIS2_PLACEMENT_3D('',#622,#495,#496);
#409=AXIS2_PLACEMENT_3D('',#623,#497,#498);
#410=AXIS2_PLACEMENT_3D('',#624,#499,#500);
#411=AXIS2_PLACEMENT_3D('',#625,#501,#502);
#412=AXIS2_PLACEMENT_3D('',#626,#503,#504);
#413=AXIS2_PLACEMENT_3D('',#627,#505,#506);
#414=AXIS2_PLACEMENT_3D('',#628,#507,#508);
#415=AXIS2_PLACEMENT_3D('',#630,#510,#511);
#416=AXIS2_PLACEMENT_3D('',#632,#513,#514);
#417=AXIS2_PLACEMENT_3D('',#633,#515,#516);
#418=AXIS2_PLACEMENT_3D('',#636,#519,#520);
#419=AXIS2_PLACEMENT_3D('',#637,#521,#522);
#420=AXIS2_PLACEMENT_3D('',#638,#523,#524);
#421=DIRECTION('',(0.,0.,1.));
#422=DIRECTION('',(1.,0.,0.));
#423=DIRECTION('',(0.,0.,1.));
#424=DIRECTION('',(1.,0.,0.));
#425=DIRECTION('',(0.,0.,1.));
#426=DIRECTION('',(1.,0.,0.));
#427=DIRECTION('',(0.,0.,1.));
#428=DIRECTION('',(1.,0.,0.));
#429=DIRECTION('',(0.,0.,-1.));
#430=DIRECTION('',(-1.,0.,0.));
#431=DIRECTION('',(0.,0.,-1.));
#432=DIRECTION('',(-1.,0.,0.));
#433=DIRECTION('',(0.,0.,-1.));
#434=DIRECTION('',(-1.,0.,0.));
#435=DIRECTION('',(0.,0.,-1.));
#436=DIRECTION('',(-1.,0.,0.));
#437=DIRECTION('',(0.866025403784439,-1.06057523872491E-16,-0.499999999999999));
#438=DIRECTION('',(0.,0.,-1.));
#439=DIRECTION('',(-1.,0.,0.));
#440=DIRECTION('',(-0.866025403784439,0.,-0.499999999999999));
#441=DIRECTION('',(0.,0.,1.));
#442=DIRECTION('',(-1.,0.,2.39124357724419E-17));
#443=DIRECTION('',(0.,0.,-1.));
#444=DIRECTION('',(-1.,0.,0.));
#445=DIRECTION('',(-1.22464679914735E-16,1.,0.));
#446=DIRECTION('',(-1.,-1.22464679914735E-16,0.));
#447=DIRECTION('',(0.,-1.,0.));
#448=DIRECTION('',(1.,0.,0.));
#449=DIRECTION('',(0.,0.,-1.));
#450=DIRECTION('',(1.,0.,0.));
#451=DIRECTION('',(0.,0.,-1.));
#452=DIRECTION('',(0.,0.,1.));
#453=DIRECTION('',(0.,0.,-1.));
#454=DIRECTION('',(-1.,0.,0.));
#455=DIRECTION('',(0.,0.,1.));
#456=DIRECTION('',(0.,0.,-1.));
#457=DIRECTION('',(0.,0.,-1.));
#458=DIRECTION('',(-1.,0.,0.));
#459=DIRECTION('',(0.,0.,1.));
#460=DIRECTION('',(0.,0.,-1.));
#461=DIRECTION('',(-1.,0.,0.));
#462=DIRECTION('',(0.,0.,-1.));
#463=DIRECTION('',(0.,0.,1.));
#464=DIRECTION('',(0.,0.,-1.));
#465=DIRECTION('',(0.,0.,-1.));
#466=DIRECTION('',(1.,0.,0.));
#467=DIRECTION('',(0.,0.,-1.));
#468=DIRECTION('',(-1.,0.,0.));
#469=DIRECTION('',(0.707106781186549,8.65956056235495E-17,-0.707106781186546));
#470=DIRECTION('',(-0.707106781186549,0.,-0.707106781186546));
#471=DIRECTION('',(0.,0.,-1.));
#472=DIRECTION('',(1.,0.,0.));
#473=DIRECTION('',(-1.22464679914735E-16,1.,0.));
#474=DIRECTION('',(-1.,-1.22464679914735E-16,0.));
#475=DIRECTION('',(0.,0.,-1.));
#476=DIRECTION('',(-1.,0.,0.));
#477=DIRECTION('',(0.,-1.,0.));
#478=DIRECTION('',(1.,0.,0.));
#479=DIRECTION('',(0.,0.,-1.));
#480=DIRECTION('',(1.,0.,0.));
#481=DIRECTION('',(0.,0.,-1.));
#482=DIRECTION('',(0.,0.,-1.));
#483=DIRECTION('',(0.,0.,-1.));
#484=DIRECTION('',(-1.,0.,0.));
#485=DIRECTION('',(0.,0.,-1.));
#486=DIRECTION('',(0.,0.,-1.));
#487=DIRECTION('',(0.,0.,-1.));
#488=DIRECTION('',(1.,0.,0.));
#489=DIRECTION('',(0.,0.,-1.));
#490=DIRECTION('',(-1.,0.,0.));
#491=DIRECTION('',(0.,0.,-1.));
#492=DIRECTION('',(-1.,0.,0.));
#493=DIRECTION('',(0.,0.,-1.));
#494=DIRECTION('',(1.,0.,0.));
#495=DIRECTION('',(0.,0.,1.));
#496=DIRECTION('',(-1.,0.,0.));
#497=DIRECTION('',(0.,0.,-1.));
#498=DIRECTION('',(-1.,0.,0.));
#499=DIRECTION('',(0.,0.,-1.));
#500=DIRECTION('',(1.,0.,0.));
#501=DIRECTION('',(0.,0.,-1.));
#502=DIRECTION('',(1.,0.,0.));
#503=DIRECTION('',(0.,0.,-1.));
#504=DIRECTION('',(-1.,0.,0.));
#505=DIRECTION('',(0.,0.,-1.));
#506=DIRECTION('',(1.,0.,0.));
#507=DIRECTION('',(0.,0.,1.));
#508=DIRECTION('',(-1.,0.,2.39124357724419E-17));
#509=DIRECTION('',(-1.,0.,0.));
#510=DIRECTION('',(0.,-0.500000000000004,0.866025403784436));
#511=DIRECTION('',(0.,-0.866025403784436,-0.500000000000004));
#512=DIRECTION('',(-1.,0.,0.));
#513=DIRECTION('',(0.,-1.,0.));
#514=DIRECTION('',(-1.,0.,0.));
#515=DIRECTION('',(0.,-0.500000000000004,-0.866025403784436));
#516=DIRECTION('',(0.,0.866025403784436,-0.500000000000004));
#517=DIRECTION('',(-1.,0.,0.));
#518=DIRECTION('',(-1.,0.,0.));
#519=DIRECTION('',(0.,1.,-1.15648231731787E-16));
#520=DIRECTION('',(0.,1.16226472890446E-16,1.));
#521=DIRECTION('',(0.,0.500000000000004,0.866025403784436));
#522=DIRECTION('',(0.,-0.866025403784436,0.500000000000004));
#523=DIRECTION('',(0.,0.500000000000004,-0.866025403784436));
#524=DIRECTION('',(0.,0.866025403784436,0.500000000000004));
#525=CARTESIAN_POINT('',(0.,0.,0.));
#526=CARTESIAN_POINT('PCS',(-1.12459714999922E-13,0.,0.));
#527=CARTESIAN_POINT('MCS',(0.,0.,-96.));
#528=CARTESIAN_POINT('CSW',(0.,0.,-110.));
#529=CARTESIAN_POINT('',(-1.12459714999922E-13,0.,0.));
#530=CARTESIAN_POINT('',(0.,0.,-96.));
#531=CARTESIAN_POINT('',(0.,0.,-110.));
#532=CARTESIAN_POINT('',(-1.12459714999922E-13,0.,-90.));
#533=CARTESIAN_POINT('',(1.99999999999987,2.44929359829469E-16,-90.));
#534=CARTESIAN_POINT('',(-2.0000000000001,0.,-90.));
#535=CARTESIAN_POINT('',(-1.12459714999922E-13,0.,-90.));
#536=CARTESIAN_POINT('',(-1.12459714999922E-13,0.,-90.));
#537=CARTESIAN_POINT('',(-1.12459714999922E-13,0.,-109.866025403784));
#538=CARTESIAN_POINT('',(-5.73205080756899,0.,-109.866025403784));
#539=CARTESIAN_POINT('',(5.73205080756876,7.01973767403922E-16,-109.866025403784));
#540=CARTESIAN_POINT('',(-9.02500000000011,1.10524373623049E-15,-107.964840301107));
#541=CARTESIAN_POINT('',(-9.02500000000011,0.,-107.964840301107));
#542=CARTESIAN_POINT('',(-1.12459714999922E-13,0.,-107.964840301107));
#543=CARTESIAN_POINT('',(9.02499999999988,1.13585990620917E-15,-107.964840301107));
#544=CARTESIAN_POINT('',(9.02499999999988,0.,-107.964840301107));
#545=CARTESIAN_POINT('',(-1.12459714999922E-13,0.,-107.964840301107));
#546=CARTESIAN_POINT('',(-1.12459714999922E-13,0.,-107.098814897322));
#547=CARTESIAN_POINT('',(-9.52500000000011,0.,-107.098814897322));
#548=CARTESIAN_POINT('',(9.52499999999989,1.16647607618785E-15,-107.098814897322));
#549=CARTESIAN_POINT('',(8.52499999999989,1.04401139627312E-15,-107.098814897322));
#550=CARTESIAN_POINT('',(-8.52500000000011,0.,-107.098814897322));
#551=CARTESIAN_POINT('',(-1.12459714999922E-13,0.,-107.098814897322));
#552=CARTESIAN_POINT('',(9.52499999999989,1.16647607618785E-15,-177.700506108973));
#553=CARTESIAN_POINT('',(9.52499999999989,-3.650813786092E-16,-95.7483314773548));
#554=CARTESIAN_POINT('',(-9.52500000000011,0.,-177.700506108973));
#555=CARTESIAN_POINT('',(-9.52500000000011,-1.88110997122588E-16,-95.7483314773548));
#556=CARTESIAN_POINT('',(-1.12459714999922E-13,0.,-107.098814897322));
#557=CARTESIAN_POINT('',(4.24852915724949,8.525,-177.700506108973));
#558=CARTESIAN_POINT('',(4.24852915724949,8.525,-95.));
#559=CARTESIAN_POINT('',(4.24852915724949,8.525,-5.));
#560=CARTESIAN_POINT('',(4.24852915724949,8.525,-5.));
#561=CARTESIAN_POINT('',(1.52275598204326,9.88341956726247,-4.21571609716855));
#562=CARTESIAN_POINT('',(-1.52275598204347,9.88341956726247,-4.21571609716855));
#563=CARTESIAN_POINT('',(-4.24852915724971,8.525,-5.));
#564=CARTESIAN_POINT('',(-4.24852915724971,8.525,-5.));
#565=CARTESIAN_POINT('',(-4.24852915724971,8.525,-177.700506108973));
#566=CARTESIAN_POINT('',(-4.24852915724971,8.525,-95.));
#567=CARTESIAN_POINT('',(-4.24852915724971,8.525,-95.));
#568=CARTESIAN_POINT('',(-1.52275598204348,9.88341956726246,-95.7842839028315));
#569=CARTESIAN_POINT('',(1.52275598204326,9.88341956726246,-95.7842839028315));
#570=CARTESIAN_POINT('',(4.24852915724949,8.525,-95.));
#571=CARTESIAN_POINT('',(-1.12459714999922E-13,0.,-1.));
#572=CARTESIAN_POINT('',(-9.52500000000011,0.,-1.));
#573=CARTESIAN_POINT('',(9.52499999999989,1.16647607618785E-15,-1.));
#574=CARTESIAN_POINT('',(9.52499999999989,1.16647607618785E-15,-177.700506108973));
#575=CARTESIAN_POINT('',(9.52499999999989,-5.60283303177596E-16,-94.2516685226452));
#576=CARTESIAN_POINT('',(-1.12459714999922E-13,0.,-1.));
#577=CARTESIAN_POINT('',(-9.52500000000011,0.,-177.700506108973));
#578=CARTESIAN_POINT('',(-9.52500000000011,-2.22309671979192E-16,-94.2516685226452));
#579=CARTESIAN_POINT('',(-4.24852915724967,-8.52500000000002,-177.700506108973));
#580=CARTESIAN_POINT('',(-4.24852915724969,-8.52500000000001,-95.));
#581=CARTESIAN_POINT('',(-4.24852915724969,-8.525,-5.));
#582=CARTESIAN_POINT('',(-4.24852915724969,-8.525,-5.));
#583=CARTESIAN_POINT('',(-1.52275598204347,-9.88341956726246,-4.21571609716857));
#584=CARTESIAN_POINT('',(1.52275598204325,-9.88341956726246,-4.21571609716858));
#585=CARTESIAN_POINT('',(4.24852915724948,-8.525,-5.));
#586=CARTESIAN_POINT('',(4.24852915724948,-8.525,-5.));
#587=CARTESIAN_POINT('',(4.24852915724944,-8.52500000000002,-177.700506108973));
#588=CARTESIAN_POINT('',(4.24852915724947,-8.52500000000001,-95.));
#589=CARTESIAN_POINT('',(4.24852915724947,-8.52500000000001,-95.));
#590=CARTESIAN_POINT('',(1.52275598204325,-9.88341956726246,-95.7842839028314));
#591=CARTESIAN_POINT('',(-1.52275598204346,-9.88341956726246,-95.7842839028314));
#592=CARTESIAN_POINT('',(-4.24852915724969,-8.52500000000001,-95.));
#593=CARTESIAN_POINT('',(-1.12459714999922E-13,0.,-177.700506108973));
#594=CARTESIAN_POINT('',(-1.12459714999922E-13,0.,0.));
#595=CARTESIAN_POINT('',(-8.52500000000011,0.,0.));
#596=CARTESIAN_POINT('',(8.52499999999988,1.10524373623049E-15,0.));
#597=CARTESIAN_POINT('',(8.52499999999988,1.04401139627312E-15,0.));
#598=CARTESIAN_POINT('',(-8.52500000000011,0.,0.));
#599=CARTESIAN_POINT('',(-1.12459714999922E-13,0.,0.));
#600=CARTESIAN_POINT('',(5.23205080756877,6.40741427446555E-16,-109.));
#601=CARTESIAN_POINT('',(5.23205080756876,6.71357597425238E-16,-110.));
#602=CARTESIAN_POINT('',(-1.12459714999922E-13,0.,-110.));
#603=CARTESIAN_POINT('',(-5.23205080756899,0.,-110.));
#604=CARTESIAN_POINT('',(-5.23205080756899,0.,-109.));
#605=CARTESIAN_POINT('',(-1.12459714999922E-13,0.,-109.));
#606=CARTESIAN_POINT('',(1.99999999999988,2.44929359829469E-16,-110.));
#607=CARTESIAN_POINT('',(1.99999999999988,-1.6731574275888E-15,-94.2516685226452));
#608=CARTESIAN_POINT('',(-2.0000000000001,0.,-110.));
#609=CARTESIAN_POINT('',(-2.0000000000001,-1.18308564777318E-16,-94.2516685226452));
#610=CARTESIAN_POINT('',(-1.12459714999922E-13,0.,-110.));
#611=CARTESIAN_POINT('',(-2.0000000000001,0.,-110.));
#612=CARTESIAN_POINT('',(1.99999999999988,2.44929359829469E-16,-110.));
#613=CARTESIAN_POINT('',(1.99999999999988,1.50121353110417E-15,-95.7483314773548));
#614=CARTESIAN_POINT('',(1.99999999999988,2.44929359829469E-16,-101.5));
#615=CARTESIAN_POINT('',(-2.0000000000001,0.,-110.));
#616=CARTESIAN_POINT('',(-2.0000000000001,5.72373993657208E-16,-95.7483314773548));
#617=CARTESIAN_POINT('',(-2.0000000000001,0.,-101.5));
#618=CARTESIAN_POINT('',(-1.12459714999922E-13,0.,-110.));
#619=CARTESIAN_POINT('',(-1.12459714999922E-13,0.,-109.866025403784));
#620=CARTESIAN_POINT('',(-1.12459714999922E-13,0.,-110.));
#621=CARTESIAN_POINT('',(-1.12459714999922E-13,0.,-109.));
#622=CARTESIAN_POINT('',(-1.12459714999922E-13,1.5,-110.));
#623=CARTESIAN_POINT('',(-1.12459714999922E-13,0.,0.));
#624=CARTESIAN_POINT('',(-1.12459714999922E-13,8.525,0.));
#625=CARTESIAN_POINT('',(-1.12459714999922E-13,0.,0.));
#626=CARTESIAN_POINT('',(-1.12459714999922E-13,0.,-107.964840301107));
#627=CARTESIAN_POINT('',(-1.12459714999922E-13,0.,-107.098814897322));
#628=CARTESIAN_POINT('',(-1.12459714999922E-13,0.,-107.964840301107));
#629=CARTESIAN_POINT('',(9.52499999999989,8.525,-5.));
#630=CARTESIAN_POINT('',(9.52499999999989,8.525,-5.));
#631=CARTESIAN_POINT('',(9.52499999999989,8.525,-95.));
#632=CARTESIAN_POINT('',(9.52499999999989,8.525,-95.));
#633=CARTESIAN_POINT('',(9.52499999999989,12.5,-97.2949673200288));
#634=CARTESIAN_POINT('',(9.52499999999989,-8.525,-5.));
#635=CARTESIAN_POINT('',(9.52499999999989,-8.52500000000001,-95.));
#636=CARTESIAN_POINT('',(9.52499999999989,-8.525,-5.));
#637=CARTESIAN_POINT('',(9.52499999999989,-12.5,-2.70503267997121));
#638=CARTESIAN_POINT('',(9.52499999999989,-8.52500000000001,-95.));
#639=MECHANICAL_DESIGN_GEOMETRIC_PRESENTATION_REPRESENTATION('',(#357,#358,
#359,#360,#361,#362,#363),#640);
#640=(
GEOMETRIC_REPRESENTATION_CONTEXT(3)
GLOBAL_UNCERTAINTY_ASSIGNED_CONTEXT((#641))
GLOBAL_UNIT_ASSIGNED_CONTEXT((#647,#643,#642))
REPRESENTATION_CONTEXT('1586151906632','TOP_LEVEL_ASSEMBLY_PART')
);
#641=UNCERTAINTY_MEASURE_WITH_UNIT(LENGTH_MEASURE(2.E-5),#647,
'DISTANCE_ACCURACY_VALUE','Maximum Tolerance applied to model');
#642=(
NAMED_UNIT(*)
SI_UNIT($,.STERADIAN.)
SOLID_ANGLE_UNIT()
);
#643=(
CONVERSION_BASED_UNIT('DEGREE',#645)
NAMED_UNIT(#644)
PLANE_ANGLE_UNIT()
);
#644=DIMENSIONAL_EXPONENTS(0.,0.,0.,0.,0.,0.,0.);
#645=PLANE_ANGLE_MEASURE_WITH_UNIT(PLANE_ANGLE_MEASURE(0.0174532925),#646);
#646=(
NAMED_UNIT(*)
PLANE_ANGLE_UNIT()
SI_UNIT($,.RADIAN.)
);
#647=(
LENGTH_UNIT()
NAMED_UNIT(*)
SI_UNIT(.MILLI.,.METRE.)
);
ENDSEC;
END-ISO-10303-21;
