ISO-10303-21;
HEADER;
/* Generated by software containing ST-Developer
 * from STEP Tools, Inc. (www.steptools.com) 
 */
/* OPTION: using custom schema-name function */

FILE_DESCRIPTION(
/* description */ (''),
/* implementation_level */ '2;1');

FILE_NAME(
/* name */ '393_14_32.stp',
/* time_stamp */ '2018-12-14T10:14:09+01:00',
/* author */ (''),
/* organization */ (''),
/* preprocessor_version */ 'ST-DEVELOPER v15',
/* originating_system */ 'SIEMENS PLM Software NX 8.5',
/* authorisation */ '');

FILE_SCHEMA (('AUTOMOTIVE_DESIGN { 1 0 10303 214 3 1 1 1 }'));
ENDSEC;

DATA;
#10=PROPERTY_DEFINITION_REPRESENTATION(#14,#12);
#11=PROPERTY_DEFINITION_REPRESENTATION(#15,#13);
#12=REPRESENTATION('',(#16),#299);
#13=REPRESENTATION('',(#17),#299);
#14=PROPERTY_DEFINITION('pmi validation property','',#21);
#15=PROPERTY_DEFINITION('pmi validation property','',#21);
#16=VALUE_REPRESENTATION_ITEM('number of annotations',COUNT_MEASURE(0.));
#17=VALUE_REPRESENTATION_ITEM('number of views',COUNT_MEASURE(0.));
#18=SHAPE_REPRESENTATION_RELATIONSHIP('None',
'relationship between DS29253CF3EFklw0-None and DS29253CF3EFklw0-None',
#30,#19);
#19=ADVANCED_BREP_SHAPE_REPRESENTATION('DS29253CF3EFklw0-None',(#36,#180,
#181,#182),#299);
#20=SHAPE_DEFINITION_REPRESENTATION(#21,#30);
#21=PRODUCT_DEFINITION_SHAPE('','',#22);
#22=PRODUCT_DEFINITION(' ','',#24,#23);
#23=PRODUCT_DEFINITION_CONTEXT('part definition',#29,'design');
#24=PRODUCT_DEFINITION_FORMATION_WITH_SPECIFIED_SOURCE(' ',' ',#26,
 .NOT_KNOWN.);
#25=PRODUCT_RELATED_PRODUCT_CATEGORY('part','',(#26));
#26=PRODUCT('DS29253CF3EFklw0','DS29253CF3EFklw0',' ',(#27));
#27=PRODUCT_CONTEXT(' ',#29,'mechanical');
#28=APPLICATION_PROTOCOL_DEFINITION('international standard',
'automotive_design',2010,#29);
#29=APPLICATION_CONTEXT(
'core data for automotive mechanical design processes');
#30=SHAPE_REPRESENTATION('DS29253CF3EFklw0-None',(#179),#299);
#31=SURFACE_STYLE_USAGE(.BOTH.,#32);
#32=SURFACE_SIDE_STYLE('',(#33));
#33=SURFACE_STYLE_FILL_AREA(#34);
#34=FILL_AREA_STYLE('',(#35));
#35=FILL_AREA_STYLE_COLOUR('',#175);
#36=MANIFOLD_SOLID_BREP('NOCUT',#37);
#37=CLOSED_SHELL('',(#48,#49,#50,#51,#52,#53,#54,#55,#56,#57,#58,#59));
#38=CONICAL_SURFACE('',#198,13.4995735194571,29.9999999999998);
#39=CONICAL_SURFACE('',#203,11.6572882077028,8.00000000000004);
#40=CONICAL_SURFACE('',#204,11.3572882077028,48.9999999999999);
#41=FACE_OUTER_BOUND('',#94,.T.);
#42=FACE_OUTER_BOUND('',#99,.T.);
#43=TOROIDAL_SURFACE('',#192,14.8,0.2);
#44=TOROIDAL_SURFACE('',#193,14.8,0.2);
#45=TOROIDAL_SURFACE('',#205,13.3552359521597,0.25);
#46=CYLINDRICAL_SURFACE('',#191,14.6);
#47=CYLINDRICAL_SURFACE('',#199,16.4);
#48=ADVANCED_FACE('',(#64,#65),#60,.F.);
#49=ADVANCED_FACE('',(#66,#67),#61,.F.);
#50=ADVANCED_FACE('',(#68,#69),#46,.T.);
#51=ADVANCED_FACE('',(#70,#71),#43,.F.);
#52=ADVANCED_FACE('',(#72,#73),#44,.F.);
#53=ADVANCED_FACE('',(#41),#62,.F.);
#54=ADVANCED_FACE('',(#74,#75),#38,.T.);
#55=ADVANCED_FACE('',(#76,#77),#47,.T.);
#56=ADVANCED_FACE('',(#42),#63,.T.);
#57=ADVANCED_FACE('',(#78,#79),#39,.T.);
#58=ADVANCED_FACE('',(#80,#81),#40,.T.);
#59=ADVANCED_FACE('',(#82,#83),#45,.T.);
#60=PLANE('',#185);
#61=PLANE('',#188);
#62=PLANE('',#195);
#63=PLANE('',#201);
#64=FACE_BOUND('',#84,.T.);
#65=FACE_BOUND('',#85,.T.);
#66=FACE_BOUND('',#86,.T.);
#67=FACE_BOUND('',#87,.T.);
#68=FACE_BOUND('',#88,.T.);
#69=FACE_BOUND('',#89,.T.);
#70=FACE_BOUND('',#90,.T.);
#71=FACE_BOUND('',#91,.T.);
#72=FACE_BOUND('',#92,.T.);
#73=FACE_BOUND('',#93,.T.);
#74=FACE_BOUND('',#95,.T.);
#75=FACE_BOUND('',#96,.T.);
#76=FACE_BOUND('',#97,.T.);
#77=FACE_BOUND('',#98,.T.);
#78=FACE_BOUND('',#100,.T.);
#79=FACE_BOUND('',#101,.T.);
#80=FACE_BOUND('',#102,.T.);
#81=FACE_BOUND('',#103,.T.);
#82=FACE_BOUND('',#104,.T.);
#83=FACE_BOUND('',#105,.T.);
#84=EDGE_LOOP('',(#106));
#85=EDGE_LOOP('',(#107));
#86=EDGE_LOOP('',(#108));
#87=EDGE_LOOP('',(#109));
#88=EDGE_LOOP('',(#110));
#89=EDGE_LOOP('',(#111));
#90=EDGE_LOOP('',(#112));
#91=EDGE_LOOP('',(#113));
#92=EDGE_LOOP('',(#114));
#93=EDGE_LOOP('',(#115));
#94=EDGE_LOOP('',(#116));
#95=EDGE_LOOP('',(#117));
#96=EDGE_LOOP('',(#118));
#97=EDGE_LOOP('',(#119));
#98=EDGE_LOOP('',(#120));
#99=EDGE_LOOP('',(#121));
#100=EDGE_LOOP('',(#122));
#101=EDGE_LOOP('',(#123));
#102=EDGE_LOOP('',(#124));
#103=EDGE_LOOP('',(#125));
#104=EDGE_LOOP('',(#126));
#105=EDGE_LOOP('',(#127));
#106=ORIENTED_EDGE('',*,*,#139,.F.);
#107=ORIENTED_EDGE('',*,*,#140,.T.);
#108=ORIENTED_EDGE('',*,*,#141,.F.);
#109=ORIENTED_EDGE('',*,*,#142,.F.);
#110=ORIENTED_EDGE('',*,*,#143,.F.);
#111=ORIENTED_EDGE('',*,*,#144,.F.);
#112=ORIENTED_EDGE('',*,*,#144,.T.);
#113=ORIENTED_EDGE('',*,*,#139,.T.);
#114=ORIENTED_EDGE('',*,*,#142,.T.);
#115=ORIENTED_EDGE('',*,*,#143,.T.);
#116=ORIENTED_EDGE('',*,*,#145,.F.);
#117=ORIENTED_EDGE('',*,*,#146,.F.);
#118=ORIENTED_EDGE('',*,*,#147,.T.);
#119=ORIENTED_EDGE('',*,*,#141,.T.);
#120=ORIENTED_EDGE('',*,*,#147,.F.);
#121=ORIENTED_EDGE('',*,*,#148,.F.);
#122=ORIENTED_EDGE('',*,*,#149,.F.);
#123=ORIENTED_EDGE('',*,*,#140,.F.);
#124=ORIENTED_EDGE('',*,*,#149,.T.);
#125=ORIENTED_EDGE('',*,*,#148,.T.);
#126=ORIENTED_EDGE('',*,*,#145,.T.);
#127=ORIENTED_EDGE('',*,*,#146,.T.);
#128=VERTEX_POINT('',#265);
#129=VERTEX_POINT('',#267);
#130=VERTEX_POINT('',#270);
#131=VERTEX_POINT('',#272);
#132=VERTEX_POINT('',#275);
#133=VERTEX_POINT('',#277);
#134=VERTEX_POINT('',#282);
#135=VERTEX_POINT('',#285);
#136=VERTEX_POINT('',#287);
#137=VERTEX_POINT('',#291);
#138=VERTEX_POINT('',#294);
#139=EDGE_CURVE('',#128,#128,#150,.T.);
#140=EDGE_CURVE('',#129,#129,#151,.T.);
#141=EDGE_CURVE('',#130,#130,#152,.T.);
#142=EDGE_CURVE('',#131,#131,#153,.T.);
#143=EDGE_CURVE('',#132,#132,#154,.T.);
#144=EDGE_CURVE('',#133,#133,#155,.T.);
#145=EDGE_CURVE('',#134,#134,#156,.T.);
#146=EDGE_CURVE('',#135,#135,#157,.T.);
#147=EDGE_CURVE('',#136,#136,#158,.T.);
#148=EDGE_CURVE('',#137,#137,#159,.T.);
#149=EDGE_CURVE('',#138,#138,#160,.T.);
#150=CIRCLE('',#183,14.8);
#151=CIRCLE('',#184,16.0000000000067);
#152=CIRCLE('',#186,16.4);
#153=CIRCLE('',#187,14.8);
#154=CIRCLE('',#189,14.6);
#155=CIRCLE('',#190,14.6);
#156=CIRCLE('',#194,13.3552359521597);
#157=CIRCLE('',#196,13.5717423031058);
#158=CIRCLE('',#197,16.4);
#159=CIRCLE('',#200,11.3572882077028);
#160=CIRCLE('',#202,11.6990401379908);
#161=PRESENTATION_LAYER_ASSIGNMENT('1','Layer 1',(#180,#181,#182,#36));
#162=STYLED_ITEM('',(#166),#180);
#163=STYLED_ITEM('',(#167),#181);
#164=STYLED_ITEM('',(#168),#182);
#165=STYLED_ITEM('',(#169),#36);
#166=PRESENTATION_STYLE_ASSIGNMENT((#170));
#167=PRESENTATION_STYLE_ASSIGNMENT((#171));
#168=PRESENTATION_STYLE_ASSIGNMENT((#172));
#169=PRESENTATION_STYLE_ASSIGNMENT((#31));
#170=CURVE_STYLE('',#176,POSITIVE_LENGTH_MEASURE(0.13),#173);
#171=CURVE_STYLE('',#177,POSITIVE_LENGTH_MEASURE(0.13),#174);
#172=CURVE_STYLE('',#178,POSITIVE_LENGTH_MEASURE(0.13),#174);
#173=COLOUR_RGB('Strong Stone',0.576470588235294,0.54508278019379,0.392156862745098);
#174=COLOUR_RGB('Strong Emerald',0.,0.803921568627451,0.525490196078431);
#175=COLOUR_RGB('Medium Gray',0.490196078431373,0.490196078431373,0.490196078431373);
#176=DRAUGHTING_PRE_DEFINED_CURVE_FONT('continuous');
#177=DRAUGHTING_PRE_DEFINED_CURVE_FONT('continuous');
#178=DRAUGHTING_PRE_DEFINED_CURVE_FONT('continuous');
#179=AXIS2_PLACEMENT_3D('',#260,#206,#207);
#180=AXIS2_PLACEMENT_3D('PCS',#261,#208,#209);
#181=AXIS2_PLACEMENT_3D('MCS',#262,#210,#211);
#182=AXIS2_PLACEMENT_3D('CSW',#263,#212,#213);
#183=AXIS2_PLACEMENT_3D('',#264,#214,#215);
#184=AXIS2_PLACEMENT_3D('',#266,#216,#217);
#185=AXIS2_PLACEMENT_3D('',#268,#218,#219);
#186=AXIS2_PLACEMENT_3D('',#269,#220,#221);
#187=AXIS2_PLACEMENT_3D('',#271,#222,#223);
#188=AXIS2_PLACEMENT_3D('',#273,#224,#225);
#189=AXIS2_PLACEMENT_3D('',#274,#226,#227);
#190=AXIS2_PLACEMENT_3D('',#276,#228,#229);
#191=AXIS2_PLACEMENT_3D('',#278,#230,#231);
#192=AXIS2_PLACEMENT_3D('',#279,#232,#233);
#193=AXIS2_PLACEMENT_3D('',#280,#234,#235);
#194=AXIS2_PLACEMENT_3D('',#281,#236,#237);
#195=AXIS2_PLACEMENT_3D('',#283,#238,#239);
#196=AXIS2_PLACEMENT_3D('',#284,#240,#241);
#197=AXIS2_PLACEMENT_3D('',#286,#242,#243);
#198=AXIS2_PLACEMENT_3D('',#288,#244,#245);
#199=AXIS2_PLACEMENT_3D('',#289,#246,#247);
#200=AXIS2_PLACEMENT_3D('',#290,#248,#249);
#201=AXIS2_PLACEMENT_3D('',#292,#250,#251);
#202=AXIS2_PLACEMENT_3D('',#293,#252,#253);
#203=AXIS2_PLACEMENT_3D('',#295,#254,#255);
#204=AXIS2_PLACEMENT_3D('',#296,#256,#257);
#205=AXIS2_PLACEMENT_3D('',#297,#258,#259);
#206=DIRECTION('',(0.,0.,1.));
#207=DIRECTION('',(1.,0.,0.));
#208=DIRECTION('',(0.,0.,1.));
#209=DIRECTION('',(1.,0.,0.));
#210=DIRECTION('',(0.,0.,1.));
#211=DIRECTION('',(1.,0.,0.));
#212=DIRECTION('',(0.,0.,1.));
#213=DIRECTION('',(1.,0.,0.));
#214=DIRECTION('',(6.12323399573677E-017,0.,-1.));
#215=DIRECTION('',(-1.,0.,-6.12323399573677E-017));
#216=DIRECTION('',(6.12323399573677E-017,0.,-1.));
#217=DIRECTION('',(-1.,0.,-6.12323399573677E-017));
#218=DIRECTION('',(-6.12323399573677E-017,0.,1.));
#219=DIRECTION('',(1.,0.,6.12323399573677E-017));
#220=DIRECTION('',(6.12323399573677E-017,0.,-1.));
#221=DIRECTION('',(-1.,0.,-5.28879108529514E-017));
#222=DIRECTION('',(-6.12323399573677E-017,0.,1.));
#223=DIRECTION('',(1.,0.,5.86055228370543E-017));
#224=DIRECTION('',(6.12323399573677E-017,0.,-1.));
#225=DIRECTION('',(-1.,0.,-6.11490025281825E-017));
#226=DIRECTION('',(6.12323399573677E-017,0.,-1.));
#227=DIRECTION('',(1.,0.,5.94083382183838E-017));
#228=DIRECTION('',(-6.12323399573677E-017,0.,1.));
#229=DIRECTION('',(-1.,0.,-6.12648487877083E-017));
#230=DIRECTION('',(-6.12323399573677E-017,0.,1.));
#231=DIRECTION('',(1.,0.,1.18816676436768E-016));
#232=DIRECTION('',(-6.12323399573677E-017,0.,1.));
#233=DIRECTION('',(1.,0.,6.14381231075119E-017));
#234=DIRECTION('',(6.12323399573677E-017,0.,-1.));
#235=DIRECTION('',(-1.,0.,-5.78241158658936E-017));
#236=DIRECTION('',(-6.12323399573677E-017,0.,1.));
#237=DIRECTION('',(-1.,0.,0.));
#238=DIRECTION('',(-6.12323399573677E-017,0.,1.));
#239=DIRECTION('',(1.,0.,6.07153216591882E-017));
#240=DIRECTION('',(6.12323399573677E-017,0.,-1.));
#241=DIRECTION('',(1.,0.,0.));
#242=DIRECTION('',(6.12323399573677E-017,0.,-1.));
#243=DIRECTION('',(-1.,0.,-5.28879108529514E-017));
#244=DIRECTION('',(-6.12323399573677E-017,0.,1.));
#245=DIRECTION('',(1.,0.,2.34878420956906E-017));
#246=DIRECTION('',(-6.12323399573677E-017,0.,1.));
#247=DIRECTION('',(1.,0.,0.));
#248=DIRECTION('',(6.12323399573677E-017,0.,-1.));
#249=DIRECTION('',(-1.,0.,0.));
#250=DIRECTION('',(-6.12323399573677E-017,0.,1.));
#251=DIRECTION('',(1.,0.,6.24500451351651E-017));
#252=DIRECTION('',(-6.12323399573676E-017,0.,1.));
#253=DIRECTION('',(-1.,0.,0.));
#254=DIRECTION('',(6.12323399573677E-017,0.,-1.));
#255=DIRECTION('',(-1.,0.,2.279559619801E-016));
#256=DIRECTION('',(6.12323399573676E-017,0.,-1.));
#257=DIRECTION('',(-1.,0.,-6.57021130231716E-017));
#258=DIRECTION('',(-6.12323399573677E-017,0.,1.));
#259=DIRECTION('',(1.,0.,0.));
#260=CARTESIAN_POINT('',(0.,0.,0.));
#261=CARTESIAN_POINT('',(0.,0.,0.));
#262=CARTESIAN_POINT('',(0.,0.,0.));
#263=CARTESIAN_POINT('',(0.,0.,-9.1));
#264=CARTESIAN_POINT('',(-5.57214293612046E-016,0.,4.33680868994202E-016));
#265=CARTESIAN_POINT('',(-14.8,0.,4.33680868994202E-016));
#266=CARTESIAN_POINT('',(-5.57214293612046E-016,0.,4.33680868994202E-016));
#267=CARTESIAN_POINT('',(-16.0000000000067,0.,4.33680868994202E-016));
#268=CARTESIAN_POINT('',(-14.6,0.,4.33680868994202E-016));
#269=CARTESIAN_POINT('',(-3.36777869765522E-016,0.,-3.6));
#270=CARTESIAN_POINT('',(-16.4,0.,-3.6));
#271=CARTESIAN_POINT('',(-3.36777869765522E-016,0.,-3.6));
#272=CARTESIAN_POINT('',(14.8,0.,-3.6));
#273=CARTESIAN_POINT('',(-16.8,0.,-3.6));
#274=CARTESIAN_POINT('',(-3.49024337756996E-016,0.,-3.4));
#275=CARTESIAN_POINT('',(14.6,0.,-3.4));
#276=CARTESIAN_POINT('',(-5.44967825620572E-016,0.,-0.2));
#277=CARTESIAN_POINT('',(-14.6,0.,-0.2));
#278=CARTESIAN_POINT('',(-1.43895998899814E-015,0.,14.4));
#279=CARTESIAN_POINT('',(-5.44967825620572E-016,0.,-0.2));
#280=CARTESIAN_POINT('',(-3.49024337756996E-016,0.,-3.4));
#281=CARTESIAN_POINT('',(0.,0.,-9.1));
#282=CARTESIAN_POINT('',(-13.3552359521597,0.,-9.1));
#283=CARTESIAN_POINT('',(2.4492935982948E-017,0.,-9.1));
#284=CARTESIAN_POINT('',(-7.65404249467099E-018,0.,-8.975));
#285=CARTESIAN_POINT('',(13.5717423031058,0.,-8.975));
#286=CARTESIAN_POINT('',(-3.07612050700587E-016,0.,-4.07631397208143));
#287=CARTESIAN_POINT('',(-16.4,0.,-4.07631397208144));
#288=CARTESIAN_POINT('',(0.,0.,-9.10000000000001));
#289=CARTESIAN_POINT('',(-4.01071826720758E-015,0.,56.4));
#290=CARTESIAN_POINT('',(-2.4492935982947E-015,0.,30.9));
#291=CARTESIAN_POINT('',(-11.3572882077028,0.,30.9));
#292=CARTESIAN_POINT('',(-2.4492935982947E-015,0.,30.9));
#293=CARTESIAN_POINT('',(-2.43110266898447E-015,0.,30.6029195793775));
#294=CARTESIAN_POINT('',(-11.6990401379908,0.,30.6029195793775));
#295=CARTESIAN_POINT('',(-2.4492935982947E-015,0.,30.9));
#296=CARTESIAN_POINT('',(-2.4492935982947E-015,0.,30.9));
#297=CARTESIAN_POINT('',(-1.5308084989342E-017,0.,-8.85));
#298=MECHANICAL_DESIGN_GEOMETRIC_PRESENTATION_REPRESENTATION('',(#162,#163,
#164,#165),#299);
#299=(
GEOMETRIC_REPRESENTATION_CONTEXT(3)
GLOBAL_UNCERTAINTY_ASSIGNED_CONTEXT((#300))
GLOBAL_UNIT_ASSIGNED_CONTEXT((#306,#302,#301))
REPRESENTATION_CONTEXT('393_14_32','TOP_LEVEL_ASSEMBLY_PART')
);
#300=UNCERTAINTY_MEASURE_WITH_UNIT(LENGTH_MEASURE(2.E-005),#306,
'DISTANCE_ACCURACY_VALUE','Maximum Tolerance applied to model');
#301=(
NAMED_UNIT(*)
SI_UNIT($,.STERADIAN.)
SOLID_ANGLE_UNIT()
);
#302=(
CONVERSION_BASED_UNIT('DEGREE',#304)
NAMED_UNIT(#303)
PLANE_ANGLE_UNIT()
);
#303=DIMENSIONAL_EXPONENTS(0.,0.,0.,0.,0.,0.,0.);
#304=PLANE_ANGLE_MEASURE_WITH_UNIT(PLANE_ANGLE_MEASURE(0.0174532925),#305);
#305=(
NAMED_UNIT(*)
PLANE_ANGLE_UNIT()
SI_UNIT($,.RADIAN.)
);
#306=(
LENGTH_UNIT()
NAMED_UNIT(*)
SI_UNIT(.MILLI.,.METRE.)
);
ENDSEC;
END-ISO-10303-21;
