ISO-10303-21;
HEADER;
FILE_DESCRIPTION(('STEP'), '1');
FILE_NAME('C:\\Users\\ds2002\\OneDrive - Sandvik\\HomeShare\\Documents\\Batchrepair\\CorSRT2\\NEW_MILBN_SLD\\Output3\\MOD000000000000000020084961700000.stp', '2018-11-27T13:11:45', (''), (''), 'Express v3.0.0.0', 'Express Tool', 'Unknown');
FILE_SCHEMA(('AUTOMOTIVE_DESIGN'));
ENDSEC;

DATA;
#1 = MANIFOLD_SOLID_BREP('NOCUT', #2);
#2 = CLOSED_SHELL('', (#3, #50, #59, #98));
#3 = ADVANCED_FACE('', (#4), #31, .T.);
#4 = FACE_OUTER_BOUND('', #5, .T.);
#5 = EDGE_LOOP('', (#6, #16, #23, #24));
#6 = ORIENTED_EDGE('', *, *, #7, .T.);
#7 = EDGE_CURVE('', #8, #10, #12, .T.);
#8 = VERTEX_POINT('', #9);
#9 = CARTESIAN_POINT('', (-4.7625, 3.2078092095166E-16, -0.47625));
#10 = VERTEX_POINT('', #11);
#11 = CARTESIAN_POINT('', (-4.28625, 2.62457117142267E-16, 0.));
#12 = LINE('', #13, #14);
#13 = CARTESIAN_POINT('', (-4.7625, 3.2078092095166E-16, -0.47625));
#14 = VECTOR('', #15, 0.673519209080187);
#15 = DIRECTION('', (0.47625, -5.8323803809393E-17, 0.47625));
#16 = ORIENTED_EDGE('', *, *, #17, .T.);
#17 = EDGE_CURVE('', #10, #10, #18, .T.);
#18 = CIRCLE('', #19, 4.28625);
#19 = AXIS2_PLACEMENT_3D('', #20, #21, #22);
#20 = CARTESIAN_POINT('', (2.08166817117217E-16, 2.22044604925031E-15, 1.41748443906901E-31));
#21 = DIRECTION('', (5.09914260327735E-33, 6.12323399573676E-17, -1.));
#22 = DIRECTION('', (-1., -7.01736343115104E-16, -4.80681009253414E-32));
#23 = ORIENTED_EDGE('', *, *, #7, .F.);
#24 = ORIENTED_EDGE('', *, *, #25, .F.);
#25 = EDGE_CURVE('', #8, #8, #26, .T.);
#26 = CIRCLE('', #27, 4.7625);
#27 = AXIS2_PLACEMENT_3D('', #28, #29, #30);
#28 = CARTESIAN_POINT('', (-1.80411241501588E-16, -1.33226762955019E-15, -0.47625));
#29 = DIRECTION('', (-2.3311769545935E-17, 1.94854295150446E-16, -1.));
#30 = DIRECTION('', (-1., 3.47096808504325E-16, 2.3311769545935E-17));
#31 = (
   BOUNDED_SURFACE ()
   B_SPLINE_SURFACE (1, 2, ((#32, #33, #34, #35, #36, #37, #38, #39, #40), (#41, #42, #43, #44, #45, #46, #47, #48, #49)), .UNSPECIFIED., .F., .T., .U.)
   B_SPLINE_SURFACE_WITH_KNOTS ((2, 2), (3, 2, 2, 2, 3), (0., 1.), (0., 0.25, 0.5, 0.75, 1.), .UNSPECIFIED.)
   GEOMETRIC_REPRESENTATION_ITEM ()
   RATIONAL_B_SPLINE_SURFACE (((1., 0.707106781186548, 1., 0.707106781186548, 1., 0.707106781186548, 1., 0.707106781186548, 1.), (1., 0.707106781186548, 1., 0.707106781186548, 1., 0.707106781186548, 1., 0.707106781186548, 1.)))
   REPRESENTATION_ITEM ('')
   SURFACE ()
);
#32 = CARTESIAN_POINT('', (-4.7625, 1.85826706490691E-15, -0.47625));
#33 = CARTESIAN_POINT('', (-4.7625, 4.7625, -0.476249999999988));
#34 = CARTESIAN_POINT('', (1.91359274105531E-15, 4.7625, -0.476249999999988));
#35 = CARTESIAN_POINT('', (4.7625, 4.7625, -0.476249999999988));
#36 = CARTESIAN_POINT('', (4.7625, -5.04978731053851E-15, -0.47625));
#37 = CARTESIAN_POINT('', (4.7625, -4.76250000000001, -0.476250000000012));
#38 = CARTESIAN_POINT('', (-4.41122359629619E-15, -4.7625, -0.476250000000012));
#39 = CARTESIAN_POINT('', (-4.76250000000001, -4.7625, -0.476250000000012));
#40 = CARTESIAN_POINT('', (-4.7625, 1.85826706490691E-15, -0.47625));
#41 = CARTESIAN_POINT('', (-4.28625, 2.62457117142269E-16, 1.09476442525376E-46));
#42 = CARTESIAN_POINT('', (-4.28625, 4.28625, 1.09912079437891E-14));
#43 = CARTESIAN_POINT('', (1.56819002228304E-15, 4.28625, 1.09912079437891E-14));
#44 = CARTESIAN_POINT('', (4.28625, 4.28625, 1.09912079437891E-14));
#45 = CARTESIAN_POINT('', (4.28625, -5.95479182075861E-15, 9.76256213390072E-31));
#46 = CARTESIAN_POINT('', (4.28625, -4.28625000000001, -1.09912079437891E-14));
#47 = CARTESIAN_POINT('', (-4.12414468133331E-15, -4.28625, -1.09912079437891E-14));
#48 = CARTESIAN_POINT('', (-4.28625000000001, -4.28625, -1.09912079437891E-14));
#49 = CARTESIAN_POINT('', (-4.28625, 2.62457117142269E-16, 1.09476442525376E-46));
#50 = ADVANCED_FACE('', (#51), #54, .T.);
#51 = FACE_OUTER_BOUND('', #52, .T.);
#52 = EDGE_LOOP('', (#53));
#53 = ORIENTED_EDGE('', *, *, #17, .F.);
#54 = B_SPLINE_SURFACE_WITH_KNOTS('', 1, 1, ((#55, #56), (#57, #58)), .UNSPECIFIED., .F., .F., .U., (2, 2), (2, 2), (2.38159016989385, 10.9540901698938), (2.38159016989385, 10.9540901698938), .UNSPECIFIED.);
#55 = CARTESIAN_POINT('', (4.28625, -4.28625, -7.36788447474326E-15));
#56 = CARTESIAN_POINT('', (-4.28625, -4.28625, -7.36788447474326E-15));
#57 = CARTESIAN_POINT('', (4.28625, 4.28625, 7.36788447474327E-15));
#58 = CARTESIAN_POINT('', (-4.28625, 4.28625, 7.36788447474327E-15));
#59 = ADVANCED_FACE('', (#60), #79, .T.);
#60 = FACE_OUTER_BOUND('', #61, .T.);
#61 = EDGE_LOOP('', (#62, #71, #77, #78));
#62 = ORIENTED_EDGE('', *, *, #63, .F.);
#63 = EDGE_CURVE('', #64, #64, #66, .T.);
#64 = VERTEX_POINT('', #65);
#65 = CARTESIAN_POINT('', (-4.7625, 4.56869796506909E-15, -69.85));
#66 = CIRCLE('', #67, 4.7625);
#67 = AXIS2_PLACEMENT_3D('', #68, #69, #70);
#68 = CARTESIAN_POINT('', (1.94289029309402E-16, 2.1094237467878E-15, -69.85));
#69 = DIRECTION('', (0., 0., -1.));
#70 = DIRECTION('', (-1., 5.16383037959329E-16, 0.));
#71 = ORIENTED_EDGE('', *, *, #72, .F.);
#72 = EDGE_CURVE('', #8, #64, #73, .T.);
#73 = LINE('', #74, #75);
#74 = CARTESIAN_POINT('', (-4.7625, 3.2078092095166E-16, -0.47625));
#75 = VECTOR('', #76, 69.37375);
#76 = DIRECTION('', (0., 4.24791704411743E-15, -69.37375));
#77 = ORIENTED_EDGE('', *, *, #25, .T.);
#78 = ORIENTED_EDGE('', *, *, #72, .T.);
#79 = (
   BOUNDED_SURFACE ()
   B_SPLINE_SURFACE (1, 2, ((#80, #81, #82, #83, #84, #85, #86, #87, #88), (#89, #90, #91, #92, #93, #94, #95, #96, #97)), .UNSPECIFIED., .F., .T., .U.)
   B_SPLINE_SURFACE_WITH_KNOTS ((2, 2), (3, 2, 2, 2, 3), (-0.769230769230769, 1.), (0., 0.25, 0.5, 0.75, 1.), .UNSPECIFIED.)
   GEOMETRIC_REPRESENTATION_ITEM ()
   RATIONAL_B_SPLINE_SURFACE (((1., 0.707106781186548, 1., 0.707106781186548, 1., 0.707106781186548, 1., 0.707106781186548, 1.), (1., 0.707106781186548, 1., 0.707106781186548, 1., 0.707106781186548, 1., 0.707106781186548, 1.)))
   REPRESENTATION_ITEM ('')
   SURFACE ()
);
#80 = CARTESIAN_POINT('', (-4.7625, 3.76247229728964E-15, -69.85));
#81 = CARTESIAN_POINT('', (-4.7625, 4.7625, -69.85));
#82 = CARTESIAN_POINT('', (8.64604727935128E-16, 4.7625, -69.85));
#83 = CARTESIAN_POINT('', (4.7625, 4.7625, -69.85));
#84 = CARTESIAN_POINT('', (4.7625, 1.51434814679754E-16, -69.85));
#85 = CARTESIAN_POINT('', (4.7625, -4.7625, -69.85));
#86 = CARTESIAN_POINT('', (-2.16319471658084E-15, -4.7625, -69.85));
#87 = CARTESIAN_POINT('', (-4.7625, -4.7625, -69.85));
#88 = CARTESIAN_POINT('', (-4.7625, 3.76247229728964E-15, -69.85));
#89 = CARTESIAN_POINT('', (-4.7625, 3.20780920951658E-16, -0.47625));
#90 = CARTESIAN_POINT('', (-4.76249999999999, 4.7625, -0.47625));
#91 = CARTESIAN_POINT('', (3.29044203674109E-15, 4.7625, -0.47625));
#92 = CARTESIAN_POINT('', (4.7625, 4.76249999999999, -0.47625));
#93 = CARTESIAN_POINT('', (4.7625, -3.29025656165823E-15, -0.47625));
#94 = CARTESIAN_POINT('', (4.7625, -4.7625, -0.476250000000001));
#95 = CARTESIAN_POINT('', (2.62642592225128E-16, -4.7625, -0.47625));
#96 = CARTESIAN_POINT('', (-4.7625, -4.7625, -0.47625));
#97 = CARTESIAN_POINT('', (-4.7625, 3.20780920951658E-16, -0.47625));
#98 = ADVANCED_FACE('', (#99), #102, .T.);
#99 = FACE_OUTER_BOUND('', #100, .T.);
#100 = EDGE_LOOP('', (#101));
#101 = ORIENTED_EDGE('', *, *, #63, .T.);
#102 = B_SPLINE_SURFACE_WITH_KNOTS('', 1, 1, ((#103, #104), (#105, #106)), .UNSPECIFIED., .F., .F., .U., (2, 2), (2, 2), (88.0255975069709, 97.5505975069709), (82.4094196442715, 91.9344196442715), .UNSPECIFIED.);
#103 = CARTESIAN_POINT('', (-4.7625, 4.76250000000002, -69.85));
#104 = CARTESIAN_POINT('', (-4.7625, -4.7625, -69.85));
#105 = CARTESIAN_POINT('', (4.7625, 4.76250000000002, -69.85));
#106 = CARTESIAN_POINT('', (4.7625, -4.7625, -69.85));
#107 = DRAUGHTING_MODEL('', (#115, #241, #281, #286, #291, #296, #301), #315);
#108 = PRESENTATION_STYLE_ASSIGNMENT((#109));
#109 = SURFACE_STYLE_USAGE(.POSITIVE., #110);
#110 = SURFACE_SIDE_STYLE('', (#111));
#111 = SURFACE_STYLE_FILL_AREA(#112);
#112 = FILL_AREA_STYLE('', (#113));
#113 = FILL_AREA_STYLE_COLOUR('', #114);
#114 = COLOUR_RGB('', 0.50196078431373, 0.50196078431373, 0.50196078431373);
#115 = STYLED_ITEM('', (#108), #1);
#116 = MANIFOLD_SOLID_BREP('CUT', #117);
#117 = CLOSED_SHELL('', (#118, #135, #174));
#118 = ADVANCED_FACE('', (#119), #130, .T.);
#119 = FACE_OUTER_BOUND('', #120, .T.);
#120 = EDGE_LOOP('', (#121));
#121 = ORIENTED_EDGE('', *, *, #122, .F.);
#122 = EDGE_CURVE('', #123, #123, #125, .T.);
#123 = VERTEX_POINT('', #124);
#124 = CARTESIAN_POINT('', (-4.7625, 4.56869796506909E-15, -69.85));
#125 = CIRCLE('', #126, 4.7625);
#126 = AXIS2_PLACEMENT_3D('', #127, #128, #129);
#127 = CARTESIAN_POINT('', (1.94289029309402E-16, 2.1094237467878E-15, -69.85));
#128 = DIRECTION('', (0., 0., -1.));
#129 = DIRECTION('', (-1., 5.16383037959329E-16, 0.));
#130 = B_SPLINE_SURFACE_WITH_KNOTS('', 1, 1, ((#131, #132), (#133, #134)), .UNSPECIFIED., .F., .F., .U., (2, 2), (2, 2), (82.4094196442715, 91.9344196442715), (88.0255975069709, 97.5505975069709), .UNSPECIFIED.);
#131 = CARTESIAN_POINT('', (-4.7625, 4.76250000000002, -69.85));
#132 = CARTESIAN_POINT('', (4.7625, 4.76250000000002, -69.85));
#133 = CARTESIAN_POINT('', (-4.7625, -4.7625, -69.85));
#134 = CARTESIAN_POINT('', (4.7625, -4.7625, -69.85));
#135 = ADVANCED_FACE('', (#136), #155, .T.);
#136 = FACE_OUTER_BOUND('', #137, .T.);
#137 = EDGE_LOOP('', (#138, #139, #147, #154));
#138 = ORIENTED_EDGE('', *, *, #122, .T.);
#139 = ORIENTED_EDGE('', *, *, #140, .T.);
#140 = EDGE_CURVE('', #123, #141, #143, .T.);
#141 = VERTEX_POINT('', #142);
#142 = CARTESIAN_POINT('', (-4.7625, 5.42146633633674E-15, -83.7767643840065));
#143 = LINE('', #144, #145);
#144 = CARTESIAN_POINT('', (-4.7625, 4.56869796506909E-15, -69.85));
#145 = VECTOR('', #146, 13.9267643840065);
#146 = DIRECTION('', (0., 8.5276837126765E-16, -13.9267643840065));
#147 = ORIENTED_EDGE('', *, *, #148, .F.);
#148 = EDGE_CURVE('', #141, #141, #149, .T.);
#149 = CIRCLE('', #150, 4.7625);
#150 = AXIS2_PLACEMENT_3D('', #151, #152, #153);
#151 = CARTESIAN_POINT('', (1.02695629777827E-15, 3.21964677141295E-15, -83.7767643840065));
#152 = DIRECTION('', (0., 0., -1.));
#153 = DIRECTION('', (-1., 4.62324318094233E-16, 0.));
#154 = ORIENTED_EDGE('', *, *, #140, .F.);
#155 = (
   BOUNDED_SURFACE ()
   B_SPLINE_SURFACE (1, 2, ((#156, #157, #158, #159, #160, #161, #162, #163, #164), (#165, #166, #167, #168, #169, #170, #171, #172, #173)), .UNSPECIFIED., .F., .T., .U.)
   B_SPLINE_SURFACE_WITH_KNOTS ((2, 2), (3, 2, 2, 2, 3), (-1.12440343993131, -0.769230769230769), (0., 0.25, 0.5, 0.75, 1.), .UNSPECIFIED.)
   GEOMETRIC_REPRESENTATION_ITEM ()
   RATIONAL_B_SPLINE_SURFACE (((1., 0.707106781186548, 1., 0.707106781186548, 1., 0.707106781186548, 1., 0.707106781186548, 1.), (1., 0.707106781186548, 1., 0.707106781186548, 1., 0.707106781186548, 1., 0.707106781186548, 1.)))
   REPRESENTATION_ITEM ('')
   SURFACE ()
);
#156 = CARTESIAN_POINT('', (-4.7625, 1.08969692054325E-14, -83.7767643840065));
#157 = CARTESIAN_POINT('', (-4.76249999999999, 4.76250000000001, -83.7767643840065));
#158 = CARTESIAN_POINT('', (3.97176761425021E-15, 4.76250000000001, -83.7767643840065));
#159 = CARTESIAN_POINT('', (4.7625, 4.7625, -83.7767643840065));
#160 = CARTESIAN_POINT('', (4.7625, 5.6734803872637E-15, -83.7767643840065));
#161 = CARTESIAN_POINT('', (4.7625, -4.76249999999999, -83.7767643840065));
#162 = CARTESIAN_POINT('', (-6.68483165824642E-16, -4.76249999999999, -83.7767643840065));
#163 = CARTESIAN_POINT('', (-4.7625, -4.76249999999999, -83.7767643840065));
#164 = CARTESIAN_POINT('', (-4.7625, 1.08969692054325E-14, -83.7767643840065));
#165 = CARTESIAN_POINT('', (-4.7625, 4.56869796506909E-15, -69.85));
#166 = CARTESIAN_POINT('', (-4.76249999999999, 4.7625, -69.85));
#167 = CARTESIAN_POINT('', (3.97176761425021E-15, 4.7625, -69.85));
#168 = CARTESIAN_POINT('', (4.7625, 4.7625, -69.85));
#169 = CARTESIAN_POINT('', (4.7625, -6.54790853099692E-16, -69.85));
#170 = CARTESIAN_POINT('', (4.7625, -4.7625, -69.85));
#171 = CARTESIAN_POINT('', (-6.68483165824646E-16, -4.7625, -69.85));
#172 = CARTESIAN_POINT('', (-4.7625, -4.76249999999999, -69.85));
#173 = CARTESIAN_POINT('', (-4.7625, 4.56869796506909E-15, -69.85));
#174 = ADVANCED_FACE('', (#175), #188, .T.);
#175 = FACE_OUTER_BOUND('', #176, .T.);
#176 = EDGE_LOOP('', (#177, #186, #187));
#177 = ORIENTED_EDGE('', *, *, #178, .F.);
#178 = EDGE_CURVE('', #141, #179, #181, .T.);
#179 = VERTEX_POINT('', #180);
#180 = CARTESIAN_POINT('', (1.11022302462516E-16, 5.44355502220999E-15, -88.9));
#181 = CIRCLE('', #182, 4.77520000000005);
#182 = AXIS2_PLACEMENT_3D('', #183, #184, #185);
#183 = CARTESIAN_POINT('', (5.59552404411079E-14, 5.15115835244555E-15, -84.1248));
#184 = DIRECTION('', (-6.12323399573692E-17, -1., -6.12323399573683E-17));
#185 = DIRECTION('', (-0.997340425531916, 5.66066309036662E-17, 0.0728839872661831));
#186 = ORIENTED_EDGE('', *, *, #148, .T.);
#187 = ORIENTED_EDGE('', *, *, #178, .T.);
#188 = (
   BOUNDED_SURFACE ()
   B_SPLINE_SURFACE (2, 2, ((#189, #190, #191, #192, #193), (#194, #195, #196, #197, #198), (#199, #200, #201, #202, #203), (#204, #205, #206, #207, #208), (#209, #210, #211, #212, #213), (#214, #215, #216, #217, #218), (#219, #220, #221, #222, #223), (#224, #225, #226, #227, #228), (#229, #230, #231, #232, #233)), .UNSPECIFIED., .T., .F., .U.)
   B_SPLINE_SURFACE_WITH_KNOTS ((3, 2, 2, 2, 3), (3, 2, 3), (0., 0.25, 0.5, 0.75, 1.), (0., 0.5, 1.), .UNSPECIFIED.)
   GEOMETRIC_REPRESENTATION_ITEM ()
   RATIONAL_B_SPLINE_SURFACE (((1., 0.916747223295652, 1., 0.916747223295652, 1.), (0.707106781186548, 0.648238178226294, 0.707106781186548, 0.648238178226294, 0.707106781186548), (1., 0.916747223295652, 1., 0.916747223295652, 1.), (0.707106781186548, 0.648238178226294, 0.707106781186548, 0.648238178226294, 0.707106781186548), (1., 0.916747223295652, 1., 0.916747223295652, 1.), (0.707106781186548, 0.648238178226294, 0.707106781186548, 0.648238178226294, 0.707106781186548), (1., 0.916747223295652, 1., 0.916747223295652, 1.), (0.707106781186548, 0.648238178226294, 0.707106781186548, 0.648238178226294, 0.707106781186548), (1., 0.916747223295652, 1., 0.916747223295652, 1.)))
   REPRESENTATION_ITEM ('')
   SURFACE ()
);
#189 = CARTESIAN_POINT('', (-4.7625, 5.42146633633674E-15, -83.7767643840065));
#190 = CARTESIAN_POINT('', (-4.91415469895863, 5.55782397039598E-15, -85.8519988445047));
#191 = CARTESIAN_POINT('', (-3.49746155900907, 5.56439465590718E-15, -87.3759994222523));
#192 = CARTESIAN_POINT('', (-2.08076841905951, 5.57096534141839E-15, -88.9));
#193 = CARTESIAN_POINT('', (1.11022302462516E-16, 5.44355502220999E-15, -88.9));
#194 = CARTESIAN_POINT('', (-4.7625, 4.7625, -83.7767643840065));
#195 = CARTESIAN_POINT('', (-4.91415469895865, 4.91415469895863, -85.8519988445047));
#196 = CARTESIAN_POINT('', (-3.4974615590091, 3.49746155900906, -87.3759994222523));
#197 = CARTESIAN_POINT('', (-2.08076841905956, 2.0807684190595, -88.9));
#198 = CARTESIAN_POINT('', (1.11022302462516E-16, 5.44355502220999E-15, -88.9));
#199 = CARTESIAN_POINT('', (-4.51094701007878E-17, 4.7625, -83.7767643840065));
#200 = CARTESIAN_POINT('', (-2.62558740358887E-14, 4.91415469895864, -85.8519988445047));
#201 = CARTESIAN_POINT('', (-4.55044076844081E-14, 3.49746155900909, -87.3759994222523));
#202 = CARTESIAN_POINT('', (-6.47529413329288E-14, 2.08076841905954, -88.9));
#203 = CARTESIAN_POINT('', (1.11022302462516E-16, 5.44355502220999E-15, -88.9));
#204 = CARTESIAN_POINT('', (4.7625, 4.7625, -83.7767643840065));
#205 = CARTESIAN_POINT('', (4.91415469895859, 4.91415469895866, -85.8519988445047));
#206 = CARTESIAN_POINT('', (3.49746155900901, 3.49746155900912, -87.3759994222523));
#207 = CARTESIAN_POINT('', (2.08076841905943, 2.08076841905959, -88.9));
#208 = CARTESIAN_POINT('', (1.11022302462516E-16, 5.44355502220999E-15, -88.9));
#209 = CARTESIAN_POINT('', (4.76249999999999, -1.29308744556528E-15, -83.7767643840065));
#210 = CARTESIAN_POINT('', (4.91415469895861, 3.8880188120859E-14, -85.8519988445047));
#211 = CARTESIAN_POINT('', (3.49746155900904, 6.82888756377903E-14, -87.3759994222523));
#212 = CARTESIAN_POINT('', (2.08076841905947, 9.76975631547232E-14, -88.9));
#213 = CARTESIAN_POINT('', (1.11022302462516E-16, 5.44355502220999E-15, -88.9));
#214 = CARTESIAN_POINT('', (4.76249999999999, -4.7625, -83.7767643840066));
#215 = CARTESIAN_POINT('', (4.91415469895863, -4.91415469895858, -85.8519988445048));
#216 = CARTESIAN_POINT('', (3.49746155900907, -3.49746155900899, -87.3759994222524));
#217 = CARTESIAN_POINT('', (2.08076841905952, -2.08076841905939, -88.9));
#218 = CARTESIAN_POINT('', (1.11022302462516E-16, 5.44355502220999E-15, -88.9));
#219 = CARTESIAN_POINT('', (-6.17642521390916E-15, -4.76249999999999, -83.7767643840066));
#220 = CARTESIAN_POINT('', (7.66830049683351E-15, -4.9141546989586, -85.8519988445048));
#221 = CARTESIAN_POINT('', (1.76483888078128E-14, -3.49746155900902, -87.3759994222523));
#222 = CARTESIAN_POINT('', (2.76284771187928E-14, -2.08076841905944, -88.9));
#223 = CARTESIAN_POINT('', (1.11022302462516E-16, 5.44355502220999E-15, -88.9));
#224 = CARTESIAN_POINT('', (-4.7625, -4.76249999999999, -83.7767643840065));
#225 = CARTESIAN_POINT('', (-4.91415469895861, -4.91415469895862, -85.8519988445047));
#226 = CARTESIAN_POINT('', (-3.49746155900904, -3.49746155900905, -87.3759994222523));
#227 = CARTESIAN_POINT('', (-2.08076841905946, -2.08076841905949, -88.9));
#228 = CARTESIAN_POINT('', (1.11022302462516E-16, 5.44355502220999E-15, -88.9));
#229 = CARTESIAN_POINT('', (-4.7625, 5.42146633633674E-15, -83.7767643840065));
#230 = CARTESIAN_POINT('', (-4.91415469895863, 5.55782397039598E-15, -85.8519988445047));
#231 = CARTESIAN_POINT('', (-3.49746155900907, 5.56439465590718E-15, -87.3759994222523));
#232 = CARTESIAN_POINT('', (-2.08076841905951, 5.57096534141839E-15, -88.9));
#233 = CARTESIAN_POINT('', (1.11022302462516E-16, 5.44355502220999E-15, -88.9));
#234 = PRESENTATION_STYLE_ASSIGNMENT((#235));
#235 = SURFACE_STYLE_USAGE(.POSITIVE., #236);
#236 = SURFACE_SIDE_STYLE('', (#237));
#237 = SURFACE_STYLE_FILL_AREA(#238);
#238 = FILL_AREA_STYLE('', (#239));
#239 = FILL_AREA_STYLE_COLOUR('', #240);
#240 = COLOUR_RGB('', 0.8, 0.8, 0.8);
#241 = STYLED_ITEM('', (#234), #116);
#242 = TRIMMED_CURVE('cutting part line', #243, (#247), (#248), .T., .CARTESIAN.);
#243 = LINE('', #244, #245);
#244 = CARTESIAN_POINT('', (-7.85686656141981E-31, -4.27707894602213E-15, -69.85));
#245 = VECTOR('', #246, 4.7625);
#246 = DIRECTION('', (4.7625, -8.74857057140897E-16, 0.));
#247 = CARTESIAN_POINT('', (-7.85686656141981E-31, -4.27707894602213E-15, -69.85));
#248 = CARTESIAN_POINT('', (4.7625, -5.15193600316303E-15, -69.85));
#249 = TRIMMED_CURVE('cutting part line', #250, (#254), (#255), .T., .CARTESIAN.);
#250 = LINE('', #251, #252);
#251 = CARTESIAN_POINT('', (4.7625, -5.15193600316303E-15, -69.85));
#252 = VECTOR('', #253, 13.9267643840065);
#253 = DIRECTION('', (0., -8.5276837126764E-16, -13.9267643840065));
#254 = CARTESIAN_POINT('', (4.7625, -5.15193600316303E-15, -69.85));
#255 = CARTESIAN_POINT('', (4.7625, -6.00470437443067E-15, -83.7767643840065));
#256 = TRIMMED_CURVE('cutting part line', #257, (#262), (#263), .T., .CARTESIAN.);
#257 = CIRCLE('', #258, 4.77520000000005);
#258 = AXIS2_PLACEMENT_3D('', #259, #260, #261);
#259 = CARTESIAN_POINT('', (-4.70734562441066E-14, -5.15115835244556E-15, -84.1248));
#260 = DIRECTION('', (1.83697019872102E-16, 1., -6.12323399573673E-17));
#261 = DIRECTION('', (0.997340425531916, -1.78745606882456E-16, 0.0728839872661803));
#262 = CARTESIAN_POINT('', (4.76250000000001, -6.00470437443067E-15, -83.7767643840065));
#263 = CARTESIAN_POINT('', (-1.72084568816899E-15, -5.44355502220999E-15, -88.9));
#264 = TRIMMED_CURVE('cutting part line', #265, (#269), (#270), .T., .CARTESIAN.);
#265 = LINE('', #266, #267);
#266 = CARTESIAN_POINT('', (-9.99964835089794E-31, -5.44355502220999E-15, -88.9));
#267 = VECTOR('', #268, 19.05);
#268 = DIRECTION('', (2.14278178947814E-31, 1.16647607618786E-15, 19.05));
#269 = CARTESIAN_POINT('', (-9.99964835089794E-31, -5.44355502220999E-15, -88.9));
#270 = CARTESIAN_POINT('', (-7.85686656141981E-31, -4.27707894602213E-15, -69.85));
#271 = COMPOSITE_CURVE('cutting part line', (#272, #273, #274, #275), .U.);
#272 = COMPOSITE_CURVE_SEGMENT(.CONTINUOUS., .T., #242);
#273 = COMPOSITE_CURVE_SEGMENT(.CONTINUOUS., .T., #249);
#274 = COMPOSITE_CURVE_SEGMENT(.CONTINUOUS., .T., #256);
#275 = COMPOSITE_CURVE_SEGMENT(.CONTINUOUS., .T., #264);
#276 = GEOMETRIC_SET('', (#271, #314));
#277 = PRESENTATION_STYLE_ASSIGNMENT((#278));
#278 = CURVE_STYLE('', #280, POSITIVE_LENGTH_MEASURE(1.E-6), #279);
#279 = COLOUR_RGB('', 0., 0., 1.);
#280 = DRAUGHTING_PRE_DEFINED_CURVE_FONT('continuous');
#281 = STYLED_ITEM('', (#277), #271);
#282 = PRESENTATION_STYLE_ASSIGNMENT((#283));
#283 = CURVE_STYLE('', #285, POSITIVE_LENGTH_MEASURE(1.E-6), #284);
#284 = COLOUR_RGB('', 0., 0., 1.);
#285 = DRAUGHTING_PRE_DEFINED_CURVE_FONT('continuous');
#286 = OVER_RIDING_STYLED_ITEM('', (#282), #242, #281);
#287 = PRESENTATION_STYLE_ASSIGNMENT((#288));
#288 = CURVE_STYLE('', #290, POSITIVE_LENGTH_MEASURE(1.E-6), #289);
#289 = COLOUR_RGB('', 0., 0., 1.);
#290 = DRAUGHTING_PRE_DEFINED_CURVE_FONT('continuous');
#291 = OVER_RIDING_STYLED_ITEM('', (#287), #249, #281);
#292 = PRESENTATION_STYLE_ASSIGNMENT((#293));
#293 = CURVE_STYLE('', #295, POSITIVE_LENGTH_MEASURE(1.E-6), #294);
#294 = COLOUR_RGB('', 0., 0., 1.);
#295 = DRAUGHTING_PRE_DEFINED_CURVE_FONT('continuous');
#296 = OVER_RIDING_STYLED_ITEM('', (#292), #256, #281);
#297 = PRESENTATION_STYLE_ASSIGNMENT((#298));
#298 = CURVE_STYLE('', #300, POSITIVE_LENGTH_MEASURE(1.E-6), #299);
#299 = COLOUR_RGB('', 0., 0., 1.);
#300 = DRAUGHTING_PRE_DEFINED_CURVE_FONT('continuous');
#301 = OVER_RIDING_STYLED_ITEM('', (#297), #264, #281);
#302 = AXIS2_PLACEMENT_3D('CIP', #303, #304, #305);
#303 = CARTESIAN_POINT('', (3.33321611696598E-31, 5.44355502220998E-15, -88.9));
#304 = DIRECTION('', (-3.74939945665465E-33, -6.12323399573677E-17, 1.));
#305 = DIRECTION('', (1., -6.12323399573677E-17, 0.));
#306 = AXIS2_PLACEMENT_3D('MCS', #307, #308, #309);
#307 = CARTESIAN_POINT('', (1.48804290935981E-31, 2.43015849205803E-15, -39.6875));
#308 = DIRECTION('', (-3.74939945665465E-33, -6.12323399573677E-17, 1.));
#309 = DIRECTION('', (1., -6.12323399573677E-17, 0.));
#310 = AXIS2_PLACEMENT_3D('PCS', #311, #312, #313);
#311 = CARTESIAN_POINT('', (0., 0., 0.));
#312 = DIRECTION('', (0., 0., 1.));
#313 = DIRECTION('', (1., 0., 0.));
#314 = CARTESIAN_POINT('CRP', (4.7752, 0., -88.9));
#315 = (
   GEOMETRIC_REPRESENTATION_CONTEXT (3)
   GLOBAL_UNCERTAINTY_ASSIGNED_CONTEXT ((#317))
   GLOBAL_UNIT_ASSIGNED_CONTEXT ((#316, #318, #319))
   REPRESENTATION_CONTEXT ('', '3D')
);
#316 = (
   LENGTH_UNIT ()
   NAMED_UNIT (*)
   SI_UNIT (.MILLI., .METRE.)
);
#317 = UNCERTAINTY_MEASURE_WITH_UNIT(LENGTH_MEASURE(1.E-6), #316, 'DISTANCE_ACCURACY_VALUE', '');
#318 = (
   NAMED_UNIT (*)
   SI_UNIT ($, .STERADIAN.)
   SOLID_ANGLE_UNIT ()
);
#319 = (
   NAMED_UNIT (*)
   PLANE_ANGLE_UNIT ()
   SI_UNIT ($, .RADIAN.)
);
#320 = SHAPE_REPRESENTATION('', (), #315);
#321 = PRODUCT_DEFINITION_SHAPE('', '', #322);
#322 = PRODUCT_DEFINITION('', '', #325, #329);
#323 = APPLICATION_CONTEXT('configuration controlled 3D designs of mechanical parts and assemblies');
#324 = APPLICATION_PROTOCOL_DEFINITION('International Standard', 'automotive_design', 2002, #323);
#325 = PRODUCT_DEFINITION_FORMATION_WITH_SPECIFIED_SOURCE('', '', #326, .NOT_KNOWN.);
#326 = PRODUCT('NONE', 'RA216.42-2430-AK12G 1610', '', (#327));
#327 = PRODUCT_CONTEXT('', #323, 'mechanical');
#328 = PRODUCT_RELATED_PRODUCT_CATEGORY('detail', '', (#326));
#329 = PRODUCT_DEFINITION_CONTEXT('part definition', #323, 'design');
#330 = SHAPE_DEFINITION_REPRESENTATION(#321, #320);
#331 = CONSTRUCTIVE_GEOMETRY_REPRESENTATION('supplemental geometry', (#302, #306, #310), #315);
#332 = CONSTRUCTIVE_GEOMETRY_REPRESENTATION_RELATIONSHIP('', '', #320, #331);
#333 = SHAPE_REPRESENTATION_RELATIONSHIP('', '', #320, #334);
#334 = SHAPE_REPRESENTATION('', (#276), #315);
#335 = SHAPE_REPRESENTATION_RELATIONSHIP('', '', #320, #336);
#336 = ADVANCED_BREP_SHAPE_REPRESENTATION('', (#1, #116), #315);
ENDSEC;
END-ISO-10303-21;
