ISO-10303-21;
HEADER;
FILE_DESCRIPTION(('STEP'), '1');
FILE_NAME('C:\\Users\\ds2002\\OneDrive - Sandvik\\HomeShare\\Documents\\Batchrepair\\CorSRT2\\NEW_MILBN_SLD\\Output3\\MOD000000000000000020084959700000.stp', '2018-11-27T13:11:47', (''), (''), 'Express v3.0.0.0', 'Express Tool', 'Unknown');
FILE_SCHEMA(('AUTOMOTIVE_DESIGN'));
ENDSEC;

DATA;
#1 = MANIFOLD_SOLID_BREP('NOCUT', #2);
#2 = CLOSED_SHELL('', (#3, #50, #97, #106, #137, #176));
#3 = ADVANCED_FACE('', (#4), #31, .T.);
#4 = FACE_OUTER_BOUND('', #5, .T.);
#5 = EDGE_LOOP('', (#6, #16, #23, #24));
#6 = ORIENTED_EDGE('', *, *, #7, .F.);
#7 = EDGE_CURVE('', #8, #10, #12, .T.);
#8 = VERTEX_POINT('', #9);
#9 = CARTESIAN_POINT('', (-3.175, 3.91121571477686E-15, -60.7));
#10 = VERTEX_POINT('', #11);
#11 = CARTESIAN_POINT('', (-1.5875, 3.98545992697517E-15, -63.5));
#12 = LINE('', #13, #14);
#13 = CARTESIAN_POINT('', (-3.175, 3.91121571477686E-15, -60.7));
#14 = VECTOR('', #15, 3.21871966005118);
#15 = DIRECTION('', (1.5875, 7.42442121983102E-17, -2.8));
#16 = ORIENTED_EDGE('', *, *, #17, .T.);
#17 = EDGE_CURVE('', #8, #8, #18, .T.);
#18 = CIRCLE('', #19, 3.175);
#19 = AXIS2_PLACEMENT_3D('', #20, #21, #22);
#20 = CARTESIAN_POINT('', (5.68989300120393E-16, 2.94209101525666E-15, -60.7));
#21 = DIRECTION('', (0., 0., -1.));
#22 = DIRECTION('', (-1., 3.05236125833132E-16, 0.));
#23 = ORIENTED_EDGE('', *, *, #7, .T.);
#24 = ORIENTED_EDGE('', *, *, #25, .F.);
#25 = EDGE_CURVE('', #10, #10, #26, .T.);
#26 = CIRCLE('', #27, 1.5875);
#27 = AXIS2_PLACEMENT_3D('', #28, #29, #30);
#28 = CARTESIAN_POINT('', (4.23272528138341E-16, 1.27675647831893E-15, -63.5));
#29 = DIRECTION('', (4.47585975281951E-15, -1.45613887092957E-14, -1.));
#30 = DIRECTION('', (-1., 1.46134052908784E-15, -4.47585975281953E-15));
#31 = (
   BOUNDED_SURFACE ()
   B_SPLINE_SURFACE (2, 1, ((#32, #33), (#34, #35), (#36, #37), (#38, #39), (#40, #41), (#42, #43), (#44, #45), (#46, #47), (#48, #49)), .UNSPECIFIED., .T., .F., .U.)
   B_SPLINE_SURFACE_WITH_KNOTS ((3, 2, 2, 2, 3), (2, 2), (0., 0.25, 0.5, 0.75, 1.), (0., 1.), .UNSPECIFIED.)
   GEOMETRIC_REPRESENTATION_ITEM ()
   RATIONAL_B_SPLINE_SURFACE (((1., 1.), (0.707106781186548, 0.707106781186548), (1., 1.), (0.707106781186548, 0.707106781186548), (1., 1.), (0.707106781186548, 0.707106781186548), (1., 1.), (0.707106781186548, 0.707106781186548), (1., 1.)))
   REPRESENTATION_ITEM ('')
   SURFACE ()
);
#32 = CARTESIAN_POINT('', (-3.175, 3.91121571477686E-15, -60.7));
#33 = CARTESIAN_POINT('', (-1.5875, 3.42665336501676E-15, -63.5));
#34 = CARTESIAN_POINT('', (-3.175, 3.175, -60.7));
#35 = CARTESIAN_POINT('', (-1.5875, 1.5875, -63.5));
#36 = CARTESIAN_POINT('', (4.3690590623795E-15, 3.175, -60.7));
#37 = CARTESIAN_POINT('', (2.39963524221087E-15, 1.5875, -63.5));
#38 = CARTESIAN_POINT('', (3.175, 3.175, -60.7));
#39 = CARTESIAN_POINT('', (1.5875, 1.5875, -63.5));
#40 = CARTESIAN_POINT('', (3.175, -3.96647956589764E-15, -60.7));
#41 = CARTESIAN_POINT('', (1.5875, -5.12194275320486E-16, -63.5));
#42 = CARTESIAN_POINT('', (3.175, -3.175, -60.7));
#43 = CARTESIAN_POINT('', (1.5875, -1.5875, -63.5));
#44 = CARTESIAN_POINT('', (-3.11981085956572E-15, -3.175, -60.7));
#45 = CARTESIAN_POINT('', (-1.34479971876173E-15, -1.5875, -63.5));
#46 = CARTESIAN_POINT('', (-3.175, -3.175, -60.7));
#47 = CARTESIAN_POINT('', (-1.5875, -1.5875, -63.5));
#48 = CARTESIAN_POINT('', (-3.175, 3.91121571477686E-15, -60.7));
#49 = CARTESIAN_POINT('', (-1.5875, 3.42665336501676E-15, -63.5));
#50 = ADVANCED_FACE('', (#51), #78, .T.);
#51 = FACE_OUTER_BOUND('', #52, .T.);
#52 = EDGE_LOOP('', (#53, #63, #70, #71));
#53 = ORIENTED_EDGE('', *, *, #54, .T.);
#54 = EDGE_CURVE('', #55, #57, #59, .T.);
#55 = VERTEX_POINT('', #56);
#56 = CARTESIAN_POINT('', (-3.175, 2.13853947301107E-16, -0.317500000000003));
#57 = VERTEX_POINT('', #58);
#58 = CARTESIAN_POINT('', (-2.8575, 1.74971411428178E-16, 0.));
#59 = LINE('', #60, #61);
#60 = CARTESIAN_POINT('', (-3.175, 2.13853947301107E-16, -0.317500000000003));
#61 = VECTOR('', #62, 0.44901280605346);
#62 = DIRECTION('', (0.3175, -3.8882535872929E-17, 0.317500000000003));
#63 = ORIENTED_EDGE('', *, *, #64, .T.);
#64 = EDGE_CURVE('', #57, #57, #65, .T.);
#65 = CIRCLE('', #66, 2.8575);
#66 = AXIS2_PLACEMENT_3D('', #67, #68, #69);
#67 = CARTESIAN_POINT('', (-3.46944695195361E-16, -6.66133814775094E-16, -2.77333911991762E-32));
#68 = DIRECTION('', (8.31826769960494E-33, 6.12323399573676E-17, -1.));
#69 = DIRECTION('', (-1., 2.94350035416718E-16, 9.70547373549474E-33));
#70 = ORIENTED_EDGE('', *, *, #54, .F.);
#71 = ORIENTED_EDGE('', *, *, #72, .F.);
#72 = EDGE_CURVE('', #55, #55, #73, .T.);
#73 = CIRCLE('', #74, 3.17500000000001);
#74 = AXIS2_PLACEMENT_3D('', #75, #76, #77);
#75 = CARTESIAN_POINT('', (5.41233724504764E-16, 4.9960036108132E-16, -0.317500000000003));
#76 = DIRECTION('', (5.24514814783537E-17, 7.87931949724616E-18, -1.));
#77 = DIRECTION('', (-1., -3.34928230311427E-16, -5.24514814783537E-17));
#78 = (
   BOUNDED_SURFACE ()
   B_SPLINE_SURFACE (1, 2, ((#79, #80, #81, #82, #83, #84, #85, #86, #87), (#88, #89, #90, #91, #92, #93, #94, #95, #96)), .UNSPECIFIED., .F., .T., .U.)
   B_SPLINE_SURFACE_WITH_KNOTS ((2, 2), (3, 2, 2, 2, 3), (0., 1.), (0., 0.25, 0.5, 0.75, 1.), .UNSPECIFIED.)
   GEOMETRIC_REPRESENTATION_ITEM ()
   RATIONAL_B_SPLINE_SURFACE (((1., 0.707106781186548, 1., 0.707106781186548, 1., 0.707106781186548, 1., 0.707106781186548, 1.), (1., 0.707106781186548, 1., 0.707106781186548, 1., 0.707106781186548, 1., 0.707106781186548, 1.)))
   REPRESENTATION_ITEM ('')
   SURFACE ()
);
#79 = CARTESIAN_POINT('', (-3.175, -6.87597834643122E-16, -0.317500000000003));
#80 = CARTESIAN_POINT('', (-3.175, 3.175, -0.317500000000012));
#81 = CARTESIAN_POINT('', (1.74089138166917E-15, 3.175, -0.317500000000012));
#82 = CARTESIAN_POINT('', (3.175, 3.175, -0.317500000000012));
#83 = CARTESIAN_POINT('', (3.175, -1.92117897311552E-15, -0.317500000000003));
#84 = CARTESIAN_POINT('', (3.175, -3.175, -0.317499999999993));
#85 = CARTESIAN_POINT('', (8.96135601926058E-16, -3.175, -0.317499999999993));
#86 = CARTESIAN_POINT('', (-3.175, -3.175, -0.317499999999993));
#87 = CARTESIAN_POINT('', (-3.175, -6.87597834643122E-16, -0.317500000000003));
#88 = CARTESIAN_POINT('', (-2.8575, 1.74971411428178E-16, 0.));
#89 = CARTESIAN_POINT('', (-2.8575, 2.8575, -8.49320613838237E-15));
#90 = CARTESIAN_POINT('', (1.67921232474555E-15, 2.8575, -8.49320613838237E-15));
#91 = CARTESIAN_POINT('', (2.8575, 2.8575, -8.49320613838237E-15));
#92 = CARTESIAN_POINT('', (2.8575, -9.35251613196978E-16, -1.09558455358522E-30));
#93 = CARTESIAN_POINT('', (2.8575, -2.8575, 8.49320613838237E-15));
#94 = CARTESIAN_POINT('', (9.18932122976749E-16, -2.8575, 8.49320613838237E-15));
#95 = CARTESIAN_POINT('', (-2.8575, -2.8575, 8.49320613838237E-15));
#96 = CARTESIAN_POINT('', (-2.8575, 1.74971411428178E-16, 0.));
#97 = ADVANCED_FACE('', (#98), #101, .T.);
#98 = FACE_OUTER_BOUND('', #99, .T.);
#99 = EDGE_LOOP('', (#100));
#100 = ORIENTED_EDGE('', *, *, #64, .F.);
#101 = B_SPLINE_SURFACE_WITH_KNOTS('', 1, 1, ((#102, #103), (#104, #105)), .UNSPECIFIED., .F., .F., .U., (2, 2), (2, 2), (1.58772677992923, 7.30272677992923), (1.58772677992923, 7.30272677992923), .UNSPECIFIED.);
#102 = CARTESIAN_POINT('', (2.8575, -2.8575, 6.93045594617286E-15));
#103 = CARTESIAN_POINT('', (-2.8575, -2.8575, -7.28039876902917E-15));
#104 = CARTESIAN_POINT('', (2.8575, 2.8575, 7.28039876902922E-15));
#105 = CARTESIAN_POINT('', (-2.8575, 2.8575, -6.93045594617282E-15));
#106 = ADVANCED_FACE('', (#107), #118, .T.);
#107 = FACE_OUTER_BOUND('', #108, .T.);
#108 = EDGE_LOOP('', (#109, #115, #116, #117));
#109 = ORIENTED_EDGE('', *, *, #110, .T.);
#110 = EDGE_CURVE('', #8, #55, #111, .T.);
#111 = LINE('', #112, #113);
#112 = CARTESIAN_POINT('', (-3.175, 3.91121571477686E-15, -60.7));
#113 = VECTOR('', #114, 60.3825);
#114 = DIRECTION('', (0., -3.69736176747575E-15, 60.3825));
#115 = ORIENTED_EDGE('', *, *, #72, .T.);
#116 = ORIENTED_EDGE('', *, *, #110, .F.);
#117 = ORIENTED_EDGE('', *, *, #17, .F.);
#118 = (
   BOUNDED_SURFACE ()
   B_SPLINE_SURFACE (1, 2, ((#119, #120, #121, #122, #123, #124, #125, #126, #127), (#128, #129, #130, #131, #132, #133, #134, #135, #136)), .UNSPECIFIED., .F., .T., .U.)
   B_SPLINE_SURFACE_WITH_KNOTS ((2, 2), (3, 2, 2, 2, 3), (0., 1.), (0., 4.9872783375738, 9.9745566751476, 14.9618350127214, 19.9491133502952), .UNSPECIFIED.)
   GEOMETRIC_REPRESENTATION_ITEM ()
   RATIONAL_B_SPLINE_SURFACE (((1., 0.707106781186548, 1., 0.707106781186548, 1., 0.707106781186548, 1., 0.707106781186548, 1.), (1., 0.707106781186548, 1., 0.707106781186548, 1., 0.707106781186548, 1., 0.707106781186548, 1.)))
   REPRESENTATION_ITEM ('')
   SURFACE ()
);
#119 = CARTESIAN_POINT('', (-3.175, 2.60083345024519E-15, -60.7));
#120 = CARTESIAN_POINT('', (-3.17499999999999, 3.175, -60.7));
#121 = CARTESIAN_POINT('', (6.98910670764433E-15, 3.175, -60.7));
#122 = CARTESIAN_POINT('', (3.17500000000001, 3.175, -60.7));
#123 = CARTESIAN_POINT('', (3.175, -2.1009857890534E-15, -60.7));
#124 = CARTESIAN_POINT('', (3.175, -3.175, -60.7));
#125 = CARTESIAN_POINT('', (2.67611282707503E-15, -3.175, -60.7));
#126 = CARTESIAN_POINT('', (-3.175, -3.175, -60.7));
#127 = CARTESIAN_POINT('', (-3.175, 2.60083345024519E-15, -60.7));
#128 = CARTESIAN_POINT('', (-3.175, 2.13853947301106E-16, -0.317500000000003));
#129 = CARTESIAN_POINT('', (-3.175, 3.175, -0.317500000000003));
#130 = CARTESIAN_POINT('', (3.82195512727762E-15, 3.175, -0.317500000000003));
#131 = CARTESIAN_POINT('', (3.175, 3.175, -0.317500000000003));
#132 = CARTESIAN_POINT('', (3.175, -4.48796529199748E-15, -0.317500000000003));
#133 = CARTESIAN_POINT('', (3.175, -3.175, -0.317500000000003));
#134 = CARTESIAN_POINT('', (-4.91038753291676E-16, -3.175, -0.317500000000003));
#135 = CARTESIAN_POINT('', (-3.175, -3.175, -0.317500000000003));
#136 = CARTESIAN_POINT('', (-3.175, 2.13853947301106E-16, -0.317500000000003));
#137 = ADVANCED_FACE('', (#138), #157, .T.);
#138 = FACE_OUTER_BOUND('', #139, .T.);
#139 = EDGE_LOOP('', (#140, #149, #155, #156));
#140 = ORIENTED_EDGE('', *, *, #141, .F.);
#141 = EDGE_CURVE('', #142, #142, #144, .T.);
#142 = VERTEX_POINT('', #143);
#143 = CARTESIAN_POINT('', (-1.5875, 4.37428528570445E-15, -69.85));
#144 = CIRCLE('', #145, 1.5875);
#145 = AXIS2_PLACEMENT_3D('', #146, #147, #148);
#146 = CARTESIAN_POINT('', (4.09394740330526E-16, 1.66533453693773E-15, -69.85));
#147 = DIRECTION('', (0., 0., -1.));
#148 = DIRECTION('', (-1., 1.461496308685E-15, 0.));
#149 = ORIENTED_EDGE('', *, *, #150, .F.);
#150 = EDGE_CURVE('', #10, #142, #151, .T.);
#151 = LINE('', #152, #153);
#152 = CARTESIAN_POINT('', (-1.5875, 3.98545992697517E-15, -63.5));
#153 = VECTOR('', #154, 6.34999999999999);
#154 = DIRECTION('', (0., 3.8882535872928E-16, -6.34999999999999));
#155 = ORIENTED_EDGE('', *, *, #25, .T.);
#156 = ORIENTED_EDGE('', *, *, #150, .T.);
#157 = (
   BOUNDED_SURFACE ()
   B_SPLINE_SURFACE (2, 1, ((#158, #159), (#160, #161), (#162, #163), (#164, #165), (#166, #167), (#168, #169), (#170, #171), (#172, #173), (#174, #175)), .UNSPECIFIED., .T., .F., .U.)
   B_SPLINE_SURFACE_WITH_KNOTS ((3, 2, 2, 2, 3), (2, 2), (0., 2.4936391687869, 4.9872783375738, 7.48091750636069, 9.97455667514759), (0., 0.573510839271623), .UNSPECIFIED.)
   GEOMETRIC_REPRESENTATION_ITEM ()
   RATIONAL_B_SPLINE_SURFACE (((1., 1.), (0.707106781186548, 0.707106781186548), (1., 1.), (0.707106781186548, 0.707106781186548), (1., 1.), (0.707106781186548, 0.707106781186548), (1., 1.), (0.707106781186548, 0.707106781186548), (1., 1.)))
   REPRESENTATION_ITEM ('')
   SURFACE ()
);
#158 = CARTESIAN_POINT('', (-1.5875, 3.98545992697517E-15, -63.5));
#159 = CARTESIAN_POINT('', (-1.5875, 4.37403798559398E-15, -69.85));
#160 = CARTESIAN_POINT('', (-1.5875, 1.5875, -63.5));
#161 = CARTESIAN_POINT('', (-1.5875, 1.5875, -69.85));
#162 = CARTESIAN_POINT('', (2.41720807966452E-15, 1.5875, -63.5));
#163 = CARTESIAN_POINT('', (2.41720807966452E-15, 1.5875, -69.85));
#164 = CARTESIAN_POINT('', (1.5875, 1.5875, -63.5));
#165 = CARTESIAN_POINT('', (1.5875, 1.5875, -69.85));
#166 = CARTESIAN_POINT('', (1.5875, -4.60378173735058E-16, -63.5));
#167 = CARTESIAN_POINT('', (1.5875, -7.18001151162536E-17, -69.85));
#168 = CARTESIAN_POINT('', (1.5875, -1.5875, -63.5));
#169 = CARTESIAN_POINT('', (1.5875, -1.5875, -69.85));
#170 = CARTESIAN_POINT('', (-1.83421734168107E-15, -1.5875, -63.5));
#171 = CARTESIAN_POINT('', (-1.83421734168107E-15, -1.5875, -69.85));
#172 = CARTESIAN_POINT('', (-1.5875, -1.5875, -63.5));
#173 = CARTESIAN_POINT('', (-1.5875, -1.5875, -69.85));
#174 = CARTESIAN_POINT('', (-1.5875, 3.98545992697517E-15, -63.5));
#175 = CARTESIAN_POINT('', (-1.5875, 4.37403798559398E-15, -69.85));
#176 = ADVANCED_FACE('', (#177), #180, .T.);
#177 = FACE_OUTER_BOUND('', #178, .T.);
#178 = EDGE_LOOP('', (#179));
#179 = ORIENTED_EDGE('', *, *, #141, .T.);
#180 = B_SPLINE_SURFACE_WITH_KNOTS('', 1, 1, ((#181, #182), (#183, #184)), .UNSPECIFIED., .F., .F., .U., (2, 2), (2, 2), (77.7856805112916, 80.9606805112916), (72.4940106362917, 75.6690106362917), .UNSPECIFIED.);
#181 = CARTESIAN_POINT('', (-1.5875, 1.58750000000001, -69.85));
#182 = CARTESIAN_POINT('', (-1.5875, -1.58750000000001, -69.85));
#183 = CARTESIAN_POINT('', (1.58750000000001, 1.58750000000001, -69.85));
#184 = CARTESIAN_POINT('', (1.58750000000001, -1.58750000000001, -69.85));
#185 = DRAUGHTING_MODEL('', (#193, #319, #359, #364, #369, #374, #379), #393);
#186 = PRESENTATION_STYLE_ASSIGNMENT((#187));
#187 = SURFACE_STYLE_USAGE(.POSITIVE., #188);
#188 = SURFACE_SIDE_STYLE('', (#189));
#189 = SURFACE_STYLE_FILL_AREA(#190);
#190 = FILL_AREA_STYLE('', (#191));
#191 = FILL_AREA_STYLE_COLOUR('', #192);
#192 = COLOUR_RGB('', 0.50196078431373, 0.50196078431373, 0.50196078431373);
#193 = STYLED_ITEM('', (#186), #1);
#194 = MANIFOLD_SOLID_BREP('CUT', #195);
#195 = CLOSED_SHELL('', (#196, #213, #252));
#196 = ADVANCED_FACE('', (#197), #208, .T.);
#197 = FACE_OUTER_BOUND('', #198, .T.);
#198 = EDGE_LOOP('', (#199));
#199 = ORIENTED_EDGE('', *, *, #200, .F.);
#200 = EDGE_CURVE('', #201, #201, #203, .T.);
#201 = VERTEX_POINT('', #202);
#202 = CARTESIAN_POINT('', (-1.5875, 4.37428528570445E-15, -69.85));
#203 = CIRCLE('', #204, 1.5875);
#204 = AXIS2_PLACEMENT_3D('', #205, #206, #207);
#205 = CARTESIAN_POINT('', (5.89805981832114E-16, 2.63677968348475E-15, -69.85));
#206 = DIRECTION('', (0., 0., -1.));
#207 = DIRECTION('', (-1., 1.09449171793367E-15, 0.));
#208 = B_SPLINE_SURFACE_WITH_KNOTS('', 1, 1, ((#209, #210), (#211, #212)), .UNSPECIFIED., .F., .F., .U., (2, 2), (2, 2), (72.4940106362917, 75.6690106362917), (77.7856805112916, 80.9606805112916), .UNSPECIFIED.);
#209 = CARTESIAN_POINT('', (-1.58750000000001, 1.58750000000001, -69.85));
#210 = CARTESIAN_POINT('', (1.58750000000001, 1.58750000000001, -69.85));
#211 = CARTESIAN_POINT('', (-1.58750000000001, -1.58750000000001, -69.85));
#212 = CARTESIAN_POINT('', (1.58750000000001, -1.58750000000001, -69.85));
#213 = ADVANCED_FACE('', (#214), #233, .T.);
#214 = FACE_OUTER_BOUND('', #215, .T.);
#215 = EDGE_LOOP('', (#216, #217, #225, #232));
#216 = ORIENTED_EDGE('', *, *, #200, .T.);
#217 = ORIENTED_EDGE('', *, *, #218, .T.);
#218 = EDGE_CURVE('', #201, #219, #221, .T.);
#219 = VERTEX_POINT('', #220);
#220 = CARTESIAN_POINT('', (-1.5875, 4.66343378920087E-15, -74.5721534192182));
#221 = LINE('', #222, #223);
#222 = CARTESIAN_POINT('', (-1.5875, 4.37428528570445E-15, -69.85));
#223 = VECTOR('', #224, 4.7221534192182);
#224 = DIRECTION('', (0., 2.8914850349642E-16, -4.7221534192182));
#225 = ORIENTED_EDGE('', *, *, #226, .F.);
#226 = EDGE_CURVE('', #219, #219, #227, .T.);
#227 = CIRCLE('', #228, 1.5875);
#228 = AXIS2_PLACEMENT_3D('', #229, #230, #231);
#229 = CARTESIAN_POINT('', (1.12410081243297E-15, 2.22044604925031E-15, -74.5721534192182));
#230 = DIRECTION('', (0., 0., -1.));
#231 = DIRECTION('', (-1., 1.53888991492948E-15, 0.));
#232 = ORIENTED_EDGE('', *, *, #218, .F.);
#233 = (
   BOUNDED_SURFACE ()
   B_SPLINE_SURFACE (2, 1, ((#234, #235), (#236, #237), (#238, #239), (#240, #241), (#242, #243), (#244, #245), (#246, #247), (#248, #249), (#250, #251)), .UNSPECIFIED., .T., .F., .U.)
   B_SPLINE_SURFACE_WITH_KNOTS ((3, 2, 2, 2, 3), (2, 2), (0., 2.4936391687869, 4.9872783375738, 7.48091750636069, 9.97455667514759), (0.573510839271623, 1.), .UNSPECIFIED.)
   GEOMETRIC_REPRESENTATION_ITEM ()
   RATIONAL_B_SPLINE_SURFACE (((1., 1.), (0.707106781186548, 0.707106781186548), (1., 1.), (0.707106781186548, 0.707106781186548), (1., 1.), (0.707106781186548, 0.707106781186548), (1., 1.), (0.707106781186548, 0.707106781186548), (1., 1.)))
   REPRESENTATION_ITEM ('')
   SURFACE ()
);
#234 = CARTESIAN_POINT('', (-1.5875, 4.37428528570445E-15, -69.85));
#235 = CARTESIAN_POINT('', (-1.5875, 4.65184104186074E-15, -74.5721534192182));
#236 = CARTESIAN_POINT('', (-1.5875, 1.5875, -69.85));
#237 = CARTESIAN_POINT('', (-1.5875, 1.5875, -74.5721534192182));
#238 = CARTESIAN_POINT('', (2.38969980415936E-15, 1.5875, -69.85));
#239 = CARTESIAN_POINT('', (2.38969980415936E-15, 1.5875, -74.5721534192182));
#240 = CARTESIAN_POINT('', (1.5875, 1.5875, -69.85));
#241 = CARTESIAN_POINT('', (1.5875, 1.5875, -74.5721534192182));
#242 = CARTESIAN_POINT('', (1.5875, -7.20474152267285E-17, -69.85));
#243 = CARTESIAN_POINT('', (1.5875, 2.05508340929561E-16, -74.5721534192182));
#244 = CARTESIAN_POINT('', (1.5875, -1.5875, -69.85));
#245 = CARTESIAN_POINT('', (1.5875, -1.5875, -74.5721534192182));
#246 = CARTESIAN_POINT('', (-1.86222021740717E-15, -1.5875, -69.85));
#247 = CARTESIAN_POINT('', (-1.86222021740717E-15, -1.5875, -74.5721534192182));
#248 = CARTESIAN_POINT('', (-1.5875, -1.5875, -69.85));
#249 = CARTESIAN_POINT('', (-1.5875, -1.5875, -74.5721534192182));
#250 = CARTESIAN_POINT('', (-1.5875, 4.37428528570445E-15, -69.85));
#251 = CARTESIAN_POINT('', (-1.5875, 4.65184104186074E-15, -74.5721534192182));
#252 = ADVANCED_FACE('', (#253), #266, .T.);
#253 = FACE_OUTER_BOUND('', #254, .T.);
#254 = EDGE_LOOP('', (#255, #264, #265));
#255 = ORIENTED_EDGE('', *, *, #256, .F.);
#256 = EDGE_CURVE('', #219, #257, #259, .T.);
#257 = VERTEX_POINT('', #258);
#258 = CARTESIAN_POINT('', (-4.16333634234431E-17, 4.66590430475142E-15, -76.2));
#259 = CIRCLE('', #260, 1.58799999999994);
#260 = AXIS2_PLACEMENT_3D('', #261, #262, #263);
#261 = CARTESIAN_POINT('', (-6.43929354282591E-14, 4.56866734889915E-15, -74.6120000000001));
#262 = DIRECTION('', (-6.12323399573555E-17, -1., -6.12323399573577E-17));
#263 = DIRECTION('', (-0.999685138539042, 5.96765996862266E-17, 0.0250923052782562));
#264 = ORIENTED_EDGE('', *, *, #226, .T.);
#265 = ORIENTED_EDGE('', *, *, #256, .T.);
#266 = (
   BOUNDED_SURFACE ()
   B_SPLINE_SURFACE (2, 2, ((#267, #268, #269, #270, #271), (#272, #273, #274, #275, #276), (#277, #278, #279, #280, #281), (#282, #283, #284, #285, #286), (#287, #288, #289, #290, #291), (#292, #293, #294, #295, #296), (#297, #298, #299, #300, #301), (#302, #303, #304, #305, #306), (#307, #308, #309, #310, #311)), .UNSPECIFIED., .T., .F., .U.)
   B_SPLINE_SURFACE_WITH_KNOTS ((3, 2, 2, 2, 3), (3, 2, 3), (0., 0.25, 0.5, 0.75, 1.), (0., 0.5, 1.), .UNSPECIFIED.)
   GEOMETRIC_REPRESENTATION_ITEM ()
   RATIONAL_B_SPLINE_SURFACE (((1., 0.921460512125948, 1., 0.921460512125948, 1.), (0.707106781186548, 0.651570976719887, 0.707106781186548, 0.651570976719887, 0.707106781186548), (1., 0.921460512125948, 1., 0.921460512125948, 1.), (0.707106781186548, 0.651570976719887, 0.707106781186548, 0.651570976719887, 0.707106781186548), (1., 0.921460512125948, 1., 0.921460512125948, 1.), (0.707106781186548, 0.651570976719887, 0.707106781186548, 0.651570976719887, 0.707106781186548), (1., 0.921460512125948, 1., 0.921460512125948, 1.), (0.707106781186548, 0.651570976719887, 0.707106781186548, 0.651570976719887, 0.707106781186548), (1., 0.921460512125948, 1., 0.921460512125948, 1.)))
   REPRESENTATION_ITEM ('')
   SURFACE ()
);
#267 = CARTESIAN_POINT('', (-1.5875, 4.66343378920087E-15, -74.5721534192182));
#268 = CARTESIAN_POINT('', (-1.60429863895907, 4.70544294433547E-15, -75.2414163477879));
#269 = CARTESIAN_POINT('', (-1.13688617950116, 4.70617034575255E-15, -75.720708173894));
#270 = CARTESIAN_POINT('', (-0.669473720043261, 4.70689774716963E-15, -76.2));
#271 = CARTESIAN_POINT('', (-4.16333634234431E-17, 4.66590430475142E-15, -76.2));
#272 = CARTESIAN_POINT('', (-1.5875, 1.58749999999989, -74.5721534192182));
#273 = CARTESIAN_POINT('', (-1.60429863895907, 1.60429863895896, -75.2414163477879));
#274 = CARTESIAN_POINT('', (-1.13688617950116, 1.13688617950105, -75.720708173894));
#275 = CARTESIAN_POINT('', (-0.669473720043261, 0.669473720043155, -76.2));
#276 = CARTESIAN_POINT('', (-4.16333634234431E-17, 4.66590430475142E-15, -76.2));
#277 = CARTESIAN_POINT('', (-1.11024742361896E-13, 1.58749999999989, -74.5721534192182));
#278 = CARTESIAN_POINT('', (-1.10983761826733E-13, 1.60429863895896, -75.2414163477879));
#279 = CARTESIAN_POINT('', (-1.10954413666698E-13, 1.13688617950105, -75.720708173894));
#280 = CARTESIAN_POINT('', (-1.10925065506663E-13, 0.669473720043155, -76.2));
#281 = CARTESIAN_POINT('', (-4.16333634234431E-17, 4.66590430475142E-15, -76.2));
#282 = CARTESIAN_POINT('', (1.58749999999978, 1.58749999999989, -74.5721534192182));
#283 = CARTESIAN_POINT('', (1.60429863895885, 1.60429863895896, -75.2414163477879));
#284 = CARTESIAN_POINT('', (1.13688617950094, 1.13688617950105, -75.720708173894));
#285 = CARTESIAN_POINT('', (0.669473720043039, 0.669473720043154, -76.2));
#286 = CARTESIAN_POINT('', (-4.16333634234431E-17, 4.66590430475142E-15, -76.2));
#287 = CARTESIAN_POINT('', (1.58749999999978, 4.66831358796206E-15, -74.5721534192182));
#288 = CARTESIAN_POINT('', (1.60429863895885, 4.62836167277059E-15, -75.2414163477879));
#289 = CARTESIAN_POINT('', (1.13688617950094, 4.57039275411784E-15, -75.720708173894));
#290 = CARTESIAN_POINT('', (0.669473720043039, 4.51242383546509E-15, -76.2));
#291 = CARTESIAN_POINT('', (-4.16333634234431E-17, 4.66590430475142E-15, -76.2));
#292 = CARTESIAN_POINT('', (1.58749999999978, -1.58749999999988, -74.5721534192182));
#293 = CARTESIAN_POINT('', (1.60429863895885, -1.60429863895895, -75.2414163477879));
#294 = CARTESIAN_POINT('', (1.13688617950094, -1.13688617950104, -75.720708173894));
#295 = CARTESIAN_POINT('', (0.669473720043039, -0.669473720043146, -76.2));
#296 = CARTESIAN_POINT('', (-4.16333634234431E-17, 4.66590430475142E-15, -76.2));
#297 = CARTESIAN_POINT('', (-1.1082544988377E-13, -1.58749999999988, -74.5721534192182));
#298 = CARTESIAN_POINT('', (-1.1086437317899E-13, -1.60429863895895, -75.2414163477879));
#299 = CARTESIAN_POINT('', (-1.10950962856261E-13, -1.13688617950104, -75.720708173894));
#300 = CARTESIAN_POINT('', (-1.11037552533532E-13, -0.669473720043145, -76.2));
#301 = CARTESIAN_POINT('', (-4.16333634234431E-17, 4.66590430475142E-15, -76.2));
#302 = CARTESIAN_POINT('', (-1.5875, -1.58749999999988, -74.5721534192182));
#303 = CARTESIAN_POINT('', (-1.60429863895907, -1.60429863895895, -75.2414163477879));
#304 = CARTESIAN_POINT('', (-1.13688617950116, -1.13688617950104, -75.720708173894));
#305 = CARTESIAN_POINT('', (-0.669473720043261, -0.669473720043145, -76.2));
#306 = CARTESIAN_POINT('', (-4.16333634234431E-17, 4.66590430475142E-15, -76.2));
#307 = CARTESIAN_POINT('', (-1.5875, 4.66343378920087E-15, -74.5721534192182));
#308 = CARTESIAN_POINT('', (-1.60429863895907, 4.70544294433547E-15, -75.2414163477879));
#309 = CARTESIAN_POINT('', (-1.13688617950116, 4.70617034575255E-15, -75.720708173894));
#310 = CARTESIAN_POINT('', (-0.669473720043261, 4.70689774716963E-15, -76.2));
#311 = CARTESIAN_POINT('', (-4.16333634234431E-17, 4.66590430475142E-15, -76.2));
#312 = PRESENTATION_STYLE_ASSIGNMENT((#313));
#313 = SURFACE_STYLE_USAGE(.POSITIVE., #314);
#314 = SURFACE_SIDE_STYLE('', (#315));
#315 = SURFACE_STYLE_FILL_AREA(#316);
#316 = FILL_AREA_STYLE('', (#317));
#317 = FILL_AREA_STYLE_COLOUR('', #318);
#318 = COLOUR_RGB('', 0.8, 0.8, 0.8);
#319 = STYLED_ITEM('', (#312), #194);
#320 = TRIMMED_CURVE('cutting part line', #321, (#325), (#326), .T., .CARTESIAN.);
#321 = LINE('', #322, #323);
#322 = CARTESIAN_POINT('', (-7.85686656141981E-31, -4.27707894602213E-15, -69.85));
#323 = VECTOR('', #324, 1.5875);
#324 = DIRECTION('', (1.5875, -2.91619019046962E-16, 0.));
#325 = CARTESIAN_POINT('', (-7.85686656141981E-31, -4.27707894602213E-15, -69.85));
#326 = CARTESIAN_POINT('', (1.5875, -4.56869796506909E-15, -69.85));
#327 = TRIMMED_CURVE('cutting part line', #328, (#332), (#333), .T., .CARTESIAN.);
#328 = LINE('', #329, #330);
#329 = CARTESIAN_POINT('', (1.5875, -4.56869796506909E-15, -69.85));
#330 = VECTOR('', #331, 4.7221534192182);
#331 = DIRECTION('', (0., -2.8914850349642E-16, -4.7221534192182));
#332 = CARTESIAN_POINT('', (1.5875, -4.56869796506909E-15, -69.85));
#333 = CARTESIAN_POINT('', (1.5875, -4.85784646856551E-15, -74.5721534192182));
#334 = TRIMMED_CURVE('cutting part line', #335, (#340), (#341), .T., .CARTESIAN.);
#335 = CIRCLE('', #336, 1.58800000000003);
#336 = AXIS2_PLACEMENT_3D('', #337, #338, #339);
#337 = CARTESIAN_POINT('', (-3.41948691584548E-14, -4.56866734889912E-15, -74.612));
#338 = DIRECTION('', (1.83697019872098E-16, 1., -6.12323399573643E-17));
#339 = DIRECTION('', (0.999685138539043, -1.82102720192939E-16, 0.0250923052781922));
#340 = CARTESIAN_POINT('', (1.5875, -4.85784646856551E-15, -74.5721534192182));
#341 = CARTESIAN_POINT('', (1.49186218934005E-15, -4.66590430475142E-15, -76.2));
#342 = TRIMMED_CURVE('cutting part line', #343, (#347), (#348), .T., .CARTESIAN.);
#343 = LINE('', #344, #345);
#344 = CARTESIAN_POINT('', (-8.57112715791252E-31, -4.66590430475142E-15, -76.2));
#345 = VECTOR('', #346, 6.35000000000001);
#346 = DIRECTION('', (7.14260596492717E-32, 3.8882535872929E-16, 6.35000000000001));
#347 = CARTESIAN_POINT('', (-8.57112715791252E-31, -4.66590430475142E-15, -76.2));
#348 = CARTESIAN_POINT('', (-7.85686656141981E-31, -4.27707894602213E-15, -69.85));
#349 = COMPOSITE_CURVE('cutting part line', (#350, #351, #352, #353), .U.);
#350 = COMPOSITE_CURVE_SEGMENT(.CONTINUOUS., .T., #320);
#351 = COMPOSITE_CURVE_SEGMENT(.CONTINUOUS., .T., #327);
#352 = COMPOSITE_CURVE_SEGMENT(.CONTINUOUS., .T., #334);
#353 = COMPOSITE_CURVE_SEGMENT(.CONTINUOUS., .T., #342);
#354 = GEOMETRIC_SET('', (#349, #392));
#355 = PRESENTATION_STYLE_ASSIGNMENT((#356));
#356 = CURVE_STYLE('', #358, POSITIVE_LENGTH_MEASURE(1.E-6), #357);
#357 = COLOUR_RGB('', 0., 0., 1.);
#358 = DRAUGHTING_PRE_DEFINED_CURVE_FONT('continuous');
#359 = STYLED_ITEM('', (#355), #349);
#360 = PRESENTATION_STYLE_ASSIGNMENT((#361));
#361 = CURVE_STYLE('', #363, POSITIVE_LENGTH_MEASURE(1.E-6), #362);
#362 = COLOUR_RGB('', 0., 0., 1.);
#363 = DRAUGHTING_PRE_DEFINED_CURVE_FONT('continuous');
#364 = OVER_RIDING_STYLED_ITEM('', (#360), #320, #359);
#365 = PRESENTATION_STYLE_ASSIGNMENT((#366));
#366 = CURVE_STYLE('', #368, POSITIVE_LENGTH_MEASURE(1.E-6), #367);
#367 = COLOUR_RGB('', 0., 0., 1.);
#368 = DRAUGHTING_PRE_DEFINED_CURVE_FONT('continuous');
#369 = OVER_RIDING_STYLED_ITEM('', (#365), #327, #359);
#370 = PRESENTATION_STYLE_ASSIGNMENT((#371));
#371 = CURVE_STYLE('', #373, POSITIVE_LENGTH_MEASURE(1.E-6), #372);
#372 = COLOUR_RGB('', 0., 0., 1.);
#373 = DRAUGHTING_PRE_DEFINED_CURVE_FONT('continuous');
#374 = OVER_RIDING_STYLED_ITEM('', (#370), #334, #359);
#375 = PRESENTATION_STYLE_ASSIGNMENT((#376));
#376 = CURVE_STYLE('', #378, POSITIVE_LENGTH_MEASURE(1.E-6), #377);
#377 = COLOUR_RGB('', 0., 0., 1.);
#378 = DRAUGHTING_PRE_DEFINED_CURVE_FONT('continuous');
#379 = OVER_RIDING_STYLED_ITEM('', (#375), #342, #359);
#380 = AXIS2_PLACEMENT_3D('CIP', #381, #382, #383);
#381 = CARTESIAN_POINT('', (2.85704238597084E-31, 4.66590430475142E-15, -76.2));
#382 = DIRECTION('', (-3.74939945665465E-33, -6.12323399573677E-17, 1.));
#383 = DIRECTION('', (1., -6.12323399573677E-17, 0.));
#384 = AXIS2_PLACEMENT_3D('MCS', #385, #386, #387);
#385 = CARTESIAN_POINT('', (1.34978380439567E-31, 2.20436423846524E-15, -36.));
#386 = DIRECTION('', (-3.74939945665465E-33, -6.12323399573677E-17, 1.));
#387 = DIRECTION('', (1., -6.12323399573677E-17, 0.));
#388 = AXIS2_PLACEMENT_3D('PCS', #389, #390, #391);
#389 = CARTESIAN_POINT('', (0., 0., 0.));
#390 = DIRECTION('', (0., 0., 1.));
#391 = DIRECTION('', (1., 0., 0.));
#392 = CARTESIAN_POINT('CRP', (1.588, 0., -76.2));
#393 = (
   GEOMETRIC_REPRESENTATION_CONTEXT (3)
   GLOBAL_UNCERTAINTY_ASSIGNED_CONTEXT ((#395))
   GLOBAL_UNIT_ASSIGNED_CONTEXT ((#394, #396, #397))
   REPRESENTATION_CONTEXT ('', '3D')
);
#394 = (
   LENGTH_UNIT ()
   NAMED_UNIT (*)
   SI_UNIT (.MILLI., .METRE.)
);
#395 = UNCERTAINTY_MEASURE_WITH_UNIT(LENGTH_MEASURE(1.E-6), #394, 'DISTANCE_ACCURACY_VALUE', '');
#396 = (
   NAMED_UNIT (*)
   SI_UNIT ($, .STERADIAN.)
   SOLID_ANGLE_UNIT ()
);
#397 = (
   NAMED_UNIT (*)
   PLANE_ANGLE_UNIT ()
   SI_UNIT ($, .RADIAN.)
);
#398 = SHAPE_REPRESENTATION('', (), #393);
#399 = PRODUCT_DEFINITION_SHAPE('', '', #400);
#400 = PRODUCT_DEFINITION('', '', #403, #407);
#401 = APPLICATION_CONTEXT('configuration controlled 3D designs of mechanical parts and assemblies');
#402 = APPLICATION_PROTOCOL_DEFINITION('International Standard', 'automotive_design', 2002, #401);
#403 = PRODUCT_DEFINITION_FORMATION_WITH_SPECIFIED_SOURCE('', '', #404, .NOT_KNOWN.);
#404 = PRODUCT('EmptyName', 'EmptyName', '', (#405));
#405 = PRODUCT_CONTEXT('', #401, 'mechanical');
#406 = PRODUCT_RELATED_PRODUCT_CATEGORY('detail', '', (#404));
#407 = PRODUCT_DEFINITION_CONTEXT('part definition', #401, 'design');
#408 = SHAPE_DEFINITION_REPRESENTATION(#399, #398);
#409 = CONSTRUCTIVE_GEOMETRY_REPRESENTATION('supplemental geometry', (#380, #384, #388), #393);
#410 = CONSTRUCTIVE_GEOMETRY_REPRESENTATION_RELATIONSHIP('', '', #398, #409);
#411 = SHAPE_REPRESENTATION_RELATIONSHIP('', '', #398, #412);
#412 = SHAPE_REPRESENTATION('', (#354), #393);
#413 = SHAPE_REPRESENTATION_RELATIONSHIP('', '', #398, #414);
#414 = ADVANCED_BREP_SHAPE_REPRESENTATION('', (#1, #194), #393);
ENDSEC;
END-ISO-10303-21;
