ISO-10303-21;
HEADER;
FILE_DESCRIPTION(('STEP'), '1');
FILE_NAME('C:\\Users\\ds2002\\OneDrive - Sandvik\\HomeShare\\Documents\\Batchrepair\\CorSRT2\\NEW_MILBN_SLD\\Output3\\MOD000000000000000020082227000000.stp', '2018-11-27T13:12:19', (''), (''), 'Express v3.0.0.0', 'Express Tool', 'Unknown');
FILE_SCHEMA(('AUTOMOTIVE_DESIGN'));
ENDSEC;

DATA;
#1 = MANIFOLD_SOLID_BREP('NOCUT', #2);
#2 = CLOSED_SHELL('', (#3, #50, #59, #98));
#3 = ADVANCED_FACE('', (#4), #31, .T.);
#4 = FACE_OUTER_BOUND('', #5, .T.);
#5 = EDGE_LOOP('', (#6, #16, #23, #24));
#6 = ORIENTED_EDGE('', *, *, #7, .T.);
#7 = EDGE_CURVE('', #8, #10, #12, .T.);
#8 = VERTEX_POINT('', #9);
#9 = CARTESIAN_POINT('', (-7.9375, 5.34634868252767E-16, -0.793750000000003));
#10 = VERTEX_POINT('', #11);
#11 = CARTESIAN_POINT('', (-7.14375, 4.37428528570445E-16, 0.));
#12 = LINE('', #13, #14);
#13 = CARTESIAN_POINT('', (-7.9375, 5.34634868252767E-16, -0.793750000000003));
#14 = VECTOR('', #15, 1.12253201513365);
#15 = DIRECTION('', (0.79375, -9.72063396823219E-17, 0.793750000000003));
#16 = ORIENTED_EDGE('', *, *, #17, .T.);
#17 = EDGE_CURVE('', #10, #10, #18, .T.);
#18 = CIRCLE('', #19, 7.14375);
#19 = AXIS2_PLACEMENT_3D('', #20, #21, #22);
#20 = CARTESIAN_POINT('', (4.16333634234434E-16, 2.44249065417534E-15, 1.4791141972894E-31));
#21 = DIRECTION('', (3.51870852399057E-33, 6.12323399573676E-17, -1.));
#22 = DIRECTION('', (-1., -5.25602973212484E-16, -3.57026084623406E-32));
#23 = ORIENTED_EDGE('', *, *, #7, .F.);
#24 = ORIENTED_EDGE('', *, *, #25, .F.);
#25 = EDGE_CURVE('', #8, #8, #26, .T.);
#26 = CIRCLE('', #27, 7.9375);
#27 = AXIS2_PLACEMENT_3D('', #28, #29, #30);
#28 = CARTESIAN_POINT('', (1.11022302462516E-15, 2.22044604925031E-16, -0.793750000000003));
#29 = DIRECTION('', (1.3987061727561E-17, -4.55043397165478E-17, -1.));
#30 = DIRECTION('', (-1., 3.93814504979824E-17, -1.3987061727561E-17));
#31 = (
   BOUNDED_SURFACE ()
   B_SPLINE_SURFACE (1, 2, ((#32, #33, #34, #35, #36, #37, #38, #39, #40), (#41, #42, #43, #44, #45, #46, #47, #48, #49)), .UNSPECIFIED., .F., .T., .U.)
   B_SPLINE_SURFACE_WITH_KNOTS ((2, 2), (3, 2, 2, 2, 3), (0., 1.), (0., 0.25, 0.5, 0.75, 1.), .UNSPECIFIED.)
   GEOMETRIC_REPRESENTATION_ITEM ()
   RATIONAL_B_SPLINE_SURFACE (((1., 0.707106781186548, 1., 0.707106781186548, 1., 0.707106781186548, 1., 0.707106781186548, 1.), (1., 0.707106781186548, 1., 0.707106781186548, 1., 0.707106781186548, 1., 0.707106781186548, 1.)))
   REPRESENTATION_ITEM ('')
   SURFACE ()
);
#32 = CARTESIAN_POINT('', (-7.9375, 4.61360075642158E-16, -0.793750000000001));
#33 = CARTESIAN_POINT('', (-7.9375, 7.9375, -0.793750000000004));
#34 = CARTESIAN_POINT('', (1.93945191622994E-15, 7.9375, -0.793750000000005));
#35 = CARTESIAN_POINT('', (7.9375, 7.9375, -0.793750000000007));
#36 = CARTESIAN_POINT('', (7.9375, -3.48609956746951E-15, -0.793750000000005));
#37 = CARTESIAN_POINT('', (7.9375, -7.9375, -0.793750000000003));
#38 = CARTESIAN_POINT('', (-1.03594433005852E-15, -7.9375, -0.793750000000001));
#39 = CARTESIAN_POINT('', (-7.9375, -7.9375, -0.793749999999999));
#40 = CARTESIAN_POINT('', (-7.9375, 4.61360075642158E-16, -0.793750000000001));
#41 = CARTESIAN_POINT('', (-7.14375, 4.37428528570445E-16, 0.));
#42 = CARTESIAN_POINT('', (-7.14375, 7.14375, -1.99840144432528E-15));
#43 = CARTESIAN_POINT('', (1.91513471747839E-15, 7.14375, -3.55590349496166E-15));
#44 = CARTESIAN_POINT('', (7.14375, 7.14375, -5.11340554559804E-15));
#45 = CARTESIAN_POINT('', (7.14375, -3.11528515023006E-15, -3.11500410127276E-15));
#46 = CARTESIAN_POINT('', (7.14375, -7.14375, -1.11660265694748E-15));
#47 = CARTESIAN_POINT('', (-7.62721904181215E-16, -7.14375, 4.40899393688896E-16));
#48 = CARTESIAN_POINT('', (-7.14375, -7.14375, 1.99840144432528E-15));
#49 = CARTESIAN_POINT('', (-7.14375, 4.37428528570445E-16, 0.));
#50 = ADVANCED_FACE('', (#51), #54, .T.);
#51 = FACE_OUTER_BOUND('', #52, .T.);
#52 = EDGE_LOOP('', (#53));
#53 = ORIENTED_EDGE('', *, *, #17, .F.);
#54 = B_SPLINE_SURFACE_WITH_KNOTS('', 1, 1, ((#55, #56), (#57, #58)), .UNSPECIFIED., .F., .F., .U., (2, 2), (2, 2), (3.9693169498231, 18.2568169498231), (3.9693169498231, 18.2568169498231), .UNSPECIFIED.);
#55 = CARTESIAN_POINT('', (7.14375, -7.14375, 1.37734261866315E-14));
#56 = CARTESIAN_POINT('', (-7.14375, -7.14375, -4.37428528570489E-16));
#57 = CARTESIAN_POINT('', (7.14375, 7.14375, 4.37428528570403E-16));
#58 = CARTESIAN_POINT('', (-7.14375, 7.14375, -1.37734261866316E-14));
#59 = ADVANCED_FACE('', (#60), #79, .T.);
#60 = FACE_OUTER_BOUND('', #61, .T.);
#61 = EDGE_LOOP('', (#62, #71, #77, #78));
#62 = ORIENTED_EDGE('', *, *, #63, .F.);
#63 = EDGE_CURVE('', #64, #64, #66, .T.);
#64 = VERTEX_POINT('', #65);
#65 = CARTESIAN_POINT('', (-7.9375, 3.98545992697517E-15, -57.15));
#66 = CIRCLE('', #67, 7.9375);
#67 = AXIS2_PLACEMENT_3D('', #68, #69, #70);
#68 = CARTESIAN_POINT('', (8.32667268468867E-17, 3.33066907387547E-15, -57.15));
#69 = DIRECTION('', (0., 0., -1.));
#70 = DIRECTION('', (-1., 8.24933358235843E-17, 0.));
#71 = ORIENTED_EDGE('', *, *, #72, .T.);
#72 = EDGE_CURVE('', #64, #8, #73, .T.);
#73 = LINE('', #74, #75);
#74 = CARTESIAN_POINT('', (-7.9375, 3.98545992697517E-15, -57.15));
#75 = VECTOR('', #76, 56.35625);
#76 = DIRECTION('', (0., -3.4508250587224E-15, 56.35625));
#77 = ORIENTED_EDGE('', *, *, #25, .T.);
#78 = ORIENTED_EDGE('', *, *, #72, .F.);
#79 = (
   BOUNDED_SURFACE ()
   B_SPLINE_SURFACE (1, 2, ((#80, #81, #82, #83, #84, #85, #86, #87, #88), (#89, #90, #91, #92, #93, #94, #95, #96, #97)), .UNSPECIFIED., .F., .T., .U.)
   B_SPLINE_SURFACE_WITH_KNOTS ((2, 2), (3, 2, 2, 2, 3), (-0.183799396087699, 1.), (0., 0.25, 0.5, 0.75, 1.), .UNSPECIFIED.)
   GEOMETRIC_REPRESENTATION_ITEM ()
   RATIONAL_B_SPLINE_SURFACE (((1., 0.707106781186548, 1., 0.707106781186548, 1., 0.707106781186548, 1., 0.707106781186548, 1.), (1., 0.707106781186548, 1., 0.707106781186548, 1., 0.707106781186548, 1., 0.707106781186548, 1.)))
   REPRESENTATION_ITEM ('')
   SURFACE ()
);
#80 = CARTESIAN_POINT('', (-7.9375, 5.64166078152849E-15, -57.15));
#81 = CARTESIAN_POINT('', (-7.9375, 7.93750000000001, -57.15));
#82 = CARTESIAN_POINT('', (3.77895253258169E-15, 7.9375, -57.15));
#83 = CARTESIAN_POINT('', (7.9375, 7.9375, -57.15));
#84 = CARTESIAN_POINT('', (7.9375, 1.5476515531956E-15, -57.15));
#85 = CARTESIAN_POINT('', (7.9375, -7.9375, -57.15));
#86 = CARTESIAN_POINT('', (6.57006701072014E-16, -7.9375, -57.15));
#87 = CARTESIAN_POINT('', (-7.9375, -7.9375, -57.15));
#88 = CARTESIAN_POINT('', (-7.9375, 5.64166078152849E-15, -57.15));
#89 = CARTESIAN_POINT('', (-7.9375, 5.34634868252767E-16, -0.793750000000003));
#90 = CARTESIAN_POINT('', (-7.9375, 7.9375, -0.793750000000002));
#91 = CARTESIAN_POINT('', (2.99069418509783E-15, 7.9375, -0.793750000000002));
#92 = CARTESIAN_POINT('', (7.9375, 7.9375, -0.793750000000002));
#93 = CARTESIAN_POINT('', (7.9375, -3.55937436008012E-15, -0.793750000000003));
#94 = CARTESIAN_POINT('', (7.9375, -7.9375, -0.793750000000003));
#95 = CARTESIAN_POINT('', (-1.31251646411848E-16, -7.9375, -0.793750000000004));
#96 = CARTESIAN_POINT('', (-7.9375, -7.9375, -0.793750000000004));
#97 = CARTESIAN_POINT('', (-7.9375, 5.34634868252767E-16, -0.793750000000003));
#98 = ADVANCED_FACE('', (#99), #102, .T.);
#99 = FACE_OUTER_BOUND('', #100, .T.);
#100 = EDGE_LOOP('', (#101));
#101 = ORIENTED_EDGE('', *, *, #63, .T.);
#102 = B_SPLINE_SURFACE_WITH_KNOTS('', 1, 1, ((#103, #104), (#105, #106)), .UNSPECIFIED., .F., .F., .U., (2, 2), (2, 2), (86.1038268107826, 101.978826810783), (81.520115816548, 97.395115816548), .UNSPECIFIED.);
#103 = CARTESIAN_POINT('', (-7.9375, 7.9375, -57.15));
#104 = CARTESIAN_POINT('', (-7.9375, -7.9375, -57.15));
#105 = CARTESIAN_POINT('', (7.9375, 7.9375, -57.15));
#106 = CARTESIAN_POINT('', (7.9375, -7.9375, -57.15));
#107 = DRAUGHTING_MODEL('', (#115, #241, #281, #286, #291, #296, #301), #315);
#108 = PRESENTATION_STYLE_ASSIGNMENT((#109));
#109 = SURFACE_STYLE_USAGE(.POSITIVE., #110);
#110 = SURFACE_SIDE_STYLE('', (#111));
#111 = SURFACE_STYLE_FILL_AREA(#112);
#112 = FILL_AREA_STYLE('', (#113));
#113 = FILL_AREA_STYLE_COLOUR('', #114);
#114 = COLOUR_RGB('', 0.50196078431373, 0.50196078431373, 0.50196078431373);
#115 = STYLED_ITEM('', (#108), #1);
#116 = MANIFOLD_SOLID_BREP('CUT', #117);
#117 = CLOSED_SHELL('', (#118, #135, #174));
#118 = ADVANCED_FACE('', (#119), #130, .T.);
#119 = FACE_OUTER_BOUND('', #120, .T.);
#120 = EDGE_LOOP('', (#121));
#121 = ORIENTED_EDGE('', *, *, #122, .F.);
#122 = EDGE_CURVE('', #123, #123, #125, .T.);
#123 = VERTEX_POINT('', #124);
#124 = CARTESIAN_POINT('', (-7.9375, 3.98545992697517E-15, -57.15));
#125 = CIRCLE('', #126, 7.9375);
#126 = AXIS2_PLACEMENT_3D('', #127, #128, #129);
#127 = CARTESIAN_POINT('', (8.32667268468867E-17, 3.33066907387547E-15, -57.15));
#128 = DIRECTION('', (0., 0., -1.));
#129 = DIRECTION('', (-1., 8.24933358235843E-17, 0.));
#130 = B_SPLINE_SURFACE_WITH_KNOTS('', 1, 1, ((#131, #132), (#133, #134)), .UNSPECIFIED., .F., .F., .U., (2, 2), (2, 2), (81.520115816548, 97.395115816548), (86.1038268107826, 101.978826810783), .UNSPECIFIED.);
#131 = CARTESIAN_POINT('', (-7.9375, 7.9375, -57.15));
#132 = CARTESIAN_POINT('', (7.9375, 7.93749999999999, -57.15));
#133 = CARTESIAN_POINT('', (-7.9375, -7.9375, -57.15));
#134 = CARTESIAN_POINT('', (7.9375, -7.93750000000001, -57.15));
#135 = ADVANCED_FACE('', (#136), #155, .T.);
#136 = FACE_OUTER_BOUND('', #137, .T.);
#137 = EDGE_LOOP('', (#138, #139, #147, #154));
#138 = ORIENTED_EDGE('', *, *, #122, .T.);
#139 = ORIENTED_EDGE('', *, *, #140, .F.);
#140 = EDGE_CURVE('', #141, #123, #143, .T.);
#141 = VERTEX_POINT('', #142);
#142 = CARTESIAN_POINT('', (-7.9375, 5.43120244445724E-15, -80.760767096091));
#143 = LINE('', #144, #145);
#144 = CARTESIAN_POINT('', (-7.9375, 5.43120244445724E-15, -80.760767096091));
#145 = VECTOR('', #146, 23.610767096091);
#146 = DIRECTION('', (0., -1.44574251748207E-15, 23.610767096091));
#147 = ORIENTED_EDGE('', *, *, #148, .F.);
#148 = EDGE_CURVE('', #141, #141, #149, .T.);
#149 = CIRCLE('', #150, 7.9375);
#150 = AXIS2_PLACEMENT_3D('', #151, #152, #153);
#151 = CARTESIAN_POINT('', (1.60982338570648E-15, 3.10862446895044E-15, -80.760767096091));
#152 = DIRECTION('', (1.79034390112781E-15, -5.8245554837181E-15, -1.));
#153 = DIRECTION('', (-1., 2.92608248882747E-16, -1.79034390112781E-15));
#154 = ORIENTED_EDGE('', *, *, #140, .T.);
#155 = (
   BOUNDED_SURFACE ()
   B_SPLINE_SURFACE (1, 2, ((#156, #157, #158, #159, #160, #161, #162, #163, #164), (#165, #166, #167, #168, #169, #170, #171, #172, #173)), .UNSPECIFIED., .F., .T., .U.)
   B_SPLINE_SURFACE_WITH_KNOTS ((2, 2), (3, 2, 2, 2, 3), (-0.679758794193851, -0.183799396087699), (0., 0.25, 0.5, 0.75, 1.), .UNSPECIFIED.)
   GEOMETRIC_REPRESENTATION_ITEM ()
   RATIONAL_B_SPLINE_SURFACE (((1., 0.707106781186548, 1., 0.707106781186548, 1., 0.707106781186548, 1., 0.707106781186548, 1.), (1., 0.707106781186548, 1., 0.707106781186548, 1., 0.707106781186548, 1., 0.707106781186548, 1.)))
   REPRESENTATION_ITEM ('')
   SURFACE ()
);
#156 = CARTESIAN_POINT('', (-7.9375, 5.09568295160033E-15, -80.760767096091));
#157 = CARTESIAN_POINT('', (-7.9375, 7.9375, -80.760767096091));
#158 = CARTESIAN_POINT('', (9.73670847541334E-16, 7.9375, -80.760767096091));
#159 = CARTESIAN_POINT('', (7.9375, 7.9375, -80.760767096091));
#160 = CARTESIAN_POINT('', (7.9375, 4.31407543237407E-15, -80.760767096091));
#161 = CARTESIAN_POINT('', (7.9375, -7.93749999999999, -80.760767096091));
#162 = CARTESIAN_POINT('', (1.16412672513829E-15, -7.93749999999999, -80.760767096091));
#163 = CARTESIAN_POINT('', (-7.9375, -7.93749999999999, -80.760767096091));
#164 = CARTESIAN_POINT('', (-7.9375, 5.09568295160033E-15, -80.760767096091));
#165 = CARTESIAN_POINT('', (-7.9375, 3.98545992697517E-15, -57.15));
#166 = CARTESIAN_POINT('', (-7.9375, 7.9375, -57.15));
#167 = CARTESIAN_POINT('', (9.73670847541333E-16, 7.9375, -57.15));
#168 = CARTESIAN_POINT('', (7.9375, 7.9375, -57.15));
#169 = CARTESIAN_POINT('', (7.9375, 3.20385240774892E-15, -57.15));
#170 = CARTESIAN_POINT('', (7.9375, -7.93749999999999, -57.15));
#171 = CARTESIAN_POINT('', (1.16412672513829E-15, -7.93749999999999, -57.15));
#172 = CARTESIAN_POINT('', (-7.9375, -7.93749999999999, -57.15));
#173 = CARTESIAN_POINT('', (-7.9375, 3.98545992697517E-15, -57.15));
#174 = ADVANCED_FACE('', (#175), #188, .T.);
#175 = FACE_OUTER_BOUND('', #176, .T.);
#176 = EDGE_LOOP('', (#177, #186, #187));
#177 = ORIENTED_EDGE('', *, *, #178, .F.);
#178 = EDGE_CURVE('', #141, #179, #181, .T.);
#179 = VERTEX_POINT('', #180);
#180 = CARTESIAN_POINT('', (3.96904731303493E-15, 5.44355502220999E-15, -88.9));
#181 = CIRCLE('', #182, 7.93999999999987);
#182 = AXIS2_PLACEMENT_3D('', #183, #184, #185);
#183 = CARTESIAN_POINT('', (-1.30562227695918E-13, 4.95737024294851E-15, -80.9600000000001));
#184 = DIRECTION('', (-6.12323399573657E-17, -1., -6.12323399573668E-17));
#185 = DIRECTION('', (-0.999685138539042, 5.96765996862386E-17, 0.0250923052782254));
#186 = ORIENTED_EDGE('', *, *, #148, .T.);
#187 = ORIENTED_EDGE('', *, *, #178, .T.);
#188 = (
   BOUNDED_SURFACE ()
   B_SPLINE_SURFACE (2, 2, ((#189, #190, #191, #192, #193), (#194, #195, #196, #197, #198), (#199, #200, #201, #202, #203), (#204, #205, #206, #207, #208), (#209, #210, #211, #212, #213), (#214, #215, #216, #217, #218), (#219, #220, #221, #222, #223), (#224, #225, #226, #227, #228), (#229, #230, #231, #232, #233)), .UNSPECIFIED., .T., .F., .U.)
   B_SPLINE_SURFACE_WITH_KNOTS ((3, 2, 2, 2, 3), (3, 2, 3), (0., 0.25, 0.5, 0.75, 1.), (0., 0.5, 1.), .UNSPECIFIED.)
   GEOMETRIC_REPRESENTATION_ITEM ()
   RATIONAL_B_SPLINE_SURFACE (((1., 0.921460512125948, 1., 0.921460512125948, 1.), (0.707106781186548, 0.651570976719887, 0.707106781186548, 0.651570976719887, 0.707106781186548), (1., 0.921460512125948, 1., 0.921460512125948, 1.), (0.707106781186548, 0.651570976719887, 0.707106781186548, 0.651570976719887, 0.707106781186548), (1., 0.921460512125948, 1., 0.921460512125948, 1.), (0.707106781186548, 0.651570976719887, 0.707106781186548, 0.651570976719887, 0.707106781186548), (1., 0.921460512125948, 1., 0.921460512125948, 1.), (0.707106781186548, 0.651570976719887, 0.707106781186548, 0.651570976719887, 0.707106781186548), (1., 0.921460512125948, 1., 0.921460512125948, 1.)))
   REPRESENTATION_ITEM ('')
   SURFACE ()
);
#189 = CARTESIAN_POINT('', (-7.9375, 5.43120244445724E-15, -80.760767096091));
#190 = CARTESIAN_POINT('', (-8.02149319479532, 5.64124822013027E-15, -84.1070817389395));
#191 = CARTESIAN_POINT('', (-5.6844308975058, 5.64488522721566E-15, -86.5035408694698));
#192 = CARTESIAN_POINT('', (-3.34736860021629, 5.64852223430105E-15, -88.9));
#193 = CARTESIAN_POINT('', (3.96904731303493E-15, 5.44355502220999E-15, -88.9));
#194 = CARTESIAN_POINT('', (-7.9375, 7.93749999999994, -80.760767096091));
#195 = CARTESIAN_POINT('', (-8.02149319479532, 8.02149319479526, -84.1070817389395));
#196 = CARTESIAN_POINT('', (-5.6844308975058, 5.68443089750574, -86.5035408694698));
#197 = CARTESIAN_POINT('', (-3.34736860021629, 3.34736860021623, -88.9));
#198 = CARTESIAN_POINT('', (3.96904731303493E-15, 5.44355502220999E-15, -88.9));
#199 = CARTESIAN_POINT('', (-6.75137593941124E-14, 7.93749999999994, -80.760767096091));
#200 = CARTESIAN_POINT('', (-6.73088567182972E-14, 8.02149319479526, -84.1070817389395));
#201 = CARTESIAN_POINT('', (-6.71621159181226E-14, 5.68443089750574, -86.5035408694698));
#202 = CARTESIAN_POINT('', (-6.7015375117948E-14, 3.34736860021623, -88.9));
#203 = CARTESIAN_POINT('', (3.96904731303493E-15, 5.44355502220999E-15, -88.9));
#204 = CARTESIAN_POINT('', (7.93749999999986, 7.93749999999994, -80.760767096091));
#205 = CARTESIAN_POINT('', (8.02149319479519, 8.02149319479526, -84.1070817389395));
#206 = CARTESIAN_POINT('', (5.68443089750567, 5.68443089750574, -86.5035408694698));
#207 = CARTESIAN_POINT('', (3.34736860021616, 3.34736860021623, -88.9));
#208 = CARTESIAN_POINT('', (3.96904731303493E-15, 5.44355502220999E-15, -88.9));
#209 = CARTESIAN_POINT('', (7.93749999999986, 5.45560143826297E-15, -80.760767096091));
#210 = CARTESIAN_POINT('', (8.02149319479519, 5.25584186230557E-15, -84.1070817389395));
#211 = CARTESIAN_POINT('', (5.68443089750567, 4.96599726904182E-15, -86.5035408694698));
#212 = CARTESIAN_POINT('', (3.34736860021615, 4.67615267577807E-15, -88.9));
#213 = CARTESIAN_POINT('', (3.96904731303493E-15, 5.44355502220999E-15, -88.9));
#214 = CARTESIAN_POINT('', (7.93749999999986, -7.93749999999993, -80.760767096091));
#215 = CARTESIAN_POINT('', (8.02149319479519, -8.02149319479525, -84.1070817389395));
#216 = CARTESIAN_POINT('', (5.68443089750567, -5.68443089750573, -86.5035408694698));
#217 = CARTESIAN_POINT('', (3.34736860021615, -3.34736860021622, -88.9));
#218 = CARTESIAN_POINT('', (3.96904731303493E-15, 5.44355502220999E-15, -88.9));
#219 = CARTESIAN_POINT('', (-6.65172970034834E-14, -7.93749999999993, -80.760767096091));
#220 = CARTESIAN_POINT('', (-6.6711913479583E-14, -8.02149319479525, -84.1070817389395));
#221 = CARTESIAN_POINT('', (-6.7144861865936E-14, -5.68443089750573, -86.5035408694698));
#222 = CARTESIAN_POINT('', (-6.75778102522889E-14, -3.34736860021622, -88.9));
#223 = CARTESIAN_POINT('', (3.96904731303493E-15, 5.44355502220999E-15, -88.9));
#224 = CARTESIAN_POINT('', (-7.9375, -7.93749999999993, -80.760767096091));
#225 = CARTESIAN_POINT('', (-8.02149319479532, -8.02149319479525, -84.1070817389395));
#226 = CARTESIAN_POINT('', (-5.6844308975058, -5.68443089750573, -86.5035408694698));
#227 = CARTESIAN_POINT('', (-3.34736860021629, -3.34736860021622, -88.9));
#228 = CARTESIAN_POINT('', (3.96904731303493E-15, 5.44355502220999E-15, -88.9));
#229 = CARTESIAN_POINT('', (-7.9375, 5.43120244445724E-15, -80.760767096091));
#230 = CARTESIAN_POINT('', (-8.02149319479532, 5.64124822013027E-15, -84.1070817389395));
#231 = CARTESIAN_POINT('', (-5.6844308975058, 5.64488522721566E-15, -86.5035408694698));
#232 = CARTESIAN_POINT('', (-3.34736860021629, 5.64852223430105E-15, -88.9));
#233 = CARTESIAN_POINT('', (3.96904731303493E-15, 5.44355502220999E-15, -88.9));
#234 = PRESENTATION_STYLE_ASSIGNMENT((#235));
#235 = SURFACE_STYLE_USAGE(.POSITIVE., #236);
#236 = SURFACE_SIDE_STYLE('', (#237));
#237 = SURFACE_STYLE_FILL_AREA(#238);
#238 = FILL_AREA_STYLE('', (#239));
#239 = FILL_AREA_STYLE_COLOUR('', #240);
#240 = COLOUR_RGB('', 0.8, 0.8, 0.8);
#241 = STYLED_ITEM('', (#234), #116);
#242 = TRIMMED_CURVE('cutting part line', #243, (#247), (#248), .T., .CARTESIAN.);
#243 = LINE('', #244, #245);
#244 = CARTESIAN_POINT('', (-6.42834536843439E-31, -3.49942822856356E-15, -57.15));
#245 = VECTOR('', #246, 7.9375);
#246 = DIRECTION('', (7.9375, -1.45809509523482E-15, 0.));
#247 = CARTESIAN_POINT('', (-6.42834536843439E-31, -3.49942822856356E-15, -57.15));
#248 = CARTESIAN_POINT('', (7.9375, -4.95752332379838E-15, -57.15));
#249 = TRIMMED_CURVE('cutting part line', #250, (#254), (#255), .T., .CARTESIAN.);
#250 = LINE('', #251, #252);
#251 = CARTESIAN_POINT('', (7.9375, -4.95752332379838E-15, -57.15));
#252 = VECTOR('', #253, 23.610767096091);
#253 = DIRECTION('', (0., -1.44574251748207E-15, -23.610767096091));
#254 = CARTESIAN_POINT('', (7.9375, -4.95752332379838E-15, -57.15));
#255 = CARTESIAN_POINT('', (7.9375, -6.40326584128045E-15, -80.760767096091));
#256 = TRIMMED_CURVE('cutting part line', #257, (#262), (#263), .T., .CARTESIAN.);
#257 = CIRCLE('', #258, 7.93999999999994);
#258 = AXIS2_PLACEMENT_3D('', #259, #260, #261);
#259 = CARTESIAN_POINT('', (7.8159700933611E-14, -4.9573702429485E-15, -80.9600000000001));
#260 = DIRECTION('', (1.83697019872103E-16, 1., -6.12323399573678E-17));
#261 = DIRECTION('', (0.999685138539043, -1.82102720192943E-16, 0.025092305278218));
#262 = CARTESIAN_POINT('', (7.93750000000001, -6.40326584128045E-15, -80.760767096091));
#263 = CARTESIAN_POINT('', (-1.26842980563424E-14, -5.44355502220998E-15, -88.9));
#264 = TRIMMED_CURVE('cutting part line', #265, (#269), (#270), .T., .CARTESIAN.);
#265 = LINE('', #266, #267);
#266 = CARTESIAN_POINT('', (-9.99964835089794E-31, -5.44355502220999E-15, -88.9));
#267 = VECTOR('', #268, 31.75);
#268 = DIRECTION('', (3.57130298246356E-31, 1.94412679364643E-15, 31.75));
#269 = CARTESIAN_POINT('', (-9.99964835089794E-31, -5.44355502220999E-15, -88.9));
#270 = CARTESIAN_POINT('', (-6.42834536843439E-31, -3.49942822856356E-15, -57.15));
#271 = COMPOSITE_CURVE('cutting part line', (#272, #273, #274, #275), .U.);
#272 = COMPOSITE_CURVE_SEGMENT(.CONTINUOUS., .T., #242);
#273 = COMPOSITE_CURVE_SEGMENT(.CONTINUOUS., .T., #249);
#274 = COMPOSITE_CURVE_SEGMENT(.CONTINUOUS., .T., #256);
#275 = COMPOSITE_CURVE_SEGMENT(.CONTINUOUS., .T., #264);
#276 = GEOMETRIC_SET('', (#271, #314));
#277 = PRESENTATION_STYLE_ASSIGNMENT((#278));
#278 = CURVE_STYLE('', #280, POSITIVE_LENGTH_MEASURE(1.E-6), #279);
#279 = COLOUR_RGB('', 0., 0., 1.);
#280 = DRAUGHTING_PRE_DEFINED_CURVE_FONT('continuous');
#281 = STYLED_ITEM('', (#277), #271);
#282 = PRESENTATION_STYLE_ASSIGNMENT((#283));
#283 = CURVE_STYLE('', #285, POSITIVE_LENGTH_MEASURE(1.E-6), #284);
#284 = COLOUR_RGB('', 0., 0., 1.);
#285 = DRAUGHTING_PRE_DEFINED_CURVE_FONT('continuous');
#286 = OVER_RIDING_STYLED_ITEM('', (#282), #242, #281);
#287 = PRESENTATION_STYLE_ASSIGNMENT((#288));
#288 = CURVE_STYLE('', #290, POSITIVE_LENGTH_MEASURE(1.E-6), #289);
#289 = COLOUR_RGB('', 0., 0., 1.);
#290 = DRAUGHTING_PRE_DEFINED_CURVE_FONT('continuous');
#291 = OVER_RIDING_STYLED_ITEM('', (#287), #249, #281);
#292 = PRESENTATION_STYLE_ASSIGNMENT((#293));
#293 = CURVE_STYLE('', #295, POSITIVE_LENGTH_MEASURE(1.E-6), #294);
#294 = COLOUR_RGB('', 0., 0., 1.);
#295 = DRAUGHTING_PRE_DEFINED_CURVE_FONT('continuous');
#296 = OVER_RIDING_STYLED_ITEM('', (#292), #256, #281);
#297 = PRESENTATION_STYLE_ASSIGNMENT((#298));
#298 = CURVE_STYLE('', #300, POSITIVE_LENGTH_MEASURE(1.E-6), #299);
#299 = COLOUR_RGB('', 0., 0., 1.);
#300 = DRAUGHTING_PRE_DEFINED_CURVE_FONT('continuous');
#301 = OVER_RIDING_STYLED_ITEM('', (#297), #264, #281);
#302 = AXIS2_PLACEMENT_3D('CIP', #303, #304, #305);
#303 = CARTESIAN_POINT('', (3.33321611696598E-31, 5.44355502220998E-15, -88.9));
#304 = DIRECTION('', (-3.74939945665465E-33, -6.12323399573677E-17, 1.));
#305 = DIRECTION('', (1., -6.12323399573677E-17, 0.));
#306 = AXIS2_PLACEMENT_3D('MCS', #307, #308, #309);
#307 = CARTESIAN_POINT('', (1.81470933702085E-31, 2.9636452539366E-15, -48.4));
#308 = DIRECTION('', (-3.74939945665465E-33, -6.12323399573677E-17, 1.));
#309 = DIRECTION('', (1., -6.12323399573677E-17, 0.));
#310 = AXIS2_PLACEMENT_3D('PCS', #311, #312, #313);
#311 = CARTESIAN_POINT('', (0., 0., 0.));
#312 = DIRECTION('', (0., 0., 1.));
#313 = DIRECTION('', (1., 0., 0.));
#314 = CARTESIAN_POINT('CRP', (7.94, 0., -88.9));
#315 = (
   GEOMETRIC_REPRESENTATION_CONTEXT (3)
   GLOBAL_UNCERTAINTY_ASSIGNED_CONTEXT ((#317))
   GLOBAL_UNIT_ASSIGNED_CONTEXT ((#316, #318, #319))
   REPRESENTATION_CONTEXT ('', '3D')
);
#316 = (
   LENGTH_UNIT ()
   NAMED_UNIT (*)
   SI_UNIT (.MILLI., .METRE.)
);
#317 = UNCERTAINTY_MEASURE_WITH_UNIT(LENGTH_MEASURE(1.E-6), #316, 'DISTANCE_ACCURACY_VALUE', '');
#318 = (
   NAMED_UNIT (*)
   SI_UNIT ($, .STERADIAN.)
   SOLID_ANGLE_UNIT ()
);
#319 = (
   NAMED_UNIT (*)
   PLANE_ANGLE_UNIT ()
   SI_UNIT ($, .RADIAN.)
);
#320 = SHAPE_REPRESENTATION('', (), #315);
#321 = PRODUCT_DEFINITION_SHAPE('', '', #322);
#322 = PRODUCT_DEFINITION('', '', #325, #329);
#323 = APPLICATION_CONTEXT('configuration controlled 3D designs of mechanical parts and assemblies');
#324 = APPLICATION_PROTOCOL_DEFINITION('International Standard', 'automotive_design', 2002, #323);
#325 = PRODUCT_DEFINITION_FORMATION_WITH_SPECIFIED_SOURCE('', '', #326, .NOT_KNOWN.);
#326 = PRODUCT('NONE', '1B232-1588-XA       1620', '', (#327));
#327 = PRODUCT_CONTEXT('', #323, 'mechanical');
#328 = PRODUCT_RELATED_PRODUCT_CATEGORY('detail', '', (#326));
#329 = PRODUCT_DEFINITION_CONTEXT('part definition', #323, 'design');
#330 = SHAPE_DEFINITION_REPRESENTATION(#321, #320);
#331 = CONSTRUCTIVE_GEOMETRY_REPRESENTATION('supplemental geometry', (#302, #306, #310), #315);
#332 = CONSTRUCTIVE_GEOMETRY_REPRESENTATION_RELATIONSHIP('', '', #320, #331);
#333 = SHAPE_REPRESENTATION_RELATIONSHIP('', '', #320, #334);
#334 = SHAPE_REPRESENTATION('', (#276), #315);
#335 = SHAPE_REPRESENTATION_RELATIONSHIP('', '', #320, #336);
#336 = ADVANCED_BREP_SHAPE_REPRESENTATION('', (#1, #116), #315);
ENDSEC;
END-ISO-10303-21;
