ISO-10303-21;
HEADER;
FILE_DESCRIPTION(('STEP'), '1');
FILE_NAME('C:\\Users\\ds2002\\OneDrive - Sandvik\\HomeShare\\Documents\\Batchrepair\\CorSRT2\\NEW_MILBN_SLD\\Output3\\MOD000000000000000020082226700000.stp', '2018-11-27T13:12:11', (''), (''), 'Express v3.0.0.0', 'Express Tool', 'Unknown');
FILE_SCHEMA(('AUTOMOTIVE_DESIGN'));
ENDSEC;

DATA;
#1 = MANIFOLD_SOLID_BREP('NOCUT', #2);
#2 = CLOSED_SHELL('', (#3, #50, #97, #106, #137, #176));
#3 = ADVANCED_FACE('', (#4), #31, .T.);
#4 = FACE_OUTER_BOUND('', #5, .T.);
#5 = EDGE_LOOP('', (#6, #16, #23, #24));
#6 = ORIENTED_EDGE('', *, *, #7, .F.);
#7 = EDGE_CURVE('', #8, #10, #12, .T.);
#8 = VERTEX_POINT('', #9);
#9 = CARTESIAN_POINT('', (-4.7625, 2.93073287120951E-15, -43.1));
#10 = VERTEX_POINT('', #11);
#11 = CARTESIAN_POINT('', (-3.969, 2.96480866839579E-15, -44.45));
#12 = LINE('', #13, #14);
#13 = CARTESIAN_POINT('', (-4.7625, 2.93073287120951E-15, -43.1));
#14 = VECTOR('', #15, 1.56593175138638);
#15 = DIRECTION('', (0.7935, 3.40757971862798E-17, -1.35));
#16 = ORIENTED_EDGE('', *, *, #17, .T.);
#17 = EDGE_CURVE('', #8, #8, #18, .T.);
#18 = CIRCLE('', #19, 4.7625);
#19 = AXIS2_PLACEMENT_3D('', #20, #21, #22);
#20 = CARTESIAN_POINT('', (-1.38777878078145E-17, 1.88737914186277E-15, -43.1));
#21 = DIRECTION('', (0., 0., -1.));
#22 = DIRECTION('', (-1., -2.58524612789724E-17, 0.));
#23 = ORIENTED_EDGE('', *, *, #7, .T.);
#24 = ORIENTED_EDGE('', *, *, #25, .F.);
#25 = EDGE_CURVE('', #10, #10, #26, .T.);
#26 = CIRCLE('', #27, 3.969);
#27 = AXIS2_PLACEMENT_3D('', #28, #29, #30);
#28 = CARTESIAN_POINT('', (5.96744875736022E-16, -7.7715611723761E-16, -44.45));
#29 = DIRECTION('', (0., 0., -1.));
#30 = DIRECTION('', (-1., 9.42797879978181E-16, 0.));
#31 = (
   BOUNDED_SURFACE ()
   B_SPLINE_SURFACE (2, 1, ((#32, #33), (#34, #35), (#36, #37), (#38, #39), (#40, #41), (#42, #43), (#44, #45), (#46, #47), (#48, #49)), .UNSPECIFIED., .T., .F., .U.)
   B_SPLINE_SURFACE_WITH_KNOTS ((3, 2, 2, 2, 3), (2, 2), (0., 0.25, 0.5, 0.75, 1.), (0., 1.), .UNSPECIFIED.)
   GEOMETRIC_REPRESENTATION_ITEM ()
   RATIONAL_B_SPLINE_SURFACE (((1., 1.), (0.707106781186548, 0.707106781186548), (1., 1.), (0.707106781186548, 0.707106781186548), (1., 1.), (0.707106781186548, 0.707106781186548), (1., 1.), (0.707106781186548, 0.707106781186548), (1., 1.)))
   REPRESENTATION_ITEM ('')
   SURFACE ()
);
#32 = CARTESIAN_POINT('', (-4.7625, 2.93073287120951E-15, -43.1));
#33 = CARTESIAN_POINT('', (-3.969, 2.97900989244336E-15, -44.45));
#34 = CARTESIAN_POINT('', (-4.7625, 4.7625, -43.1));
#35 = CARTESIAN_POINT('', (-3.96899999999999, 3.969, -44.45));
#36 = CARTESIAN_POINT('', (3.44402554501578E-15, 4.7625, -43.1));
#37 = CARTESIAN_POINT('', (5.11093810692454E-15, 3.969, -44.45));
#38 = CARTESIAN_POINT('', (4.7625, 4.7625, -43.1));
#39 = CARTESIAN_POINT('', (3.969, 3.969, -44.45));
#40 = CARTESIAN_POINT('', (4.7625, -1.23727180849043E-15, -43.1));
#41 = CARTESIAN_POINT('', (3.969, -4.94546133536493E-16, -44.45));
#42 = CARTESIAN_POINT('', (4.7625, -4.7625, -43.1));
#43 = CARTESIAN_POINT('', (3.969, -3.969, -44.45));
#44 = CARTESIAN_POINT('', (-1.40741096590222E-16, -4.7625, -43.1));
#45 = CARTESIAN_POINT('', (2.12344439552628E-15, -3.969, -44.45));
#46 = CARTESIAN_POINT('', (-4.7625, -4.7625, -43.1));
#47 = CARTESIAN_POINT('', (-3.969, -3.969, -44.45));
#48 = CARTESIAN_POINT('', (-4.7625, 2.93073287120951E-15, -43.1));
#49 = CARTESIAN_POINT('', (-3.969, 2.97900989244336E-15, -44.45));
#50 = ADVANCED_FACE('', (#51), #78, .T.);
#51 = FACE_OUTER_BOUND('', #52, .T.);
#52 = EDGE_LOOP('', (#53, #63, #70, #71));
#53 = ORIENTED_EDGE('', *, *, #54, .T.);
#54 = EDGE_CURVE('', #55, #57, #59, .T.);
#55 = VERTEX_POINT('', #56);
#56 = CARTESIAN_POINT('', (-4.7625, 3.2078092095166E-16, -0.47625));
#57 = VERTEX_POINT('', #58);
#58 = CARTESIAN_POINT('', (-4.28625, 2.62457117142267E-16, 0.));
#59 = LINE('', #60, #61);
#60 = CARTESIAN_POINT('', (-4.7625, 3.2078092095166E-16, -0.47625));
#61 = VECTOR('', #62, 0.673519209080187);
#62 = DIRECTION('', (0.47625, -5.8323803809393E-17, 0.47625));
#63 = ORIENTED_EDGE('', *, *, #64, .T.);
#64 = EDGE_CURVE('', #57, #57, #65, .T.);
#65 = CIRCLE('', #66, 4.28625);
#66 = AXIS2_PLACEMENT_3D('', #67, #68, #69);
#67 = CARTESIAN_POINT('', (4.16333634234434E-17, 1.4432899320127E-15, 9.24446373305873E-32));
#68 = DIRECTION('', (4.69862490000009E-33, 6.12323399573676E-17, -1.));
#69 = DIRECTION('', (-1., -2.75493220150583E-16, -2.15677194122105E-32));
#70 = ORIENTED_EDGE('', *, *, #54, .F.);
#71 = ORIENTED_EDGE('', *, *, #72, .F.);
#72 = EDGE_CURVE('', #55, #55, #73, .T.);
#73 = CIRCLE('', #74, 4.7625);
#74 = AXIS2_PLACEMENT_3D('', #75, #76, #77);
#75 = CARTESIAN_POINT('', (-1.80411241501588E-16, -1.33226762955019E-15, -0.47625));
#76 = DIRECTION('', (-2.3311769545935E-17, 1.94854295150446E-16, -1.));
#77 = DIRECTION('', (-1., 3.47096808504325E-16, 2.3311769545935E-17));
#78 = (
   BOUNDED_SURFACE ()
   B_SPLINE_SURFACE (1, 2, ((#79, #80, #81, #82, #83, #84, #85, #86, #87), (#88, #89, #90, #91, #92, #93, #94, #95, #96)), .UNSPECIFIED., .F., .T., .U.)
   B_SPLINE_SURFACE_WITH_KNOTS ((2, 2), (3, 2, 2, 2, 3), (0., 1.), (0., 0.25, 0.5, 0.75, 1.), .UNSPECIFIED.)
   GEOMETRIC_REPRESENTATION_ITEM ()
   RATIONAL_B_SPLINE_SURFACE (((1., 0.707106781186548, 1., 0.707106781186548, 1., 0.707106781186548, 1., 0.707106781186548, 1.), (1., 0.707106781186548, 1., 0.707106781186548, 1., 0.707106781186548, 1., 0.707106781186548, 1.)))
   REPRESENTATION_ITEM ('')
   SURFACE ()
);
#79 = CARTESIAN_POINT('', (-4.7625, 1.85826706490691E-15, -0.47625));
#80 = CARTESIAN_POINT('', (-4.7625, 4.7625, -0.476249999999988));
#81 = CARTESIAN_POINT('', (1.91359274105531E-15, 4.7625, -0.476249999999988));
#82 = CARTESIAN_POINT('', (4.7625, 4.7625, -0.476249999999988));
#83 = CARTESIAN_POINT('', (4.7625, -5.04978731053851E-15, -0.47625));
#84 = CARTESIAN_POINT('', (4.7625, -4.76250000000001, -0.476250000000012));
#85 = CARTESIAN_POINT('', (-4.41122359629619E-15, -4.7625, -0.476250000000012));
#86 = CARTESIAN_POINT('', (-4.76250000000001, -4.7625, -0.476250000000012));
#87 = CARTESIAN_POINT('', (-4.7625, 1.85826706490691E-15, -0.47625));
#88 = CARTESIAN_POINT('', (-4.28625, 2.62457117142269E-16, 1.09476442525376E-46));
#89 = CARTESIAN_POINT('', (-4.28625, 4.28625, 1.09912079437891E-14));
#90 = CARTESIAN_POINT('', (1.56819002228304E-15, 4.28625, 1.09912079437891E-14));
#91 = CARTESIAN_POINT('', (4.28625, 4.28625, 1.09912079437891E-14));
#92 = CARTESIAN_POINT('', (4.28625, -5.95479182075861E-15, 9.76256213390072E-31));
#93 = CARTESIAN_POINT('', (4.28625, -4.28625000000001, -1.09912079437891E-14));
#94 = CARTESIAN_POINT('', (-4.12414468133331E-15, -4.28625, -1.09912079437891E-14));
#95 = CARTESIAN_POINT('', (-4.28625000000001, -4.28625, -1.09912079437891E-14));
#96 = CARTESIAN_POINT('', (-4.28625, 2.62457117142269E-16, 1.09476442525376E-46));
#97 = ADVANCED_FACE('', (#98), #101, .T.);
#98 = FACE_OUTER_BOUND('', #99, .T.);
#99 = EDGE_LOOP('', (#100));
#100 = ORIENTED_EDGE('', *, *, #64, .F.);
#101 = B_SPLINE_SURFACE_WITH_KNOTS('', 1, 1, ((#102, #103), (#104, #105)), .UNSPECIFIED., .F., .F., .U., (2, 2), (2, 2), (2.38159016989385, 10.9540901698938), (2.38159016989385, 10.9540901698938), .UNSPECIFIED.);
#102 = CARTESIAN_POINT('', (4.28625, -4.28625, -2.62457117142268E-16));
#103 = CARTESIAN_POINT('', (-4.28625, -4.28625, -3.81517079594277E-15));
#104 = CARTESIAN_POINT('', (4.28625, 4.28625, 3.81517079594276E-15));
#105 = CARTESIAN_POINT('', (-4.28625, 4.28625, 2.62457117142261E-16));
#106 = ADVANCED_FACE('', (#107), #118, .T.);
#107 = FACE_OUTER_BOUND('', #108, .T.);
#108 = EDGE_LOOP('', (#109, #115, #116, #117));
#109 = ORIENTED_EDGE('', *, *, #110, .T.);
#110 = EDGE_CURVE('', #8, #55, #111, .T.);
#111 = LINE('', #112, #113);
#112 = CARTESIAN_POINT('', (-4.7625, 2.93073287120951E-15, -43.1));
#113 = VECTOR('', #114, 42.62375);
#114 = DIRECTION('', (0., -2.60995195025785E-15, 42.62375));
#115 = ORIENTED_EDGE('', *, *, #72, .T.);
#116 = ORIENTED_EDGE('', *, *, #110, .F.);
#117 = ORIENTED_EDGE('', *, *, #17, .F.);
#118 = (
   BOUNDED_SURFACE ()
   B_SPLINE_SURFACE (1, 2, ((#119, #120, #121, #122, #123, #124, #125, #126, #127), (#128, #129, #130, #131, #132, #133, #134, #135, #136)), .UNSPECIFIED., .F., .T., .U.)
   B_SPLINE_SURFACE_WITH_KNOTS ((2, 2), (3, 2, 2, 2, 3), (0., 1.), (0., 7.4809175063607, 14.9618350127214, 22.4427525190821, 29.9236700254428), .UNSPECIFIED.)
   GEOMETRIC_REPRESENTATION_ITEM ()
   RATIONAL_B_SPLINE_SURFACE (((1., 0.707106781186548, 1., 0.707106781186548, 1., 0.707106781186548, 1., 0.707106781186548, 1.), (1., 0.707106781186548, 1., 0.707106781186548, 1., 0.707106781186548, 1., 0.707106781186548, 1.)))
   REPRESENTATION_ITEM ('')
   SURFACE ()
);
#119 = CARTESIAN_POINT('', (-4.7625, 5.42825525876692E-16, -43.1));
#120 = CARTESIAN_POINT('', (-4.7625, 4.7625, -43.1));
#121 = CARTESIAN_POINT('', (7.73033183187501E-16, 4.7625, -43.1));
#122 = CARTESIAN_POINT('', (4.7625, 4.7625, -43.1));
#123 = CARTESIAN_POINT('', (4.7625, -1.06981051240792E-15, -43.1));
#124 = CARTESIAN_POINT('', (4.7625, -4.7625, -43.1));
#125 = CARTESIAN_POINT('', (-2.56364817003184E-16, -4.7625, -43.1));
#126 = CARTESIAN_POINT('', (-4.7625, -4.7625, -43.1));
#127 = CARTESIAN_POINT('', (-4.7625, 5.42825525876692E-16, -43.1));
#128 = CARTESIAN_POINT('', (-4.7625, 3.2078092095166E-16, -0.47625));
#129 = CARTESIAN_POINT('', (-4.7625, 4.7625, -0.47625));
#130 = CARTESIAN_POINT('', (2.26348573896282E-15, 4.7625, -0.47625));
#131 = CARTESIAN_POINT('', (4.7625, 4.7625, -0.47625));
#132 = CARTESIAN_POINT('', (4.7625, -1.29185511733295E-15, -0.47625));
#133 = CARTESIAN_POINT('', (4.7625, -4.7625, -0.47625));
#134 = CARTESIAN_POINT('', (1.23408773877214E-15, -4.7625, -0.47625));
#135 = CARTESIAN_POINT('', (-4.7625, -4.7625, -0.47625));
#136 = CARTESIAN_POINT('', (-4.7625, 3.2078092095166E-16, -0.47625));
#137 = ADVANCED_FACE('', (#138), #157, .T.);
#138 = FACE_OUTER_BOUND('', #139, .T.);
#139 = EDGE_LOOP('', (#140, #149, #155, #156));
#140 = ORIENTED_EDGE('', *, *, #141, .F.);
#141 = EDGE_CURVE('', #142, #142, #144, .T.);
#142 = VERTEX_POINT('', #143);
#143 = CARTESIAN_POINT('', (-3.969, 3.15922134776043E-15, -47.625));
#144 = CIRCLE('', #145, 3.969);
#145 = AXIS2_PLACEMENT_3D('', #146, #147, #148);
#146 = CARTESIAN_POINT('', (5.68989300120393E-16, -7.7715611723761E-16, -47.625));
#147 = DIRECTION('', (0., 0., -1.));
#148 = DIRECTION('', (-1., 9.9178066641422E-16, 0.));
#149 = ORIENTED_EDGE('', *, *, #150, .F.);
#150 = EDGE_CURVE('', #10, #142, #151, .T.);
#151 = LINE('', #152, #153);
#152 = CARTESIAN_POINT('', (-3.969, 2.96480866839579E-15, -44.45));
#153 = VECTOR('', #154, 3.175);
#154 = DIRECTION('', (0., 1.9441267936464E-16, -3.175));
#155 = ORIENTED_EDGE('', *, *, #25, .T.);
#156 = ORIENTED_EDGE('', *, *, #150, .T.);
#157 = (
   BOUNDED_SURFACE ()
   B_SPLINE_SURFACE (2, 1, ((#158, #159), (#160, #161), (#162, #163), (#164, #165), (#166, #167), (#168, #169), (#170, #171), (#172, #173), (#174, #175)), .UNSPECIFIED., .T., .F., .U.)
   B_SPLINE_SURFACE_WITH_KNOTS ((3, 2, 2, 2, 3), (2, 2), (0., 6.23449062104895, 12.4689812420979, 18.7034718631469, 24.9379624841958), (0., 0.211795170791508), .UNSPECIFIED.)
   GEOMETRIC_REPRESENTATION_ITEM ()
   RATIONAL_B_SPLINE_SURFACE (((1., 1.), (0.707106781186548, 0.707106781186548), (1., 1.), (0.707106781186548, 0.707106781186548), (1., 1.), (0.707106781186548, 0.707106781186548), (1., 1.), (0.707106781186548, 0.707106781186548), (1., 1.)))
   REPRESENTATION_ITEM ('')
   SURFACE ()
);
#158 = CARTESIAN_POINT('', (-3.969, 2.96480866839579E-15, -44.45));
#159 = CARTESIAN_POINT('', (-3.969, 3.85298708809591E-15, -47.625));
#160 = CARTESIAN_POINT('', (-3.969, 3.969, -44.45));
#161 = CARTESIAN_POINT('', (-3.969, 3.969, -47.625));
#162 = CARTESIAN_POINT('', (1.09807633759071E-15, 3.969, -44.45));
#163 = CARTESIAN_POINT('', (1.09807633759071E-15, 3.969, -47.625));
#164 = CARTESIAN_POINT('', (3.969, 3.969, -44.45));
#165 = CARTESIAN_POINT('', (3.969, 3.969, -47.625));
#166 = CARTESIAN_POINT('', (3.969, 6.29878115136233E-16, -44.45));
#167 = CARTESIAN_POINT('', (3.969, 1.51805653483636E-15, -47.625));
#168 = CARTESIAN_POINT('', (3.969, -3.969, -44.45));
#169 = CARTESIAN_POINT('', (3.969, -3.969, -47.625));
#170 = CARTESIAN_POINT('', (-7.50791901087266E-16, -3.969, -44.45));
#171 = CARTESIAN_POINT('', (-7.50791901087266E-16, -3.969, -47.625));
#172 = CARTESIAN_POINT('', (-3.969, -3.969, -44.45));
#173 = CARTESIAN_POINT('', (-3.969, -3.969, -47.625));
#174 = CARTESIAN_POINT('', (-3.969, 2.96480866839579E-15, -44.45));
#175 = CARTESIAN_POINT('', (-3.969, 3.85298708809591E-15, -47.625));
#176 = ADVANCED_FACE('', (#177), #180, .T.);
#177 = FACE_OUTER_BOUND('', #178, .T.);
#178 = EDGE_LOOP('', (#179));
#179 = ORIENTED_EDGE('', *, *, #141, .T.);
#180 = B_SPLINE_SURFACE_WITH_KNOTS('', 1, 1, ((#181, #182), (#183, #184)), .UNSPECIFIED., .F., .F., .U., (2, 2), (2, 2), (63.3252834244027, 71.2632834244027), (58.5627814994028, 66.5007814994028), .UNSPECIFIED.);
#181 = CARTESIAN_POINT('', (-3.96900000000001, 3.969, -47.625));
#182 = CARTESIAN_POINT('', (-3.96900000000001, -3.969, -47.625));
#183 = CARTESIAN_POINT('', (3.96899999999999, 3.969, -47.625));
#184 = CARTESIAN_POINT('', (3.96899999999999, -3.969, -47.625));
#185 = DRAUGHTING_MODEL('', (#193, #319, #359, #364, #369, #374, #379), #393);
#186 = PRESENTATION_STYLE_ASSIGNMENT((#187));
#187 = SURFACE_STYLE_USAGE(.POSITIVE., #188);
#188 = SURFACE_SIDE_STYLE('', (#189));
#189 = SURFACE_STYLE_FILL_AREA(#190);
#190 = FILL_AREA_STYLE('', (#191));
#191 = FILL_AREA_STYLE_COLOUR('', #192);
#192 = COLOUR_RGB('', 0.50196078431373, 0.50196078431373, 0.50196078431373);
#193 = STYLED_ITEM('', (#186), #1);
#194 = MANIFOLD_SOLID_BREP('CUT', #195);
#195 = CLOSED_SHELL('', (#196, #213, #252));
#196 = ADVANCED_FACE('', (#197), #208, .T.);
#197 = FACE_OUTER_BOUND('', #198, .T.);
#198 = EDGE_LOOP('', (#199));
#199 = ORIENTED_EDGE('', *, *, #200, .F.);
#200 = EDGE_CURVE('', #201, #201, #203, .T.);
#201 = VERTEX_POINT('', #202);
#202 = CARTESIAN_POINT('', (-3.969, 3.15922134776043E-15, -47.625));
#203 = CIRCLE('', #204, 3.969);
#204 = AXIS2_PLACEMENT_3D('', #205, #206, #207);
#205 = CARTESIAN_POINT('', (5.68989300120393E-16, -7.7715611723761E-16, -47.625));
#206 = DIRECTION('', (0., 0., -1.));
#207 = DIRECTION('', (-1., 9.9178066641422E-16, 0.));
#208 = B_SPLINE_SURFACE_WITH_KNOTS('', 1, 1, ((#209, #210), (#211, #212)), .UNSPECIFIED., .F., .F., .U., (2, 2), (2, 2), (58.5627814994028, 66.5007814994028), (63.3252834244027, 71.2632834244027), .UNSPECIFIED.);
#209 = CARTESIAN_POINT('', (-3.969, 3.969, -47.625));
#210 = CARTESIAN_POINT('', (3.96899999999999, 3.969, -47.625));
#211 = CARTESIAN_POINT('', (-3.96900000000002, -3.969, -47.625));
#212 = CARTESIAN_POINT('', (3.96899999999998, -3.969, -47.625));
#213 = ADVANCED_FACE('', (#214), #233, .T.);
#214 = FACE_OUTER_BOUND('', #215, .T.);
#215 = EDGE_LOOP('', (#216, #217, #225, #232));
#216 = ORIENTED_EDGE('', *, *, #200, .T.);
#217 = ORIENTED_EDGE('', *, *, #218, .T.);
#218 = EDGE_CURVE('', #201, #219, #221, .T.);
#219 = VERTEX_POINT('', #220);
#220 = CARTESIAN_POINT('', (-3.969, 3.88273648817607E-15, -59.4408989337886));
#221 = LINE('', #222, #223);
#222 = CARTESIAN_POINT('', (-3.969, 3.15922134776043E-15, -47.625));
#223 = VECTOR('', #224, 11.8158989337886);
#224 = DIRECTION('', (0., 7.2351514041564E-16, -11.8158989337886));
#225 = ORIENTED_EDGE('', *, *, #226, .F.);
#226 = EDGE_CURVE('', #219, #219, #227, .T.);
#227 = CIRCLE('', #228, 3.969);
#228 = AXIS2_PLACEMENT_3D('', #229, #230, #231);
#229 = CARTESIAN_POINT('', (-3.33066907387547E-16, 5.99520433297585E-15, -59.4408989337886));
#230 = DIRECTION('', (-3.24301289538958E-30, 6.09311910403125E-15, -1.));
#231 = DIRECTION('', (-1., -5.32241835424484E-16, 0.));
#232 = ORIENTED_EDGE('', *, *, #218, .F.);
#233 = (
   BOUNDED_SURFACE ()
   B_SPLINE_SURFACE (2, 1, ((#234, #235), (#236, #237), (#238, #239), (#240, #241), (#242, #243), (#244, #245), (#246, #247), (#248, #249), (#250, #251)), .UNSPECIFIED., .T., .F., .U.)
   B_SPLINE_SURFACE_WITH_KNOTS ((3, 2, 2, 2, 3), (2, 2), (0., 6.23449062104895, 12.4689812420979, 18.7034718631468, 24.9379624841958), (0.211795170791508, 1.), .UNSPECIFIED.)
   GEOMETRIC_REPRESENTATION_ITEM ()
   RATIONAL_B_SPLINE_SURFACE (((1., 1.), (0.707106781186548, 0.707106781186548), (1., 1.), (0.707106781186548, 0.707106781186548), (1., 1.), (0.707106781186548, 0.707106781186548), (1., 1.), (0.707106781186548, 0.707106781186548), (1., 1.)))
   REPRESENTATION_ITEM ('')
   SURFACE ()
);
#234 = CARTESIAN_POINT('', (-3.969, 3.15922134776043E-15, -47.625));
#235 = CARTESIAN_POINT('', (-3.969, 1.71593141574773E-15, -59.4408989337886));
#236 = CARTESIAN_POINT('', (-3.969, 3.969, -47.625));
#237 = CARTESIAN_POINT('', (-3.969, 3.969, -59.4408989337886));
#238 = CARTESIAN_POINT('', (1.54510416714561E-16, 3.969, -47.625));
#239 = CARTESIAN_POINT('', (1.54510416714561E-16, 3.969, -59.4408989337886));
#240 = CARTESIAN_POINT('', (3.969, 3.969, -47.625));
#241 = CARTESIAN_POINT('', (3.969, 3.969, -59.4408989337886));
#242 = CARTESIAN_POINT('', (3.969, 2.21182227517184E-15, -47.625));
#243 = CARTESIAN_POINT('', (3.969, 7.6853234315914E-16, -59.4408989337886));
#244 = CARTESIAN_POINT('', (3.969, -3.969, -47.625));
#245 = CARTESIAN_POINT('', (3.969, -3.969, -59.4408989337886));
#246 = CARTESIAN_POINT('', (-3.06826341292441E-16, -3.969, -47.625));
#247 = CARTESIAN_POINT('', (-3.06826341292442E-16, -3.969, -59.4408989337886));
#248 = CARTESIAN_POINT('', (-3.969, -3.969, -47.625));
#249 = CARTESIAN_POINT('', (-3.969, -3.969, -59.4408989337886));
#250 = CARTESIAN_POINT('', (-3.969, 3.15922134776043E-15, -47.625));
#251 = CARTESIAN_POINT('', (-3.969, 1.71593141574773E-15, -59.4408989337886));
#252 = ADVANCED_FACE('', (#253), #266, .T.);
#253 = FACE_OUTER_BOUND('', #254, .T.);
#254 = EDGE_LOOP('', (#255, #264, #265));
#255 = ORIENTED_EDGE('', *, *, #256, .F.);
#256 = EDGE_CURVE('', #219, #257, #259, .T.);
#257 = VERTEX_POINT('', #258);
#258 = CARTESIAN_POINT('', (2.31759056390501E-15, 3.88825358729285E-15, -63.5));
#259 = CIRCLE('', #260, 3.96999999999995);
#260 = AXIS2_PLACEMENT_3D('', #261, #262, #263);
#261 = CARTESIAN_POINT('', (-4.88498130835069E-14, 3.64516119766211E-15, -59.53));
#262 = DIRECTION('', (-6.12323399573657E-17, -1., -6.12323399573665E-17));
#263 = DIRECTION('', (-0.999748110831234, 5.98426424468418E-17, 0.0224435935041416));
#264 = ORIENTED_EDGE('', *, *, #226, .T.);
#265 = ORIENTED_EDGE('', *, *, #256, .T.);
#266 = (
   BOUNDED_SURFACE ()
   B_SPLINE_SURFACE (2, 2, ((#267, #268, #269, #270, #271), (#272, #273, #274, #275, #276), (#277, #278, #279, #280, #281), (#282, #283, #284, #285, #286), (#287, #288, #289, #290, #291), (#292, #293, #294, #295, #296), (#297, #298, #299, #300, #301), (#302, #303, #304, #305, #306), (#307, #308, #309, #310, #311)), .UNSPECIFIED., .T., .F., .U.)
   B_SPLINE_SURFACE_WITH_KNOTS ((3, 2, 2, 2, 3), (3, 2, 3), (0., 0.25, 0.5, 0.75, 1.), (0., 0.5, 1.), .UNSPECIFIED.)
   GEOMETRIC_REPRESENTATION_ITEM ()
   RATIONAL_B_SPLINE_SURFACE (((1., 0.921717620352416, 1., 0.921717620352416, 1.), (0.707106781186548, 0.651752779690321, 0.707106781186548, 0.651752779690321, 0.707106781186548), (1., 0.921717620352416, 1., 0.921717620352416, 1.), (0.707106781186548, 0.651752779690321, 0.707106781186548, 0.651752779690321, 0.707106781186548), (1., 0.921717620352416, 1., 0.921717620352416, 1.), (0.707106781186548, 0.651752779690321, 0.707106781186548, 0.651752779690321, 0.707106781186548), (1., 0.921717620352416, 1., 0.921717620352416, 1.), (0.707106781186548, 0.651752779690321, 0.707106781186548, 0.651752779690321, 0.707106781186548), (1., 0.921717620352416, 1., 0.921717620352416, 1.)))
   REPRESENTATION_ITEM ('')
   SURFACE ()
);
#267 = CARTESIAN_POINT('', (-3.969, 3.88273648817607E-15, -59.4408989337886));
#268 = CARTESIAN_POINT('', (-4.00649400272892, 3.98730059222834E-15, -61.1110663420898));
#269 = CARTESIAN_POINT('', (-2.83854110705298, 3.9889241024045E-15, -62.3055331710449));
#270 = CARTESIAN_POINT('', (-1.67058821137703, 3.99054761258066E-15, -63.5));
#271 = CARTESIAN_POINT('', (2.31759056390501E-15, 3.88825358729285E-15, -63.5));
#272 = CARTESIAN_POINT('', (-3.969, 3.96899999999998, -59.4408989337886));
#273 = CARTESIAN_POINT('', (-4.00649400272892, 4.0064940027289, -61.1110663420898));
#274 = CARTESIAN_POINT('', (-2.83854110705298, 2.83854110705296, -62.3055331710449));
#275 = CARTESIAN_POINT('', (-1.67058821137703, 1.67058821137701, -63.5));
#276 = CARTESIAN_POINT('', (2.31759056390501E-15, 3.88825358729285E-15, -63.5));
#277 = CARTESIAN_POINT('', (-2.44303624085303E-14, 3.96899999999998, -59.4408989337886));
#278 = CARTESIAN_POINT('', (-2.43280941499995E-14, 4.0064940027289, -61.1110663420898));
#279 = CARTESIAN_POINT('', (-2.42549541510611E-14, 2.83854110705296, -62.3055331710449));
#280 = CARTESIAN_POINT('', (-2.41818141521227E-14, 1.67058821137701, -63.5));
#281 = CARTESIAN_POINT('', (2.31759056390501E-15, 3.88825358729285E-15, -63.5));
#282 = CARTESIAN_POINT('', (3.96899999999995, 3.96899999999998, -59.4408989337886));
#283 = CARTESIAN_POINT('', (4.00649400272887, 4.0064940027289, -61.1110663420898));
#284 = CARTESIAN_POINT('', (2.83854110705293, 2.83854110705296, -62.3055331710449));
#285 = CARTESIAN_POINT('', (1.67058821137698, 1.67058821137701, -63.5));
#286 = CARTESIAN_POINT('', (2.31759056390501E-15, 3.88825358729285E-15, -63.5));
#287 = CARTESIAN_POINT('', (3.96899999999995, 3.89364822172972E-15, -59.4408989337886));
#288 = CARTESIAN_POINT('', (4.00649400272887, 3.79367580872037E-15, -61.1110663420898));
#289 = CARTESIAN_POINT('', (2.83854110705293, 3.64901932101977E-15, -62.3055331710449));
#290 = CARTESIAN_POINT('', (1.67058821137698, 3.50436283331917E-15, -63.5));
#291 = CARTESIAN_POINT('', (2.31759056390501E-15, 3.88825358729285E-15, -63.5));
#292 = CARTESIAN_POINT('', (3.96899999999995, -3.96899999999997, -59.4408989337886));
#293 = CARTESIAN_POINT('', (4.00649400272887, -4.00649400272889, -61.1110663420898));
#294 = CARTESIAN_POINT('', (2.83854110705293, -2.83854110705295, -62.3055331710449));
#295 = CARTESIAN_POINT('', (1.67058821137698, -1.670588211377, -63.5));
#296 = CARTESIAN_POINT('', (2.31759056390501E-15, 3.88825358729285E-15, -63.5));
#297 = CARTESIAN_POINT('', (-2.3933388360395E-14, -3.96899999999997, -59.4408989337886));
#298 = CARTESIAN_POINT('', (-2.40310649278829E-14, -4.00649400272889, -61.1110663420898));
#299 = CARTESIAN_POINT('', (-2.42472379043457E-14, -2.83854110705295, -62.3055331710449));
#300 = CARTESIAN_POINT('', (-2.44634108808086E-14, -1.670588211377, -63.5));
#301 = CARTESIAN_POINT('', (2.31759056390501E-15, 3.88825358729285E-15, -63.5));
#302 = CARTESIAN_POINT('', (-3.969, -3.96899999999997, -59.4408989337886));
#303 = CARTESIAN_POINT('', (-4.00649400272892, -4.00649400272889, -61.1110663420898));
#304 = CARTESIAN_POINT('', (-2.83854110705298, -2.83854110705295, -62.3055331710449));
#305 = CARTESIAN_POINT('', (-1.67058821137703, -1.670588211377, -63.5));
#306 = CARTESIAN_POINT('', (2.31759056390501E-15, 3.88825358729285E-15, -63.5));
#307 = CARTESIAN_POINT('', (-3.969, 3.88273648817607E-15, -59.4408989337886));
#308 = CARTESIAN_POINT('', (-4.00649400272892, 3.98730059222834E-15, -61.1110663420898));
#309 = CARTESIAN_POINT('', (-2.83854110705298, 3.9889241024045E-15, -62.3055331710449));
#310 = CARTESIAN_POINT('', (-1.67058821137703, 3.99054761258066E-15, -63.5));
#311 = CARTESIAN_POINT('', (2.31759056390501E-15, 3.88825358729285E-15, -63.5));
#312 = PRESENTATION_STYLE_ASSIGNMENT((#313));
#313 = SURFACE_STYLE_USAGE(.POSITIVE., #314);
#314 = SURFACE_SIDE_STYLE('', (#315));
#315 = SURFACE_STYLE_FILL_AREA(#316);
#316 = FILL_AREA_STYLE('', (#317));
#317 = FILL_AREA_STYLE_COLOUR('', #318);
#318 = COLOUR_RGB('', 0.8, 0.8, 0.8);
#319 = STYLED_ITEM('', (#312), #194);
#320 = TRIMMED_CURVE('cutting part line', #321, (#325), (#326), .T., .CARTESIAN.);
#321 = LINE('', #322, #323);
#322 = CARTESIAN_POINT('', (-5.35695447369531E-31, -2.91619019046963E-15, -47.625));
#323 = VECTOR('', #324, 3.969);
#324 = DIRECTION('', (3.969, -7.29093471872385E-16, 0.));
#325 = CARTESIAN_POINT('', (-5.35695447369531E-31, -2.91619019046963E-15, -47.625));
#326 = CARTESIAN_POINT('', (3.969, -3.64528366234201E-15, -47.625));
#327 = TRIMMED_CURVE('cutting part line', #328, (#332), (#333), .T., .CARTESIAN.);
#328 = LINE('', #329, #330);
#329 = CARTESIAN_POINT('', (3.969, -3.64528366234201E-15, -47.625));
#330 = VECTOR('', #331, 11.8158989337886);
#331 = DIRECTION('', (0., -7.2351514041564E-16, -11.8158989337886));
#332 = CARTESIAN_POINT('', (3.969, -3.64528366234201E-15, -47.625));
#333 = CARTESIAN_POINT('', (3.969, -4.36879880275765E-15, -59.4408989337886));
#334 = TRIMMED_CURVE('cutting part line', #335, (#340), (#341), .T., .CARTESIAN.);
#335 = CIRCLE('', #336, 3.96999999999998);
#336 = AXIS2_PLACEMENT_3D('', #337, #338, #339);
#337 = CARTESIAN_POINT('', (2.04281036531029E-14, -3.64516119766209E-15, -59.53));
#338 = DIRECTION('', (1.83697019872105E-16, 1., -6.12323399573706E-17));
#339 = DIRECTION('', (0.999748110831235, -1.82276474835156E-16, 0.022443593504111));
#340 = CARTESIAN_POINT('', (3.969, -4.36879880275766E-15, -59.4408989337887));
#341 = CARTESIAN_POINT('', (5.27355936696949E-16, -3.88825358729285E-15, -63.5));
#342 = TRIMMED_CURVE('cutting part line', #343, (#347), (#348), .T., .CARTESIAN.);
#343 = LINE('', #344, #345);
#344 = CARTESIAN_POINT('', (-7.1426059649271E-31, -3.88825358729285E-15, -63.5));
#345 = VECTOR('', #346, 15.875);
#346 = DIRECTION('', (1.78565149123179E-31, 9.7206339682322E-16, 15.875));
#347 = CARTESIAN_POINT('', (-7.1426059649271E-31, -3.88825358729285E-15, -63.5));
#348 = CARTESIAN_POINT('', (-5.35695447369531E-31, -2.91619019046963E-15, -47.625));
#349 = COMPOSITE_CURVE('cutting part line', (#350, #351, #352, #353), .U.);
#350 = COMPOSITE_CURVE_SEGMENT(.CONTINUOUS., .T., #320);
#351 = COMPOSITE_CURVE_SEGMENT(.CONTINUOUS., .T., #327);
#352 = COMPOSITE_CURVE_SEGMENT(.CONTINUOUS., .T., #334);
#353 = COMPOSITE_CURVE_SEGMENT(.CONTINUOUS., .T., #342);
#354 = GEOMETRIC_SET('', (#349, #392));
#355 = PRESENTATION_STYLE_ASSIGNMENT((#356));
#356 = CURVE_STYLE('', #358, POSITIVE_LENGTH_MEASURE(1.E-6), #357);
#357 = COLOUR_RGB('', 0., 0., 1.);
#358 = DRAUGHTING_PRE_DEFINED_CURVE_FONT('continuous');
#359 = STYLED_ITEM('', (#355), #349);
#360 = PRESENTATION_STYLE_ASSIGNMENT((#361));
#361 = CURVE_STYLE('', #363, POSITIVE_LENGTH_MEASURE(1.E-6), #362);
#362 = COLOUR_RGB('', 0., 0., 1.);
#363 = DRAUGHTING_PRE_DEFINED_CURVE_FONT('continuous');
#364 = OVER_RIDING_STYLED_ITEM('', (#360), #320, #359);
#365 = PRESENTATION_STYLE_ASSIGNMENT((#366));
#366 = CURVE_STYLE('', #368, POSITIVE_LENGTH_MEASURE(1.E-6), #367);
#367 = COLOUR_RGB('', 0., 0., 1.);
#368 = DRAUGHTING_PRE_DEFINED_CURVE_FONT('continuous');
#369 = OVER_RIDING_STYLED_ITEM('', (#365), #327, #359);
#370 = PRESENTATION_STYLE_ASSIGNMENT((#371));
#371 = CURVE_STYLE('', #373, POSITIVE_LENGTH_MEASURE(1.E-6), #372);
#372 = COLOUR_RGB('', 0., 0., 1.);
#373 = DRAUGHTING_PRE_DEFINED_CURVE_FONT('continuous');
#374 = OVER_RIDING_STYLED_ITEM('', (#370), #334, #359);
#375 = PRESENTATION_STYLE_ASSIGNMENT((#376));
#376 = CURVE_STYLE('', #378, POSITIVE_LENGTH_MEASURE(1.E-6), #377);
#377 = COLOUR_RGB('', 0., 0., 1.);
#378 = DRAUGHTING_PRE_DEFINED_CURVE_FONT('continuous');
#379 = OVER_RIDING_STYLED_ITEM('', (#375), #342, #359);
#380 = AXIS2_PLACEMENT_3D('CIP', #381, #382, #383);
#381 = CARTESIAN_POINT('', (2.3808686549757E-31, 3.88825358729285E-15, -63.5));
#382 = DIRECTION('', (-3.74939945665465E-33, -6.12323399573677E-17, 1.));
#383 = DIRECTION('', (1., -6.12323399573677E-17, 0.));
#384 = AXIS2_PLACEMENT_3D('MCS', #385, #386, #387);
#385 = CARTESIAN_POINT('', (3.11200154902335E-32, 5.08228421646151E-16, -8.3));
#386 = DIRECTION('', (-3.74939945665465E-33, -6.12323399573677E-17, 1.));
#387 = DIRECTION('', (1., -6.12323399573677E-17, 0.));
#388 = AXIS2_PLACEMENT_3D('PCS', #389, #390, #391);
#389 = CARTESIAN_POINT('', (0., 0., 0.));
#390 = DIRECTION('', (0., 0., 1.));
#391 = DIRECTION('', (1., 0., 0.));
#392 = CARTESIAN_POINT('CRP', (3.97, 0., -63.5));
#393 = (
   GEOMETRIC_REPRESENTATION_CONTEXT (3)
   GLOBAL_UNCERTAINTY_ASSIGNED_CONTEXT ((#395))
   GLOBAL_UNIT_ASSIGNED_CONTEXT ((#394, #396, #397))
   REPRESENTATION_CONTEXT ('', '3D')
);
#394 = (
   LENGTH_UNIT ()
   NAMED_UNIT (*)
   SI_UNIT (.MILLI., .METRE.)
);
#395 = UNCERTAINTY_MEASURE_WITH_UNIT(LENGTH_MEASURE(1.E-6), #394, 'DISTANCE_ACCURACY_VALUE', '');
#396 = (
   NAMED_UNIT (*)
   SI_UNIT ($, .STERADIAN.)
   SOLID_ANGLE_UNIT ()
);
#397 = (
   NAMED_UNIT (*)
   PLANE_ANGLE_UNIT ()
   SI_UNIT ($, .RADIAN.)
);
#398 = SHAPE_REPRESENTATION('', (), #393);
#399 = PRODUCT_DEFINITION_SHAPE('', '', #400);
#400 = PRODUCT_DEFINITION('', '', #403, #407);
#401 = APPLICATION_CONTEXT('configuration controlled 3D designs of mechanical parts and assemblies');
#402 = APPLICATION_PROTOCOL_DEFINITION('International Standard', 'automotive_design', 2002, #401);
#403 = PRODUCT_DEFINITION_FORMATION_WITH_SPECIFIED_SOURCE('', '', #404, .NOT_KNOWN.);
#404 = PRODUCT('NONE', '1B232-0794-XA       1620', '', (#405));
#405 = PRODUCT_CONTEXT('', #401, 'mechanical');
#406 = PRODUCT_RELATED_PRODUCT_CATEGORY('detail', '', (#404));
#407 = PRODUCT_DEFINITION_CONTEXT('part definition', #401, 'design');
#408 = SHAPE_DEFINITION_REPRESENTATION(#399, #398);
#409 = CONSTRUCTIVE_GEOMETRY_REPRESENTATION('supplemental geometry', (#380, #384, #388), #393);
#410 = CONSTRUCTIVE_GEOMETRY_REPRESENTATION_RELATIONSHIP('', '', #398, #409);
#411 = SHAPE_REPRESENTATION_RELATIONSHIP('', '', #398, #412);
#412 = SHAPE_REPRESENTATION('', (#354), #393);
#413 = SHAPE_REPRESENTATION_RELATIONSHIP('', '', #398, #414);
#414 = ADVANCED_BREP_SHAPE_REPRESENTATION('', (#1, #194), #393);
ENDSEC;
END-ISO-10303-21;
