ISO-10303-21;
HEADER;
FILE_DESCRIPTION(('STEP'), '1');
FILE_NAME('C:\\Users\\ds2002\\OneDrive - Sandvik\\HomeShare\\Documents\\Batchrepair\\CorSRT2\\NEW_MILBN_SLD\\Output3\\MOD000000000000000020082225800000.stp', '2018-11-27T13:12:04', (''), (''), 'Express v3.0.0.0', 'Express Tool', 'Unknown');
FILE_SCHEMA(('AUTOMOTIVE_DESIGN'));
ENDSEC;

DATA;
#1 = MANIFOLD_SOLID_BREP('NOCUT', #2);
#2 = CLOSED_SHELL('', (#3, #50, #97, #106, #137, #176));
#3 = ADVANCED_FACE('', (#4), #31, .T.);
#4 = FACE_OUTER_BOUND('', #5, .T.);
#5 = EDGE_LOOP('', (#6, #16, #23, #24));
#6 = ORIENTED_EDGE('', *, *, #7, .F.);
#7 = EDGE_CURVE('', #8, #10, #12, .T.);
#8 = VERTEX_POINT('', #9);
#9 = CARTESIAN_POINT('', (-4.7625, 3.75736946063397E-15, -56.6));
#10 = VERTEX_POINT('', #11);
#11 = CARTESIAN_POINT('', (-3.96875, 3.74244407776937E-15, -57.15));
#12 = LINE('', #13, #14);
#13 = CARTESIAN_POINT('', (-4.7625, 3.75736946063397E-15, -56.6));
#14 = VECTOR('', #15, 0.96568062137541);
#15 = DIRECTION('', (0.79375, -1.49253828646005E-17, -0.549999999999997));
#16 = ORIENTED_EDGE('', *, *, #17, .T.);
#17 = EDGE_CURVE('', #8, #8, #18, .T.);
#18 = CIRCLE('', #19, 4.7625);
#19 = AXIS2_PLACEMENT_3D('', #20, #21, #22);
#20 = CARTESIAN_POINT('', (2.63677968348475E-16, 5.55111512312578E-16, -56.6));
#21 = DIRECTION('', (1.49195325093984E-15, -4.85379623643194E-15, -1.));
#22 = DIRECTION('', (-1., 4.27460760552975E-16, -1.49195325093984E-15));
#23 = ORIENTED_EDGE('', *, *, #7, .T.);
#24 = ORIENTED_EDGE('', *, *, #25, .F.);
#25 = EDGE_CURVE('', #10, #10, #26, .T.);
#26 = CIRCLE('', #27, 3.96875);
#27 = AXIS2_PLACEMENT_3D('', #28, #29, #30);
#28 = CARTESIAN_POINT('', (1.94289029309402E-16, 1.99840144432528E-15, -57.15));
#29 = DIRECTION('', (0., 0., -1.));
#30 = DIRECTION('', (-1., 4.39443813151266E-16, 0.));
#31 = (
   BOUNDED_SURFACE ()
   B_SPLINE_SURFACE (2, 1, ((#32, #33), (#34, #35), (#36, #37), (#38, #39), (#40, #41), (#42, #43), (#44, #45), (#46, #47), (#48, #49)), .UNSPECIFIED., .T., .F., .U.)
   B_SPLINE_SURFACE_WITH_KNOTS ((3, 2, 2, 2, 3), (2, 2), (0., 0.25, 0.5, 0.75, 1.), (0., 1.), .UNSPECIFIED.)
   GEOMETRIC_REPRESENTATION_ITEM ()
   RATIONAL_B_SPLINE_SURFACE (((1., 1.), (0.707106781186548, 0.707106781186548), (1., 1.), (0.707106781186548, 0.707106781186548), (1., 1.), (0.707106781186548, 0.707106781186548), (1., 1.), (0.707106781186548, 0.707106781186548), (1., 1.)))
   REPRESENTATION_ITEM ('')
   SURFACE ()
);
#32 = CARTESIAN_POINT('', (-4.7625, 3.75736946063397E-15, -56.6));
#33 = CARTESIAN_POINT('', (-3.96875, 2.79807430980743E-15, -57.15));
#34 = CARTESIAN_POINT('', (-4.7625, 4.7625, -56.6));
#35 = CARTESIAN_POINT('', (-3.96875, 3.96875, -57.15));
#36 = CARTESIAN_POINT('', (3.46575044158701E-15, 4.7625, -56.6));
#37 = CARTESIAN_POINT('', (3.1101699729142E-15, 3.96875, -57.15));
#38 = CARTESIAN_POINT('', (4.7625, 4.7625, -56.6));
#39 = CARTESIAN_POINT('', (3.96875, 3.96875, -57.15));
#40 = CARTESIAN_POINT('', (4.7625, -5.09596163439667E-16, -56.6));
#41 = CARTESIAN_POINT('', (3.96875, -7.57730376920603E-16, -57.15));
#42 = CARTESIAN_POINT('', (4.7625, -4.7625, -56.6));
#43 = CARTESIAN_POINT('', (3.96875, -3.96875, -57.15));
#44 = CARTESIAN_POINT('', (-2.17977144392703E-16, -4.7625, -56.6));
#45 = CARTESIAN_POINT('', (4.03969845977781E-17, -3.96875, -57.15));
#46 = CARTESIAN_POINT('', (-4.7625, -4.7625, -56.6));
#47 = CARTESIAN_POINT('', (-3.96875, -3.96875, -57.15));
#48 = CARTESIAN_POINT('', (-4.7625, 3.75736946063397E-15, -56.6));
#49 = CARTESIAN_POINT('', (-3.96875, 2.79807430980743E-15, -57.15));
#50 = ADVANCED_FACE('', (#51), #78, .T.);
#51 = FACE_OUTER_BOUND('', #52, .T.);
#52 = EDGE_LOOP('', (#53, #63, #70, #71));
#53 = ORIENTED_EDGE('', *, *, #54, .T.);
#54 = EDGE_CURVE('', #55, #57, #59, .T.);
#55 = VERTEX_POINT('', #56);
#56 = CARTESIAN_POINT('', (-4.7625, 3.2078092095166E-16, -0.47625));
#57 = VERTEX_POINT('', #58);
#58 = CARTESIAN_POINT('', (-4.28625, 2.62457117142267E-16, 0.));
#59 = LINE('', #60, #61);
#60 = CARTESIAN_POINT('', (-4.7625, 3.2078092095166E-16, -0.47625));
#61 = VECTOR('', #62, 0.673519209080187);
#62 = DIRECTION('', (0.47625, -5.8323803809393E-17, 0.47625));
#63 = ORIENTED_EDGE('', *, *, #64, .T.);
#64 = EDGE_CURVE('', #57, #57, #65, .T.);
#65 = CIRCLE('', #66, 4.28625);
#66 = AXIS2_PLACEMENT_3D('', #67, #68, #69);
#67 = CARTESIAN_POINT('', (2.08166817117217E-16, 2.22044604925031E-15, 1.41748443906901E-31));
#68 = DIRECTION('', (5.09914260327735E-33, 6.12323399573676E-17, -1.));
#69 = DIRECTION('', (-1., -7.01736343115104E-16, -4.80681009253414E-32));
#70 = ORIENTED_EDGE('', *, *, #54, .F.);
#71 = ORIENTED_EDGE('', *, *, #72, .F.);
#72 = EDGE_CURVE('', #55, #55, #73, .T.);
#73 = CIRCLE('', #74, 4.76249999999998);
#74 = AXIS2_PLACEMENT_3D('', #75, #76, #77);
#75 = CARTESIAN_POINT('', (-8.74300631892311E-16, 2.1094237467878E-15, -0.47625));
#76 = DIRECTION('', (-2.33117695459352E-17, 1.55183052165054E-16, -1.));
#77 = DIRECTION('', (-1., -6.20497407249134E-16, 2.33117695459351E-17));
#78 = (
   BOUNDED_SURFACE ()
   B_SPLINE_SURFACE (1, 2, ((#79, #80, #81, #82, #83, #84, #85, #86, #87), (#88, #89, #90, #91, #92, #93, #94, #95, #96)), .UNSPECIFIED., .F., .T., .U.)
   B_SPLINE_SURFACE_WITH_KNOTS ((2, 2), (3, 2, 2, 2, 3), (0., 1.), (0., 0.25, 0.5, 0.75, 1.), .UNSPECIFIED.)
   GEOMETRIC_REPRESENTATION_ITEM ()
   RATIONAL_B_SPLINE_SURFACE (((1., 0.707106781186548, 1., 0.707106781186548, 1., 0.707106781186548, 1., 0.707106781186548, 1.), (1., 0.707106781186548, 1., 0.707106781186548, 1., 0.707106781186548, 1., 0.707106781186548, 1.)))
   REPRESENTATION_ITEM ('')
   SURFACE ()
);
#79 = CARTESIAN_POINT('', (-4.7625, 1.85826706490691E-15, -0.47625));
#80 = CARTESIAN_POINT('', (-4.7625, 4.7625, -0.476249999999988));
#81 = CARTESIAN_POINT('', (1.91359274105531E-15, 4.7625, -0.476249999999988));
#82 = CARTESIAN_POINT('', (4.7625, 4.7625, -0.476249999999988));
#83 = CARTESIAN_POINT('', (4.7625, -5.04978731053851E-15, -0.47625));
#84 = CARTESIAN_POINT('', (4.7625, -4.76250000000001, -0.476250000000012));
#85 = CARTESIAN_POINT('', (-4.41122359629619E-15, -4.7625, -0.476250000000012));
#86 = CARTESIAN_POINT('', (-4.76250000000001, -4.7625, -0.476250000000012));
#87 = CARTESIAN_POINT('', (-4.7625, 1.85826706490691E-15, -0.47625));
#88 = CARTESIAN_POINT('', (-4.28625, 2.62457117142269E-16, 1.09476442525376E-46));
#89 = CARTESIAN_POINT('', (-4.28625, 4.28625, 1.09912079437891E-14));
#90 = CARTESIAN_POINT('', (1.56819002228304E-15, 4.28625, 1.09912079437891E-14));
#91 = CARTESIAN_POINT('', (4.28625, 4.28625, 1.09912079437891E-14));
#92 = CARTESIAN_POINT('', (4.28625, -5.95479182075861E-15, 9.76256213390072E-31));
#93 = CARTESIAN_POINT('', (4.28625, -4.28625000000001, -1.09912079437891E-14));
#94 = CARTESIAN_POINT('', (-4.12414468133331E-15, -4.28625, -1.09912079437891E-14));
#95 = CARTESIAN_POINT('', (-4.28625000000001, -4.28625, -1.09912079437891E-14));
#96 = CARTESIAN_POINT('', (-4.28625, 2.62457117142269E-16, 1.09476442525376E-46));
#97 = ADVANCED_FACE('', (#98), #101, .T.);
#98 = FACE_OUTER_BOUND('', #99, .T.);
#99 = EDGE_LOOP('', (#100));
#100 = ORIENTED_EDGE('', *, *, #64, .F.);
#101 = B_SPLINE_SURFACE_WITH_KNOTS('', 1, 1, ((#102, #103), (#104, #105)), .UNSPECIFIED., .F., .F., .U., (2, 2), (2, 2), (2.38159016989385, 10.9540901698938), (2.38159016989385, 10.9540901698938), .UNSPECIFIED.);
#102 = CARTESIAN_POINT('', (4.28625, -4.28625, 1.39483975980597E-14));
#103 = CARTESIAN_POINT('', (-4.28625, -4.28625, -2.62457117142288E-16));
#104 = CARTESIAN_POINT('', (4.28625, 4.28625, 1.44733118323442E-14));
#105 = CARTESIAN_POINT('', (-4.28625, 4.28625, 2.62457117142244E-16));
#106 = ADVANCED_FACE('', (#107), #118, .T.);
#107 = FACE_OUTER_BOUND('', #108, .T.);
#108 = EDGE_LOOP('', (#109, #115, #116, #117));
#109 = ORIENTED_EDGE('', *, *, #110, .T.);
#110 = EDGE_CURVE('', #8, #55, #111, .T.);
#111 = LINE('', #112, #113);
#112 = CARTESIAN_POINT('', (-4.7625, 3.75736946063397E-15, -56.6));
#113 = VECTOR('', #114, 56.12375);
#114 = DIRECTION('', (0., -3.43658853968231E-15, 56.12375));
#115 = ORIENTED_EDGE('', *, *, #72, .T.);
#116 = ORIENTED_EDGE('', *, *, #110, .F.);
#117 = ORIENTED_EDGE('', *, *, #17, .F.);
#118 = (
   BOUNDED_SURFACE ()
   B_SPLINE_SURFACE (1, 2, ((#119, #120, #121, #122, #123, #124, #125, #126, #127), (#128, #129, #130, #131, #132, #133, #134, #135, #136)), .UNSPECIFIED., .F., .T., .U.)
   B_SPLINE_SURFACE_WITH_KNOTS ((2, 2), (3, 2, 2, 2, 3), (0., 1.), (0., 7.4809175063607, 14.9618350127214, 22.4427525190821, 29.9236700254428), .UNSPECIFIED.)
   GEOMETRIC_REPRESENTATION_ITEM ()
   RATIONAL_B_SPLINE_SURFACE (((1., 0.707106781186548, 1., 0.707106781186548, 1., 0.707106781186548, 1., 0.707106781186548, 1.), (1., 0.707106781186548, 1., 0.707106781186548, 1., 0.707106781186548, 1., 0.707106781186548, 1.)))
   REPRESENTATION_ITEM ('')
   SURFACE ()
);
#119 = CARTESIAN_POINT('', (-4.7625, 1.3199816431143E-15, -56.6));
#120 = CARTESIAN_POINT('', (-4.7625, 4.7625, -56.6));
#121 = CARTESIAN_POINT('', (3.00969849882317E-16, 4.7625, -56.6));
#122 = CARTESIAN_POINT('', (4.7625, 4.7625, -56.6));
#123 = CARTESIAN_POINT('', (4.7625, -2.9265439517031E-16, -56.6));
#124 = CARTESIAN_POINT('', (4.7625, -4.7625, -56.6));
#125 = CARTESIAN_POINT('', (-7.28428150308368E-16, -4.7625, -56.6));
#126 = CARTESIAN_POINT('', (-4.7625, -4.7625, -56.6));
#127 = CARTESIAN_POINT('', (-4.7625, 1.3199816431143E-15, -56.6));
#128 = CARTESIAN_POINT('', (-4.7625, 3.2078092095166E-16, -0.47625));
#129 = CARTESIAN_POINT('', (-4.7625, 4.7625, -0.47625));
#130 = CARTESIAN_POINT('', (2.26348573896282E-15, 4.7625, -0.47625));
#131 = CARTESIAN_POINT('', (4.7625, 4.7625, -0.47625));
#132 = CARTESIAN_POINT('', (4.7625, -1.29185511733295E-15, -0.47625));
#133 = CARTESIAN_POINT('', (4.7625, -4.7625, -0.476250000000001));
#134 = CARTESIAN_POINT('', (1.23408773877214E-15, -4.7625, -0.47625));
#135 = CARTESIAN_POINT('', (-4.7625, -4.7625, -0.47625));
#136 = CARTESIAN_POINT('', (-4.7625, 3.2078092095166E-16, -0.47625));
#137 = ADVANCED_FACE('', (#138), #157, .T.);
#138 = FACE_OUTER_BOUND('', #139, .T.);
#139 = EDGE_LOOP('', (#140, #149, #155, #156));
#140 = ORIENTED_EDGE('', *, *, #141, .F.);
#141 = EDGE_CURVE('', #142, #142, #144, .T.);
#142 = VERTEX_POINT('', #143);
#143 = CARTESIAN_POINT('', (-3.96875, 4.71450747459258E-15, -73.025));
#144 = CIRCLE('', #145, 3.96875);
#145 = AXIS2_PLACEMENT_3D('', #146, #147, #148);
#146 = CARTESIAN_POINT('', (-5.13478148889135E-16, 1.33226762955019E-15, -73.025));
#147 = DIRECTION('', (0., 0., -1.));
#148 = DIRECTION('', (-1., 8.52217913711469E-16, 0.));
#149 = ORIENTED_EDGE('', *, *, #150, .F.);
#150 = EDGE_CURVE('', #10, #142, #151, .T.);
#151 = LINE('', #152, #153);
#152 = CARTESIAN_POINT('', (-3.96875, 3.74244407776937E-15, -57.15));
#153 = VECTOR('', #154, 15.875);
#154 = DIRECTION('', (0., 9.7206339682321E-16, -15.875));
#155 = ORIENTED_EDGE('', *, *, #25, .T.);
#156 = ORIENTED_EDGE('', *, *, #150, .T.);
#157 = (
   BOUNDED_SURFACE ()
   B_SPLINE_SURFACE (2, 1, ((#158, #159), (#160, #161), (#162, #163), (#164, #165), (#166, #167), (#168, #169), (#170, #171), (#172, #173), (#174, #175)), .UNSPECIFIED., .T., .F., .U.)
   B_SPLINE_SURFACE_WITH_KNOTS ((3, 2, 2, 2, 3), (2, 2), (0., 6.23409792196725, 12.4681958439345, 18.7022937659018, 24.936391687869), (0., 0.573510839271623), .UNSPECIFIED.)
   GEOMETRIC_REPRESENTATION_ITEM ()
   RATIONAL_B_SPLINE_SURFACE (((1., 1.), (0.707106781186548, 0.707106781186548), (1., 1.), (0.707106781186548, 0.707106781186548), (1., 1.), (0.707106781186548, 0.707106781186548), (1., 1.), (0.707106781186548, 0.707106781186548), (1., 1.)))
   REPRESENTATION_ITEM ('')
   SURFACE ()
);
#158 = CARTESIAN_POINT('', (-3.96875, 3.74244407776937E-15, -57.15));
#159 = CARTESIAN_POINT('', (-3.96875, 4.74164479993201E-15, -73.025));
#160 = CARTESIAN_POINT('', (-3.96875, 3.96875, -57.15));
#161 = CARTESIAN_POINT('', (-3.96875, 3.96875, -73.025));
#162 = CARTESIAN_POINT('', (2.98595007967443E-15, 3.96875, -57.15));
#163 = CARTESIAN_POINT('', (2.98595007967443E-15, 3.96875, -73.025));
#164 = CARTESIAN_POINT('', (3.96875, 3.96875, -57.15));
#165 = CARTESIAN_POINT('', (3.96875, 3.96875, -73.025));
#166 = CARTESIAN_POINT('', (3.96875, -1.92414474980758E-15, -57.15));
#167 = CARTESIAN_POINT('', (3.96875, -9.24944027644935E-16, -73.025));
#168 = CARTESIAN_POINT('', (3.96875, -3.96875, -57.15));
#169 = CARTESIAN_POINT('', (3.96875, -3.96875, -73.025));
#170 = CARTESIAN_POINT('', (-2.19460704949091E-15, -3.96875, -57.15));
#171 = CARTESIAN_POINT('', (-2.19460704949091E-15, -3.96875, -73.025));
#172 = CARTESIAN_POINT('', (-3.96875, -3.96875, -57.15));
#173 = CARTESIAN_POINT('', (-3.96875, -3.96875, -73.025));
#174 = CARTESIAN_POINT('', (-3.96875, 3.74244407776937E-15, -57.15));
#175 = CARTESIAN_POINT('', (-3.96875, 4.74164479993201E-15, -73.025));
#176 = ADVANCED_FACE('', (#177), #180, .T.);
#177 = FACE_OUTER_BOUND('', #178, .T.);
#178 = EDGE_LOOP('', (#179));
#179 = ORIENTED_EDGE('', *, *, #141, .T.);
#180 = B_SPLINE_SURFACE_WITH_KNOTS('', 1, 1, ((#181, #182), (#183, #184)), .UNSPECIFIED., .F., .F., .U., (2, 2), (2, 2), (89.0076065339542, 96.9451065339542), (82.8843897763012, 90.8218897763012), .UNSPECIFIED.);
#181 = CARTESIAN_POINT('', (-3.96875, 3.96875, -73.025));
#182 = CARTESIAN_POINT('', (-3.96875, -3.96875, -73.025));
#183 = CARTESIAN_POINT('', (3.96875, 3.96875, -73.025));
#184 = CARTESIAN_POINT('', (3.96875, -3.96875, -73.025));
#185 = DRAUGHTING_MODEL('', (#193, #319, #359, #364, #369, #374, #379), #393);
#186 = PRESENTATION_STYLE_ASSIGNMENT((#187));
#187 = SURFACE_STYLE_USAGE(.POSITIVE., #188);
#188 = SURFACE_SIDE_STYLE('', (#189));
#189 = SURFACE_STYLE_FILL_AREA(#190);
#190 = FILL_AREA_STYLE('', (#191));
#191 = FILL_AREA_STYLE_COLOUR('', #192);
#192 = COLOUR_RGB('', 0.50196078431373, 0.50196078431373, 0.50196078431373);
#193 = STYLED_ITEM('', (#186), #1);
#194 = MANIFOLD_SOLID_BREP('CUT', #195);
#195 = CLOSED_SHELL('', (#196, #213, #252));
#196 = ADVANCED_FACE('', (#197), #208, .T.);
#197 = FACE_OUTER_BOUND('', #198, .T.);
#198 = EDGE_LOOP('', (#199));
#199 = ORIENTED_EDGE('', *, *, #200, .F.);
#200 = EDGE_CURVE('', #201, #201, #203, .T.);
#201 = VERTEX_POINT('', #202);
#202 = CARTESIAN_POINT('', (-3.96875, 4.71450747459258E-15, -73.025));
#203 = CIRCLE('', #204, 3.96875);
#204 = AXIS2_PLACEMENT_3D('', #205, #206, #207);
#205 = CARTESIAN_POINT('', (-5.13478148889135E-16, 1.33226762955019E-15, -73.025));
#206 = DIRECTION('', (0., 0., -1.));
#207 = DIRECTION('', (-1., 8.52217913711469E-16, 0.));
#208 = B_SPLINE_SURFACE_WITH_KNOTS('', 1, 1, ((#209, #210), (#211, #212)), .UNSPECIFIED., .F., .F., .U., (2, 2), (2, 2), (82.8843897763012, 90.8218897763012), (89.0076065339542, 96.9451065339542), .UNSPECIFIED.);
#209 = CARTESIAN_POINT('', (-3.96875, 3.96875, -73.025));
#210 = CARTESIAN_POINT('', (3.96875, 3.96874999999999, -73.025));
#211 = CARTESIAN_POINT('', (-3.96875, -3.96875, -73.025));
#212 = CARTESIAN_POINT('', (3.96875, -3.96875000000001, -73.025));
#213 = ADVANCED_FACE('', (#214), #233, .T.);
#214 = FACE_OUTER_BOUND('', #215, .T.);
#215 = EDGE_LOOP('', (#216, #217, #225, #232));
#216 = ORIENTED_EDGE('', *, *, #200, .T.);
#217 = ORIENTED_EDGE('', *, *, #218, .T.);
#218 = EDGE_CURVE('', #201, #219, #221, .T.);
#219 = VERTEX_POINT('', #220);
#220 = CARTESIAN_POINT('', (-3.96875, 5.43737873333361E-15, -84.8303835480455));
#221 = LINE('', #222, #223);
#222 = CARTESIAN_POINT('', (-3.96875, 4.71450747459258E-15, -73.025));
#223 = VECTOR('', #224, 11.8053835480455);
#224 = DIRECTION('', (0., 7.2287125874103E-16, -11.8053835480455));
#225 = ORIENTED_EDGE('', *, *, #226, .F.);
#226 = EDGE_CURVE('', #219, #219, #227, .T.);
#227 = CIRCLE('', #228, 3.96875);
#228 = AXIS2_PLACEMENT_3D('', #229, #230, #231);
#229 = CARTESIAN_POINT('', (1.80411241501588E-16, 3.33066907387547E-15, -84.8303835480455));
#230 = DIRECTION('', (0., 0., -1.));
#231 = DIRECTION('', (-1., 5.30824481123311E-16, 0.));
#232 = ORIENTED_EDGE('', *, *, #218, .F.);
#233 = (
   BOUNDED_SURFACE ()
   B_SPLINE_SURFACE (2, 1, ((#234, #235), (#236, #237), (#238, #239), (#240, #241), (#242, #243), (#244, #245), (#246, #247), (#248, #249), (#250, #251)), .UNSPECIFIED., .T., .F., .U.)
   B_SPLINE_SURFACE_WITH_KNOTS ((3, 2, 2, 2, 3), (2, 2), (0., 6.23409792196725, 12.4681958439345, 18.7022937659018, 24.936391687869), (0.573510839271623, 1.), .UNSPECIFIED.)
   GEOMETRIC_REPRESENTATION_ITEM ()
   RATIONAL_B_SPLINE_SURFACE (((1., 1.), (0.707106781186548, 0.707106781186548), (1., 1.), (0.707106781186548, 0.707106781186548), (1., 1.), (0.707106781186548, 0.707106781186548), (1., 1.), (0.707106781186548, 0.707106781186548), (1., 1.)))
   REPRESENTATION_ITEM ('')
   SURFACE ()
);
#234 = CARTESIAN_POINT('', (-3.96875, 4.71450747459258E-15, -73.025));
#235 = CARTESIAN_POINT('', (-3.96875, 5.38064128936767E-15, -84.8303835480455));
#236 = CARTESIAN_POINT('', (-3.96875, 3.96875, -73.025));
#237 = CARTESIAN_POINT('', (-3.96875, 3.96875, -84.8303835480455));
#238 = CARTESIAN_POINT('', (3.8192355984195E-15, 3.96875, -73.025));
#239 = CARTESIAN_POINT('', (3.8192355984195E-15, 3.96875, -84.8303835480455));
#240 = CARTESIAN_POINT('', (3.96875, 3.96875, -73.025));
#241 = CARTESIAN_POINT('', (3.96875, 3.96875, -84.8303835480455));
#242 = CARTESIAN_POINT('', (3.96875, -8.97806702305504E-16, -73.025));
#243 = CARTESIAN_POINT('', (3.96875, -2.31672887530411E-16, -84.8303835480455));
#244 = CARTESIAN_POINT('', (3.96875, -3.96875, -73.025));
#245 = CARTESIAN_POINT('', (3.96875, -3.96875, -84.8303835480455));
#246 = CARTESIAN_POINT('', (-1.30704688006698E-15, -3.96875, -73.025));
#247 = CARTESIAN_POINT('', (-1.30704688006698E-15, -3.96875, -84.8303835480455));
#248 = CARTESIAN_POINT('', (-3.96875, -3.96875, -73.025));
#249 = CARTESIAN_POINT('', (-3.96875, -3.96875, -84.8303835480455));
#250 = CARTESIAN_POINT('', (-3.96875, 4.71450747459258E-15, -73.025));
#251 = CARTESIAN_POINT('', (-3.96875, 5.38064128936767E-15, -84.8303835480455));
#252 = ADVANCED_FACE('', (#253), #266, .T.);
#253 = FACE_OUTER_BOUND('', #254, .T.);
#254 = EDGE_LOOP('', (#255, #264, #265));
#255 = ORIENTED_EDGE('', *, *, #256, .F.);
#256 = EDGE_CURVE('', #219, #257, #259, .T.);
#257 = VERTEX_POINT('', #258);
#258 = CARTESIAN_POINT('', (1.98452365651747E-15, 5.44355502220999E-15, -88.9));
#259 = CIRCLE('', #260, 3.96999999999993);
#260 = AXIS2_PLACEMENT_3D('', #261, #262, #263);
#261 = CARTESIAN_POINT('', (-7.28306304154103E-14, 5.20046263257926E-15, -84.9300000000001));
#262 = DIRECTION('', (-6.12323399573637E-17, -1., -6.12323399573666E-17));
#263 = DIRECTION('', (-0.999685138539043, 5.96765996862364E-17, 0.0250923052782272));
#264 = ORIENTED_EDGE('', *, *, #226, .T.);
#265 = ORIENTED_EDGE('', *, *, #256, .T.);
#266 = (
   BOUNDED_SURFACE ()
   B_SPLINE_SURFACE (2, 2, ((#267, #268, #269, #270, #271), (#272, #273, #274, #275, #276), (#277, #278, #279, #280, #281), (#282, #283, #284, #285, #286), (#287, #288, #289, #290, #291), (#292, #293, #294, #295, #296), (#297, #298, #299, #300, #301), (#302, #303, #304, #305, #306), (#307, #308, #309, #310, #311)), .UNSPECIFIED., .T., .F., .U.)
   B_SPLINE_SURFACE_WITH_KNOTS ((3, 2, 2, 2, 3), (3, 2, 3), (0., 0.25, 0.5, 0.75, 1.), (0., 0.5, 1.), .UNSPECIFIED.)
   GEOMETRIC_REPRESENTATION_ITEM ()
   RATIONAL_B_SPLINE_SURFACE (((1., 0.921460512125948, 1., 0.921460512125948, 1.), (0.707106781186548, 0.651570976719887, 0.707106781186548, 0.651570976719887, 0.707106781186548), (1., 0.921460512125948, 1., 0.921460512125948, 1.), (0.707106781186548, 0.651570976719887, 0.707106781186548, 0.651570976719887, 0.707106781186548), (1., 0.921460512125948, 1., 0.921460512125948, 1.), (0.707106781186548, 0.651570976719887, 0.707106781186548, 0.651570976719887, 0.707106781186548), (1., 0.921460512125948, 1., 0.921460512125948, 1.), (0.707106781186548, 0.651570976719887, 0.707106781186548, 0.651570976719887, 0.707106781186548), (1., 0.921460512125948, 1., 0.921460512125948, 1.)))
   REPRESENTATION_ITEM ('')
   SURFACE ()
);
#267 = CARTESIAN_POINT('', (-3.96875, 5.43737873333361E-15, -84.8303835480455));
#268 = CARTESIAN_POINT('', (-4.01074659739766, 5.54240162117013E-15, -86.5035408694697));
#269 = CARTESIAN_POINT('', (-2.8422154487529, 5.54422012471282E-15, -87.7017704347349));
#270 = CARTESIAN_POINT('', (-1.67368430010815, 5.54603862825552E-15, -88.9));
#271 = CARTESIAN_POINT('', (1.98452365651747E-15, 5.44355502220999E-15, -88.9));
#272 = CARTESIAN_POINT('', (-3.96875, 3.96875, -84.8303835480455));
#273 = CARTESIAN_POINT('', (-4.01074659739768, 4.01074659739766, -86.5035408694697));
#274 = CARTESIAN_POINT('', (-2.84221544875293, 2.84221544875289, -87.7017704347349));
#275 = CARTESIAN_POINT('', (-1.6736843001082, 1.67368430010814, -88.9));
#276 = CARTESIAN_POINT('', (1.98452365651747E-15, 5.44355502220999E-15, -88.9));
#277 = CARTESIAN_POINT('', (-2.92985332953437E-15, 3.96875, -84.8303835480455));
#278 = CARTESIAN_POINT('', (-2.83092513069537E-14, 4.01074659739767, -86.5035408694697));
#279 = CARTESIAN_POINT('', (-4.64846760657504E-14, 2.84221544875292, -87.7017704347349));
#280 = CARTESIAN_POINT('', (-6.46601008245459E-14, 1.67368430010818, -88.9));
#281 = CARTESIAN_POINT('', (1.98452365651747E-15, 5.44355502220999E-15, -88.9));
#282 = CARTESIAN_POINT('', (3.96874999999999, 3.96875, -84.8303835480455));
#283 = CARTESIAN_POINT('', (4.01074659739762, 4.01074659739769, -86.5035408694697));
#284 = CARTESIAN_POINT('', (2.84221544875284, 2.84221544875296, -87.7017704347349));
#285 = CARTESIAN_POINT('', (1.67368430010807, 1.67368430010823, -88.9));
#286 = CARTESIAN_POINT('', (1.98452365651747E-15, 5.44355502220999E-15, -88.9));
#287 = CARTESIAN_POINT('', (3.96874999999999, 3.12869202423627E-15, -84.8303835480455));
#288 = CARTESIAN_POINT('', (4.01074659739764, 4.20104028427547E-14, -86.5035408694697));
#289 = CARTESIAN_POINT('', (2.84221544875287, 6.97820988865966E-14, -87.7017704347349));
#290 = CARTESIAN_POINT('', (1.67368430010811, 9.75537949304365E-14, -88.9));
#291 = CARTESIAN_POINT('', (1.98452365651747E-15, 5.44355502220999E-15, -88.9));
#292 = CARTESIAN_POINT('', (3.96874999999999, -3.96874999999999, -84.8303835480456));
#293 = CARTESIAN_POINT('', (4.01074659739766, -4.01074659739761, -86.5035408694698));
#294 = CARTESIAN_POINT('', (2.8422154487529, -2.84221544875282, -87.701770434735));
#295 = CARTESIAN_POINT('', (1.67368430010816, -1.67368430010803, -88.9));
#296 = CARTESIAN_POINT('', (1.98452365651747E-15, 5.44355502220999E-15, -88.9));
#297 = CARTESIAN_POINT('', (-4.75250834022044E-15, -3.96874999999999, -84.8303835480456));
#298 = CARTESIAN_POINT('', (8.64992471290004E-15, -4.01074659739763, -86.5035408694698));
#299 = CARTESIAN_POINT('', (1.81012737013133E-14, -2.84221544875285, -87.7017704347349));
#300 = CARTESIAN_POINT('', (2.75526226897261E-14, -1.67368430010808, -88.9));
#301 = CARTESIAN_POINT('', (1.98452365651747E-15, 5.44355502220999E-15, -88.9));
#302 = CARTESIAN_POINT('', (-3.96875, -3.96874999999999, -84.8303835480455));
#303 = CARTESIAN_POINT('', (-4.01074659739764, -4.01074659739765, -86.5035408694697));
#304 = CARTESIAN_POINT('', (-2.84221544875287, -2.84221544875288, -87.7017704347349));
#305 = CARTESIAN_POINT('', (-1.6736843001081, -1.67368430010813, -88.9));
#306 = CARTESIAN_POINT('', (1.98452365651747E-15, 5.44355502220999E-15, -88.9));
#307 = CARTESIAN_POINT('', (-3.96875, 5.43737873333361E-15, -84.8303835480455));
#308 = CARTESIAN_POINT('', (-4.01074659739766, 5.54240162117013E-15, -86.5035408694697));
#309 = CARTESIAN_POINT('', (-2.8422154487529, 5.54422012471282E-15, -87.7017704347349));
#310 = CARTESIAN_POINT('', (-1.67368430010815, 5.54603862825552E-15, -88.9));
#311 = CARTESIAN_POINT('', (1.98452365651747E-15, 5.44355502220999E-15, -88.9));
#312 = PRESENTATION_STYLE_ASSIGNMENT((#313));
#313 = SURFACE_STYLE_USAGE(.POSITIVE., #314);
#314 = SURFACE_SIDE_STYLE('', (#315));
#315 = SURFACE_STYLE_FILL_AREA(#316);
#316 = FILL_AREA_STYLE('', (#317));
#317 = FILL_AREA_STYLE_COLOUR('', #318);
#318 = COLOUR_RGB('', 0.8, 0.8, 0.8);
#319 = STYLED_ITEM('', (#312), #194);
#320 = TRIMMED_CURVE('cutting part line', #321, (#325), (#326), .T., .CARTESIAN.);
#321 = LINE('', #322, #323);
#322 = CARTESIAN_POINT('', (-8.21399685966615E-31, -4.47149162538677E-15, -73.025));
#323 = VECTOR('', #324, 3.96875);
#324 = DIRECTION('', (3.96875, -7.29047547617416E-16, 0.));
#325 = CARTESIAN_POINT('', (-8.21399685966615E-31, -4.47149162538677E-15, -73.025));
#326 = CARTESIAN_POINT('', (3.96875, -5.20053917300419E-15, -73.025));
#327 = TRIMMED_CURVE('cutting part line', #328, (#332), (#333), .T., .CARTESIAN.);
#328 = LINE('', #329, #330);
#329 = CARTESIAN_POINT('', (3.96875, -5.20053917300419E-15, -73.025));
#330 = VECTOR('', #331, 11.8053835480455);
#331 = DIRECTION('', (0., -7.2287125874103E-16, -11.8053835480455));
#332 = CARTESIAN_POINT('', (3.96875, -5.20053917300419E-15, -73.025));
#333 = CARTESIAN_POINT('', (3.96875, -5.92341043174522E-15, -84.8303835480455));
#334 = TRIMMED_CURVE('cutting part line', #335, (#340), (#341), .T., .CARTESIAN.);
#335 = CIRCLE('', #336, 3.97);
#336 = AXIS2_PLACEMENT_3D('', #337, #338, #339);
#337 = CARTESIAN_POINT('', (3.99680288865056E-15, -5.20046263257924E-15, -84.93));
#338 = DIRECTION('', (1.836970198721E-16, 1., -6.12323399573676E-17));
#339 = DIRECTION('', (0.999685138539043, -1.8210272019294E-16, 0.0250923052782124));
#340 = CARTESIAN_POINT('', (3.96875, -5.92341043174521E-15, -84.8303835480455));
#341 = CARTESIAN_POINT('', (8.46545056276682E-16, -5.44355502220999E-15, -88.9));
#342 = TRIMMED_CURVE('cutting part line', #343, (#347), (#348), .T., .CARTESIAN.);
#343 = LINE('', #344, #345);
#344 = CARTESIAN_POINT('', (-9.99964835089794E-31, -5.44355502220999E-15, -88.9));
#345 = VECTOR('', #346, 15.875);
#346 = DIRECTION('', (1.78565149123179E-31, 9.7206339682322E-16, 15.875));
#347 = CARTESIAN_POINT('', (-9.99964835089794E-31, -5.44355502220999E-15, -88.9));
#348 = CARTESIAN_POINT('', (-8.21399685966615E-31, -4.47149162538677E-15, -73.025));
#349 = COMPOSITE_CURVE('cutting part line', (#350, #351, #352, #353), .U.);
#350 = COMPOSITE_CURVE_SEGMENT(.CONTINUOUS., .T., #320);
#351 = COMPOSITE_CURVE_SEGMENT(.CONTINUOUS., .T., #327);
#352 = COMPOSITE_CURVE_SEGMENT(.CONTINUOUS., .T., #334);
#353 = COMPOSITE_CURVE_SEGMENT(.CONTINUOUS., .T., #342);
#354 = GEOMETRIC_SET('', (#349, #392));
#355 = PRESENTATION_STYLE_ASSIGNMENT((#356));
#356 = CURVE_STYLE('', #358, POSITIVE_LENGTH_MEASURE(1.E-6), #357);
#357 = COLOUR_RGB('', 0., 0., 1.);
#358 = DRAUGHTING_PRE_DEFINED_CURVE_FONT('continuous');
#359 = STYLED_ITEM('', (#355), #349);
#360 = PRESENTATION_STYLE_ASSIGNMENT((#361));
#361 = CURVE_STYLE('', #363, POSITIVE_LENGTH_MEASURE(1.E-6), #362);
#362 = COLOUR_RGB('', 0., 0., 1.);
#363 = DRAUGHTING_PRE_DEFINED_CURVE_FONT('continuous');
#364 = OVER_RIDING_STYLED_ITEM('', (#360), #320, #359);
#365 = PRESENTATION_STYLE_ASSIGNMENT((#366));
#366 = CURVE_STYLE('', #368, POSITIVE_LENGTH_MEASURE(1.E-6), #367);
#367 = COLOUR_RGB('', 0., 0., 1.);
#368 = DRAUGHTING_PRE_DEFINED_CURVE_FONT('continuous');
#369 = OVER_RIDING_STYLED_ITEM('', (#365), #327, #359);
#370 = PRESENTATION_STYLE_ASSIGNMENT((#371));
#371 = CURVE_STYLE('', #373, POSITIVE_LENGTH_MEASURE(1.E-6), #372);
#372 = COLOUR_RGB('', 0., 0., 1.);
#373 = DRAUGHTING_PRE_DEFINED_CURVE_FONT('continuous');
#374 = OVER_RIDING_STYLED_ITEM('', (#370), #334, #359);
#375 = PRESENTATION_STYLE_ASSIGNMENT((#376));
#376 = CURVE_STYLE('', #378, POSITIVE_LENGTH_MEASURE(1.E-6), #377);
#377 = COLOUR_RGB('', 0., 0., 1.);
#378 = DRAUGHTING_PRE_DEFINED_CURVE_FONT('continuous');
#379 = OVER_RIDING_STYLED_ITEM('', (#375), #342, #359);
#380 = AXIS2_PLACEMENT_3D('CIP', #381, #382, #383);
#381 = CARTESIAN_POINT('', (3.33321611696598E-31, 5.44355502220999E-15, -88.9));
#382 = DIRECTION('', (-3.74939945665465E-33, -6.12323399573677E-17, 1.));
#383 = DIRECTION('', (1., -6.12323399573677E-17, 0.));
#384 = AXIS2_PLACEMENT_3D('MCS', #385, #386, #387);
#385 = CARTESIAN_POINT('', (1.48851158429189E-31, 2.4309238963075E-15, -39.7));
#386 = DIRECTION('', (-3.74939945665465E-33, -6.12323399573677E-17, 1.));
#387 = DIRECTION('', (1., -6.12323399573677E-17, 0.));
#388 = AXIS2_PLACEMENT_3D('PCS', #389, #390, #391);
#389 = CARTESIAN_POINT('', (0., 0., 0.));
#390 = DIRECTION('', (0., 0., 1.));
#391 = DIRECTION('', (1., 0., 0.));
#392 = CARTESIAN_POINT('CRP', (3.97, 0., -88.9));
#393 = (
   GEOMETRIC_REPRESENTATION_CONTEXT (3)
   GLOBAL_UNCERTAINTY_ASSIGNED_CONTEXT ((#395))
   GLOBAL_UNIT_ASSIGNED_CONTEXT ((#394, #396, #397))
   REPRESENTATION_CONTEXT ('', '3D')
);
#394 = (
   LENGTH_UNIT ()
   NAMED_UNIT (*)
   SI_UNIT (.MILLI., .METRE.)
);
#395 = UNCERTAINTY_MEASURE_WITH_UNIT(LENGTH_MEASURE(1.E-6), #394, 'DISTANCE_ACCURACY_VALUE', '');
#396 = (
   NAMED_UNIT (*)
   SI_UNIT ($, .STERADIAN.)
   SOLID_ANGLE_UNIT ()
);
#397 = (
   NAMED_UNIT (*)
   PLANE_ANGLE_UNIT ()
   SI_UNIT ($, .RADIAN.)
);
#398 = SHAPE_REPRESENTATION('', (), #393);
#399 = PRODUCT_DEFINITION_SHAPE('', '', #400);
#400 = PRODUCT_DEFINITION('', '', #403, #407);
#401 = APPLICATION_CONTEXT('configuration controlled 3D designs of mechanical parts and assemblies');
#402 = APPLICATION_PROTOCOL_DEFINITION('International Standard', 'automotive_design', 2002, #401);
#403 = PRODUCT_DEFINITION_FORMATION_WITH_SPECIFIED_SOURCE('', '', #404, .NOT_KNOWN.);
#404 = PRODUCT('NONE', '1B231-0794-XA       1620', '', (#405));
#405 = PRODUCT_CONTEXT('', #401, 'mechanical');
#406 = PRODUCT_RELATED_PRODUCT_CATEGORY('detail', '', (#404));
#407 = PRODUCT_DEFINITION_CONTEXT('part definition', #401, 'design');
#408 = SHAPE_DEFINITION_REPRESENTATION(#399, #398);
#409 = CONSTRUCTIVE_GEOMETRY_REPRESENTATION('supplemental geometry', (#380, #384, #388), #393);
#410 = CONSTRUCTIVE_GEOMETRY_REPRESENTATION_RELATIONSHIP('', '', #398, #409);
#411 = SHAPE_REPRESENTATION_RELATIONSHIP('', '', #398, #412);
#412 = SHAPE_REPRESENTATION('', (#354), #393);
#413 = SHAPE_REPRESENTATION_RELATIONSHIP('', '', #398, #414);
#414 = ADVANCED_BREP_SHAPE_REPRESENTATION('', (#1, #194), #393);
ENDSEC;
END-ISO-10303-21;
