ISO-10303-21;
HEADER;
FILE_DESCRIPTION(('STEP'), '1');
FILE_NAME('C:\\Users\\ds2002\\OneDrive - Sandvik\\HomeShare\\Documents\\Batchrepair\\CorSRT2\\NEW_MILBN_SLD\\Output3\\MOD000000000000000020084647000000.stp', '2018-11-27T13:11:38', (''), (''), 'Express v3.0.0.0', 'Express Tool', 'Unknown');
FILE_SCHEMA(('AUTOMOTIVE_DESIGN'));
ENDSEC;

DATA;
#1 = MANIFOLD_SOLID_BREP('NOCUT', #2);
#2 = CLOSED_SHELL('', (#3, #50, #97, #106, #137, #176));
#3 = ADVANCED_FACE('', (#4), #31, .T.);
#4 = FACE_OUTER_BOUND('', #5, .T.);
#5 = EDGE_LOOP('', (#6, #16, #23, #24));
#6 = ORIENTED_EDGE('', *, *, #7, .F.);
#7 = EDGE_CURVE('', #8, #10, #12, .T.);
#8 = VERTEX_POINT('', #9);
#9 = CARTESIAN_POINT('', (-5., 3.19632814577459E-15, -47.2));
#10 = VERTEX_POINT('', #11);
#11 = CARTESIAN_POINT('', (-3., 5.8783046359073E-15, -93.));
#12 = LINE('', #13, #14);
#13 = CARTESIAN_POINT('', (-5., 3.19632814577459E-15, -47.2));
#14 = VECTOR('', #15, 45.8436473243567);
#15 = DIRECTION('', (2., 2.68197649013271E-15, -45.8));
#16 = ORIENTED_EDGE('', *, *, #17, .T.);
#17 = EDGE_CURVE('', #8, #8, #18, .T.);
#18 = CIRCLE('', #19, 5.);
#19 = AXIS2_PLACEMENT_3D('', #20, #21, #22);
#20 = CARTESIAN_POINT('', (1.38777878078145E-16, 1.4432899320127E-15, -47.2));
#21 = DIRECTION('', (0., 0., -1.));
#22 = DIRECTION('', (-1., 3.50607642752377E-16, 0.));
#23 = ORIENTED_EDGE('', *, *, #7, .T.);
#24 = ORIENTED_EDGE('', *, *, #25, .F.);
#25 = EDGE_CURVE('', #10, #10, #26, .T.);
#26 = CIRCLE('', #27, 3.);
#27 = AXIS2_PLACEMENT_3D('', #28, #29, #30);
#28 = CARTESIAN_POINT('', (-8.18789480661053E-16, 7.16093850883226E-15, -93.));
#29 = DIRECTION('', (0., 0., -1.));
#30 = DIRECTION('', (-1., -4.2754462430832E-16, 0.));
#31 = (
   BOUNDED_SURFACE ()
   B_SPLINE_SURFACE (2, 1, ((#32, #33), (#34, #35), (#36, #37), (#38, #39), (#40, #41), (#42, #43), (#44, #45), (#46, #47), (#48, #49)), .UNSPECIFIED., .T., .F., .U.)
   B_SPLINE_SURFACE_WITH_KNOTS ((3, 2, 2, 2, 3), (2, 2), (0., 0.25, 0.5, 0.75, 1.), (0., 1.), .UNSPECIFIED.)
   GEOMETRIC_REPRESENTATION_ITEM ()
   RATIONAL_B_SPLINE_SURFACE (((1., 1.), (0.707106781186548, 0.707106781186548), (1., 1.), (0.707106781186548, 0.707106781186548), (1., 1.), (0.707106781186548, 0.707106781186548), (1., 1.), (0.707106781186548, 0.707106781186548), (1., 1.)))
   REPRESENTATION_ITEM ('')
   SURFACE ()
);
#32 = CARTESIAN_POINT('', (-5., 3.19632814577459E-15, -47.2));
#33 = CARTESIAN_POINT('', (-3., 1.20652353325387E-14, -93.));
#34 = CARTESIAN_POINT('', (-4.99999999999999, 5., -47.2));
#35 = CARTESIAN_POINT('', (-3., 3.00000000000001, -93.));
#36 = CARTESIAN_POINT('', (6.56778021505858E-15, 5., -47.2));
#37 = CARTESIAN_POINT('', (3.90181032317328E-15, 3.00000000000001, -93.));
#38 = CARTESIAN_POINT('', (5.00000000000001, 4.99999999999999, -47.2));
#39 = CARTESIAN_POINT('', (3., 3., -93.));
#40 = CARTESIAN_POINT('', (5., -1.0133521313652E-14, -47.2));
#41 = CARTESIAN_POINT('', (3., 4.06732565688275E-15, -93.));
#42 = CARTESIAN_POINT('', (4.99999999999999, -5.00000000000001, -47.2));
#43 = CARTESIAN_POINT('', (3., -3., -93.));
#44 = CARTESIAN_POINT('', (-6.14974584479431E-15, -5., -47.2));
#45 = CARTESIAN_POINT('', (-3.72870531273845E-15, -2.99999999999999, -93.));
#46 = CARTESIAN_POINT('', (-5.00000000000001, -5., -47.2));
#47 = CARTESIAN_POINT('', (-3., -2.99999999999999, -93.));
#48 = CARTESIAN_POINT('', (-5., 3.19632814577459E-15, -47.2));
#49 = CARTESIAN_POINT('', (-3., 1.20652353325387E-14, -93.));
#50 = ADVANCED_FACE('', (#51), #78, .T.);
#51 = FACE_OUTER_BOUND('', #52, .T.);
#52 = EDGE_LOOP('', (#53, #63, #70, #71));
#53 = ORIENTED_EDGE('', *, *, #54, .T.);
#54 = EDGE_CURVE('', #55, #57, #59, .T.);
#55 = VERTEX_POINT('', #56);
#56 = CARTESIAN_POINT('', (-5., 3.36777869765522E-16, -0.5));
#57 = VERTEX_POINT('', #58);
#58 = CARTESIAN_POINT('', (-4.5, 2.75545529808154E-16, 0.));
#59 = LINE('', #60, #61);
#60 = CARTESIAN_POINT('', (-5., 3.36777869765522E-16, -0.5));
#61 = VECTOR('', #62, 0.707106781186548);
#62 = DIRECTION('', (0.5, -6.1232339957368E-17, 0.5));
#63 = ORIENTED_EDGE('', *, *, #64, .T.);
#64 = EDGE_CURVE('', #57, #57, #65, .T.);
#65 = CIRCLE('', #66, 4.5);
#66 = AXIS2_PLACEMENT_3D('', #67, #68, #69);
#67 = CARTESIAN_POINT('', (4.16333634234434E-16, 1.99840144432528E-15, 1.60237371373018E-31));
#68 = DIRECTION('', (1.21650827372764E-32, 6.12323399573677E-17, -1.));
#69 = DIRECTION('', (-1., -6.27786229722166E-16, -5.06059025761781E-32));
#70 = ORIENTED_EDGE('', *, *, #54, .F.);
#71 = ORIENTED_EDGE('', *, *, #72, .F.);
#72 = EDGE_CURVE('', #55, #55, #73, .T.);
#73 = CIRCLE('', #74, 5.);
#74 = AXIS2_PLACEMENT_3D('', #75, #76, #77);
#75 = CARTESIAN_POINT('', (3.33066907387547E-16, -2.22044604925031E-15, -0.5));
#76 = DIRECTION('', (0., 0., -1.));
#77 = DIRECTION('', (-1., 2.66515423973696E-16, 0.));
#78 = (
   BOUNDED_SURFACE ()
   B_SPLINE_SURFACE (1, 2, ((#79, #80, #81, #82, #83, #84, #85, #86, #87), (#88, #89, #90, #91, #92, #93, #94, #95, #96)), .UNSPECIFIED., .F., .T., .U.)
   B_SPLINE_SURFACE_WITH_KNOTS ((2, 2), (3, 2, 2, 2, 3), (0., 1.), (0., 0.25, 0.5, 0.75, 1.), .UNSPECIFIED.)
   GEOMETRIC_REPRESENTATION_ITEM ()
   RATIONAL_B_SPLINE_SURFACE (((1., 0.707106781186548, 1., 0.707106781186548, 1., 0.707106781186548, 1., 0.707106781186548, 1.), (1., 0.707106781186548, 1., 0.707106781186548, 1., 0.707106781186548, 1., 0.707106781186548, 1.)))
   REPRESENTATION_ITEM ('')
   SURFACE ()
);
#79 = CARTESIAN_POINT('', (-5., -2.69144046670109E-15, -0.5));
#80 = CARTESIAN_POINT('', (-5., 5., -0.50000000000003));
#81 = CARTESIAN_POINT('', (2.28983498828938E-15, 5., -0.50000000000003));
#82 = CARTESIAN_POINT('', (5., 5., -0.50000000000003));
#83 = CARTESIAN_POINT('', (5., -2.69144046670108E-15, -0.5));
#84 = CARTESIAN_POINT('', (5., -5., -0.49999999999997));
#85 = CARTESIAN_POINT('', (2.90215838786306E-15, -5., -0.49999999999997));
#86 = CARTESIAN_POINT('', (-5., -5., -0.49999999999997));
#87 = CARTESIAN_POINT('', (-5., -2.69144046670109E-15, -0.5));
#88 = CARTESIAN_POINT('', (-4.5, 2.75545529808154E-16, -5.47382212626882E-48));
#89 = CARTESIAN_POINT('', (-4.5, 4.5, -2.69784194983913E-14));
#90 = CARTESIAN_POINT('', (2.28983498828938E-15, 4.5, -2.69784194983913E-14));
#91 = CARTESIAN_POINT('', (4.5, 4.5, -2.69784194983913E-14));
#92 = CARTESIAN_POINT('', (4.5, 2.75545529808155E-16, -3.34088136340818E-30));
#93 = CARTESIAN_POINT('', (4.5, -4.5, 2.69784194983913E-14));
#94 = CARTESIAN_POINT('', (2.8409260479057E-15, -4.5, 2.69784194983913E-14));
#95 = CARTESIAN_POINT('', (-4.5, -4.5, 2.69784194983913E-14));
#96 = CARTESIAN_POINT('', (-4.5, 2.75545529808154E-16, -5.47382212626882E-48));
#97 = ADVANCED_FACE('', (#98), #101, .T.);
#98 = FACE_OUTER_BOUND('', #99, .T.);
#99 = EDGE_LOOP('', (#100));
#100 = ORIENTED_EDGE('', *, *, #64, .F.);
#101 = B_SPLINE_SURFACE_WITH_KNOTS('', 1, 1, ((#102, #103), (#104, #105)), .UNSPECIFIED., .F., .F., .U., (2, 2), (2, 2), (2.50035713374682, 11.5003571337468), (2.50035713374682, 11.5003571337468), .UNSPECIFIED.);
#102 = CARTESIAN_POINT('', (4.5, -4.5, -2.75545529808149E-16));
#103 = CARTESIAN_POINT('', (-4.5, -4.5, -1.44864002450102E-14));
#104 = CARTESIAN_POINT('', (4.5, 4.5, 1.44864002450102E-14));
#105 = CARTESIAN_POINT('', (-4.5, 4.5, 2.75545529808176E-16));
#106 = ADVANCED_FACE('', (#107), #118, .T.);
#107 = FACE_OUTER_BOUND('', #108, .T.);
#108 = EDGE_LOOP('', (#109, #115, #116, #117));
#109 = ORIENTED_EDGE('', *, *, #110, .T.);
#110 = EDGE_CURVE('', #8, #55, #111, .T.);
#111 = LINE('', #112, #113);
#112 = CARTESIAN_POINT('', (-5., 3.19632814577459E-15, -47.2));
#113 = VECTOR('', #114, 46.7);
#114 = DIRECTION('', (0., -2.85955027600907E-15, 46.7));
#115 = ORIENTED_EDGE('', *, *, #72, .T.);
#116 = ORIENTED_EDGE('', *, *, #110, .F.);
#117 = ORIENTED_EDGE('', *, *, #17, .F.);
#118 = (
   BOUNDED_SURFACE ()
   B_SPLINE_SURFACE (1, 2, ((#119, #120, #121, #122, #123, #124, #125, #126, #127), (#128, #129, #130, #131, #132, #133, #134, #135, #136)), .UNSPECIFIED., .F., .T., .U.)
   B_SPLINE_SURFACE_WITH_KNOTS ((2, 2), (3, 2, 2, 2, 3), (0., 1.), (0., 7.85398163397447, 15.7079632679489, 23.5619449019234, 31.4159265358979), .UNSPECIFIED.)
   GEOMETRIC_REPRESENTATION_ITEM ()
   RATIONAL_B_SPLINE_SURFACE (((1., 0.707106781186548, 1., 0.707106781186548, 1., 0.707106781186548, 1., 0.707106781186548, 1.), (1., 0.707106781186548, 1., 0.707106781186548, 1., 0.707106781186548, 1., 0.707106781186548, 1.)))
   REPRESENTATION_ITEM ('')
   SURFACE ()
);
#119 = CARTESIAN_POINT('', (-5., 3.0013131288659E-15, -47.2));
#120 = CARTESIAN_POINT('', (-5., 5., -47.2));
#121 = CARTESIAN_POINT('', (2.91719603400409E-15, 5., -47.2));
#122 = CARTESIAN_POINT('', (5., 5., -47.2));
#123 = CARTESIAN_POINT('', (5., -1.05672209974203E-15, -47.2));
#124 = CARTESIAN_POINT('', (5., -5., -47.2));
#125 = CARTESIAN_POINT('', (-5.28515795030162E-16, -5., -47.2));
#126 = CARTESIAN_POINT('', (-5., -5., -47.2));
#127 = CARTESIAN_POINT('', (-5., 3.0013131288659E-15, -47.2));
#128 = CARTESIAN_POINT('', (-5., 3.36777869765522E-16, -0.5));
#129 = CARTESIAN_POINT('', (-5., 5., -0.5));
#130 = CARTESIAN_POINT('', (2.91719603400409E-15, 5., -0.5));
#131 = CARTESIAN_POINT('', (5., 5., -0.5));
#132 = CARTESIAN_POINT('', (5., -3.72125735884241E-15, -0.5));
#133 = CARTESIAN_POINT('', (5., -5., -0.5));
#134 = CARTESIAN_POINT('', (-5.28515795030163E-16, -5., -0.5));
#135 = CARTESIAN_POINT('', (-5., -5., -0.5));
#136 = CARTESIAN_POINT('', (-5., 3.36777869765522E-16, -0.5));
#137 = ADVANCED_FACE('', (#138), #157, .T.);
#138 = FACE_OUTER_BOUND('', #139, .T.);
#139 = EDGE_LOOP('', (#140, #149, #155, #156));
#140 = ORIENTED_EDGE('', *, *, #141, .F.);
#141 = EDGE_CURVE('', #142, #142, #144, .T.);
#142 = VERTEX_POINT('', #143);
#143 = CARTESIAN_POINT('', (-3., 5.93953697586466E-15, -94.));
#144 = CIRCLE('', #145, 3.);
#145 = AXIS2_PLACEMENT_3D('', #146, #147, #148);
#146 = CARTESIAN_POINT('', (-3.7470027081099E-16, 7.27196081129478E-15, -94.));
#147 = DIRECTION('', (0., 0., -1.));
#148 = DIRECTION('', (-1., -4.44141278476705E-16, 0.));
#149 = ORIENTED_EDGE('', *, *, #150, .F.);
#150 = EDGE_CURVE('', #10, #142, #151, .T.);
#151 = LINE('', #152, #153);
#152 = CARTESIAN_POINT('', (-3., 5.8783046359073E-15, -93.));
#153 = VECTOR('', #154, 1.);
#154 = DIRECTION('', (0., 6.12323399573605E-17, -1.));
#155 = ORIENTED_EDGE('', *, *, #25, .T.);
#156 = ORIENTED_EDGE('', *, *, #150, .T.);
#157 = (
   BOUNDED_SURFACE ()
   B_SPLINE_SURFACE (2, 1, ((#158, #159), (#160, #161), (#162, #163), (#164, #165), (#166, #167), (#168, #169), (#170, #171), (#172, #173), (#174, #175)), .UNSPECIFIED., .T., .F., .U.)
   B_SPLINE_SURFACE_WITH_KNOTS ((3, 2, 2, 2, 3), (2, 2), (0., 4.7123889803847, 9.4247779607694, 14.1371669411541, 18.8495559215388), (0., 0.249999999999998), .UNSPECIFIED.)
   GEOMETRIC_REPRESENTATION_ITEM ()
   RATIONAL_B_SPLINE_SURFACE (((1., 1.), (0.707106781186548, 0.707106781186548), (1., 1.), (0.707106781186548, 0.707106781186548), (1., 1.), (0.707106781186548, 0.707106781186548), (1., 1.), (0.707106781186548, 0.707106781186548), (1., 1.)))
   REPRESENTATION_ITEM ('')
   SURFACE ()
);
#158 = CARTESIAN_POINT('', (-3., 5.8783046359073E-15, -93.));
#159 = CARTESIAN_POINT('', (-3., 6.04483808960107E-15, -94.));
#160 = CARTESIAN_POINT('', (-3., 3.00000000000001, -93.));
#161 = CARTESIAN_POINT('', (-3., 3.00000000000001, -94.));
#162 = CARTESIAN_POINT('', (-9.94486107331371E-16, 3.00000000000001, -93.));
#163 = CARTESIAN_POINT('', (-9.94486107331372E-16, 3.00000000000001, -94.));
#164 = CARTESIAN_POINT('', (3., 3.00000000000001, -93.));
#165 = CARTESIAN_POINT('', (3., 3.00000000000001, -94.));
#166 = CARTESIAN_POINT('', (3., 9.81016714366407E-15, -93.));
#167 = CARTESIAN_POINT('', (3., 9.97670059735784E-15, -94.));
#168 = CARTESIAN_POINT('', (3., -2.99999999999999, -93.));
#169 = CARTESIAN_POINT('', (3., -2.99999999999999, -94.));
#170 = CARTESIAN_POINT('', (3.3047704401696E-15, -2.99999999999999, -93.));
#171 = CARTESIAN_POINT('', (3.3047704401696E-15, -2.99999999999999, -94.));
#172 = CARTESIAN_POINT('', (-3., -2.99999999999999, -93.));
#173 = CARTESIAN_POINT('', (-3., -2.99999999999999, -94.));
#174 = CARTESIAN_POINT('', (-3., 5.8783046359073E-15, -93.));
#175 = CARTESIAN_POINT('', (-3., 6.04483808960107E-15, -94.));
#176 = ADVANCED_FACE('', (#177), #180, .T.);
#177 = FACE_OUTER_BOUND('', #178, .T.);
#178 = EDGE_LOOP('', (#179));
#179 = ORIENTED_EDGE('', *, *, #141, .T.);
#180 = B_SPLINE_SURFACE_WITH_KNOTS('', 1, 1, ((#181, #182), (#183, #184)), .UNSPECIFIED., .F., .F., .U., (2, 2), (2, 2), (102.395054824182, 108.395054824182), (93.5950514681816, 99.5950514681816), .UNSPECIFIED.);
#181 = CARTESIAN_POINT('', (-3., 3.00000000000001, -94.));
#182 = CARTESIAN_POINT('', (-3., -2.99999999999999, -94.));
#183 = CARTESIAN_POINT('', (3., 3.00000000000001, -94.));
#184 = CARTESIAN_POINT('', (3., -2.99999999999999, -94.));
#185 = DRAUGHTING_MODEL('', (#193, #301, #341, #346, #351, #356, #361), #375);
#186 = PRESENTATION_STYLE_ASSIGNMENT((#187));
#187 = SURFACE_STYLE_USAGE(.POSITIVE., #188);
#188 = SURFACE_SIDE_STYLE('', (#189));
#189 = SURFACE_STYLE_FILL_AREA(#190);
#190 = FILL_AREA_STYLE('', (#191));
#191 = FILL_AREA_STYLE_COLOUR('', #192);
#192 = COLOUR_RGB('', 0.50196078431373, 0.50196078431373, 0.50196078431373);
#193 = STYLED_ITEM('', (#186), #1);
#194 = MANIFOLD_SOLID_BREP('CUT', #195);
#195 = CLOSED_SHELL('', (#196, #213, #252));
#196 = ADVANCED_FACE('', (#197), #208, .T.);
#197 = FACE_OUTER_BOUND('', #198, .T.);
#198 = EDGE_LOOP('', (#199));
#199 = ORIENTED_EDGE('', *, *, #200, .F.);
#200 = EDGE_CURVE('', #201, #201, #203, .T.);
#201 = VERTEX_POINT('', #202);
#202 = CARTESIAN_POINT('', (-3., 5.93953697586466E-15, -94.));
#203 = CIRCLE('', #204, 3.);
#204 = AXIS2_PLACEMENT_3D('', #205, #206, #207);
#205 = CARTESIAN_POINT('', (-3.7470027081099E-16, 7.27196081129478E-15, -94.));
#206 = DIRECTION('', (0., 0., -1.));
#207 = DIRECTION('', (-1., -4.44141278476705E-16, 0.));
#208 = B_SPLINE_SURFACE_WITH_KNOTS('', 1, 1, ((#209, #210), (#211, #212)), .UNSPECIFIED., .F., .F., .U., (2, 2), (2, 2), (93.5950514681816, 99.5950514681816), (102.395054824182, 108.395054824182), .UNSPECIFIED.);
#209 = CARTESIAN_POINT('', (-3., 3.00000000000001, -94.));
#210 = CARTESIAN_POINT('', (3., 3.00000000000001, -94.));
#211 = CARTESIAN_POINT('', (-3., -2.99999999999999, -94.));
#212 = CARTESIAN_POINT('', (3., -2.99999999999999, -94.));
#213 = ADVANCED_FACE('', (#214), #233, .T.);
#214 = FACE_OUTER_BOUND('', #215, .T.);
#215 = EDGE_LOOP('', (#216, #217, #225, #232));
#216 = ORIENTED_EDGE('', *, *, #200, .T.);
#217 = ORIENTED_EDGE('', *, *, #218, .T.);
#218 = EDGE_CURVE('', #201, #219, #221, .T.);
#219 = VERTEX_POINT('', #220);
#220 = CARTESIAN_POINT('', (-3., 6.12323399573677E-15, -97.));
#221 = LINE('', #222, #223);
#222 = CARTESIAN_POINT('', (-3., 5.93953697586466E-15, -94.));
#223 = VECTOR('', #224, 3.);
#224 = DIRECTION('', (0., 1.8369701987211E-16, -3.));
#225 = ORIENTED_EDGE('', *, *, #226, .F.);
#226 = EDGE_CURVE('', #219, #219, #227, .T.);
#227 = CIRCLE('', #228, 3.);
#228 = AXIS2_PLACEMENT_3D('', #229, #230, #231);
#229 = CARTESIAN_POINT('', (-8.46545056276682E-16, 7.32747196252603E-15, -97.));
#230 = DIRECTION('', (0., 0., -1.));
#231 = DIRECTION('', (-1., -4.01412655596421E-16, 0.));
#232 = ORIENTED_EDGE('', *, *, #218, .F.);
#233 = (
   BOUNDED_SURFACE ()
   B_SPLINE_SURFACE (2, 1, ((#234, #235), (#236, #237), (#238, #239), (#240, #241), (#242, #243), (#244, #245), (#246, #247), (#248, #249), (#250, #251)), .UNSPECIFIED., .T., .F., .U.)
   B_SPLINE_SURFACE_WITH_KNOTS ((3, 2, 2, 2, 3), (2, 2), (0., 4.7123889803847, 9.4247779607694, 14.1371669411541, 18.8495559215388), (0.249999999999998, 1.), .UNSPECIFIED.)
   GEOMETRIC_REPRESENTATION_ITEM ()
   RATIONAL_B_SPLINE_SURFACE (((1., 1.), (0.707106781186548, 0.707106781186548), (1., 1.), (0.707106781186548, 0.707106781186548), (1., 1.), (0.707106781186548, 0.707106781186548), (1., 1.), (0.707106781186548, 0.707106781186548), (1., 1.)))
   REPRESENTATION_ITEM ('')
   SURFACE ()
);
#234 = CARTESIAN_POINT('', (-3., 5.93953697586466E-15, -94.));
#235 = CARTESIAN_POINT('', (-3., 5.99504812709592E-15, -97.));
#236 = CARTESIAN_POINT('', (-3., 3.00000000000001, -94.));
#237 = CARTESIAN_POINT('', (-3., 3.00000000000001, -97.));
#238 = CARTESIAN_POINT('', (1.87005936980451E-15, 3., -94.));
#239 = CARTESIAN_POINT('', (1.87005936980451E-15, 3., -97.));
#240 = CARTESIAN_POINT('', (3., 3., -94.));
#241 = CARTESIAN_POINT('', (3., 3., -97.));
#242 = CARTESIAN_POINT('', (3., 4.08679737811841E-15, -94.));
#243 = CARTESIAN_POINT('', (3., 4.14230852934967E-15, -97.));
#244 = CARTESIAN_POINT('', (3., -3., -94.));
#245 = CARTESIAN_POINT('', (3., -3., -97.));
#246 = CARTESIAN_POINT('', (3.84713811802464E-16, -3., -94.));
#247 = CARTESIAN_POINT('', (3.84713811802464E-16, -3., -97.));
#248 = CARTESIAN_POINT('', (-3., -2.99999999999999, -94.));
#249 = CARTESIAN_POINT('', (-3., -2.99999999999999, -97.));
#250 = CARTESIAN_POINT('', (-3., 5.93953697586466E-15, -94.));
#251 = CARTESIAN_POINT('', (-3., 5.99504812709592E-15, -97.));
#252 = ADVANCED_FACE('', (#253), #266, .T.);
#253 = FACE_OUTER_BOUND('', #254, .T.);
#254 = EDGE_LOOP('', (#255, #264, #265));
#255 = ORIENTED_EDGE('', *, *, #256, .F.);
#256 = EDGE_CURVE('', #219, #257, #259, .T.);
#257 = VERTEX_POINT('', #258);
#258 = CARTESIAN_POINT('', (5.51091059616309E-16, 6.12323399573677E-15, -100.));
#259 = CIRCLE('', #260, 3.00000000000001);
#260 = AXIS2_PLACEMENT_3D('', #261, #262, #263);
#261 = CARTESIAN_POINT('', (1.46549439250521E-14, 5.93953697586467E-15, -97.));
#262 = DIRECTION('', (-6.12323399573665E-17, -1., -6.12323399573664E-17));
#263 = DIRECTION('', (-1., 6.12323399573665E-17, 0.));
#264 = ORIENTED_EDGE('', *, *, #226, .T.);
#265 = ORIENTED_EDGE('', *, *, #256, .T.);
#266 = (
   BOUNDED_SURFACE ()
   B_SPLINE_SURFACE (2, 2, ((#267, #268, #269), (#270, #271, #272), (#273, #274, #275), (#276, #277, #278), (#279, #280, #281), (#282, #283, #284), (#285, #286, #287), (#288, #289, #290), (#291, #292, #293)), .UNSPECIFIED., .T., .F., .U.)
   B_SPLINE_SURFACE_WITH_KNOTS ((3, 2, 2, 2, 3), (3, 3), (0., 0.25, 0.5, 0.75, 1.), (0., 1.), .UNSPECIFIED.)
   GEOMETRIC_REPRESENTATION_ITEM ()
   RATIONAL_B_SPLINE_SURFACE (((1., 0.707106781186548, 1.), (0.707106781186548, 0.5, 0.707106781186548), (1., 0.707106781186548, 1.), (0.707106781186548, 0.5, 0.707106781186548), (1., 0.707106781186548, 1.), (0.707106781186548, 0.5, 0.707106781186548), (1., 0.707106781186548, 1.), (0.707106781186548, 0.5, 0.707106781186548), (1., 0.707106781186548, 1.)))
   REPRESENTATION_ITEM ('')
   SURFACE ()
);
#267 = CARTESIAN_POINT('', (-3., 6.12323399573677E-15, -97.));
#268 = CARTESIAN_POINT('', (-3., 6.30693101560887E-15, -100.));
#269 = CARTESIAN_POINT('', (5.51091059616309E-16, 6.12323399573677E-15, -100.));
#270 = CARTESIAN_POINT('', (-3., 2.99999999999999, -97.));
#271 = CARTESIAN_POINT('', (-3., 2.99999999999999, -100.));
#272 = CARTESIAN_POINT('', (5.51091059616309E-16, 6.12323399573677E-15, -100.));
#273 = CARTESIAN_POINT('', (-1.68753899743024E-14, 2.99999999999999, -97.));
#274 = CARTESIAN_POINT('', (-1.66916929544303E-14, 2.99999999999999, -100.));
#275 = CARTESIAN_POINT('', (5.51091059616309E-16, 6.12323399573677E-15, -100.));
#276 = CARTESIAN_POINT('', (2.99999999999997, 2.99999999999999, -97.));
#277 = CARTESIAN_POINT('', (2.99999999999997, 2.99999999999999, -100.));
#278 = CARTESIAN_POINT('', (5.51091059616309E-16, 6.12323399573677E-15, -100.));
#279 = CARTESIAN_POINT('', (2.99999999999997, 6.12323399573677E-15, -97.));
#280 = CARTESIAN_POINT('', (2.99999999999997, 5.93953697586467E-15, -100.));
#281 = CARTESIAN_POINT('', (5.51091059616309E-16, 6.12323399573677E-15, -100.));
#282 = CARTESIAN_POINT('', (2.99999999999997, -2.99999999999998, -97.));
#283 = CARTESIAN_POINT('', (2.99999999999997, -2.99999999999998, -100.));
#284 = CARTESIAN_POINT('', (5.51091059616309E-16, 6.12323399573677E-15, -100.));
#285 = CARTESIAN_POINT('', (-1.65079959345582E-14, -2.99999999999998, -97.));
#286 = CARTESIAN_POINT('', (-1.66916929544303E-14, -2.99999999999998, -100.));
#287 = CARTESIAN_POINT('', (5.51091059616309E-16, 6.12323399573677E-15, -100.));
#288 = CARTESIAN_POINT('', (-3., -2.99999999999998, -97.));
#289 = CARTESIAN_POINT('', (-3., -2.99999999999998, -100.));
#290 = CARTESIAN_POINT('', (5.51091059616309E-16, 6.12323399573677E-15, -100.));
#291 = CARTESIAN_POINT('', (-3., 6.12323399573677E-15, -97.));
#292 = CARTESIAN_POINT('', (-3., 6.30693101560887E-15, -100.));
#293 = CARTESIAN_POINT('', (5.51091059616309E-16, 6.12323399573677E-15, -100.));
#294 = PRESENTATION_STYLE_ASSIGNMENT((#295));
#295 = SURFACE_STYLE_USAGE(.POSITIVE., #296);
#296 = SURFACE_SIDE_STYLE('', (#297));
#297 = SURFACE_STYLE_FILL_AREA(#298);
#298 = FILL_AREA_STYLE('', (#299));
#299 = FILL_AREA_STYLE_COLOUR('', #300);
#300 = COLOUR_RGB('', 0.8, 0.8, 0.8);
#301 = STYLED_ITEM('', (#294), #194);
#302 = TRIMMED_CURVE('cutting part line', #303, (#307), (#308), .T., .CARTESIAN.);
#303 = LINE('', #304, #305);
#304 = CARTESIAN_POINT('', (-1.05733064677661E-30, -5.75583995599256E-15, -94.));
#305 = VECTOR('', #306, 3.);
#306 = DIRECTION('', (3., -5.51091059616307E-16, 0.));
#307 = CARTESIAN_POINT('', (-1.05733064677661E-30, -5.75583995599256E-15, -94.));
#308 = CARTESIAN_POINT('', (3., -6.30693101560887E-15, -94.));
#309 = TRIMMED_CURVE('cutting part line', #310, (#314), (#315), .T., .CARTESIAN.);
#310 = LINE('', #311, #312);
#311 = CARTESIAN_POINT('', (3., -6.30693101560887E-15, -94.));
#312 = VECTOR('', #313, 3.);
#313 = DIRECTION('', (0., -1.8369701987211E-16, -3.));
#314 = CARTESIAN_POINT('', (3., -6.30693101560887E-15, -94.));
#315 = CARTESIAN_POINT('', (3., -6.49062803548098E-15, -97.));
#316 = TRIMMED_CURVE('cutting part line', #317, (#322), (#323), .T., .CARTESIAN.);
#317 = CIRCLE('', #318, 3.00000000000001);
#318 = AXIS2_PLACEMENT_3D('', #319, #320, #321);
#319 = CARTESIAN_POINT('', (-1.33226762955019E-14, -5.93953697586467E-15, -97.));
#320 = DIRECTION('', (1.83697019872103E-16, 1., -6.12323399573672E-17));
#321 = DIRECTION('', (1., -1.83697019872103E-16, 0.));
#322 = CARTESIAN_POINT('', (2.99999999999999, -6.49062803548097E-15, -97.));
#323 = CARTESIAN_POINT('', (-4.82436794902966E-16, -6.12323399573677E-15, -100.));
#324 = TRIMMED_CURVE('cutting part line', #325, (#329), (#330), .T., .CARTESIAN.);
#325 = LINE('', #326, #327);
#326 = CARTESIAN_POINT('', (-1.12481983699639E-30, -6.12323399573677E-15, -100.));
#327 = VECTOR('', #328, 6.);
#328 = DIRECTION('', (6.74891902197832E-32, 3.6739403974421E-16, 6.));
#329 = CARTESIAN_POINT('', (-1.12481983699639E-30, -6.12323399573677E-15, -100.));
#330 = CARTESIAN_POINT('', (-1.05733064677661E-30, -5.75583995599256E-15, -94.));
#331 = COMPOSITE_CURVE('cutting part line', (#332, #333, #334, #335), .U.);
#332 = COMPOSITE_CURVE_SEGMENT(.CONTINUOUS., .T., #302);
#333 = COMPOSITE_CURVE_SEGMENT(.CONTINUOUS., .T., #309);
#334 = COMPOSITE_CURVE_SEGMENT(.CONTINUOUS., .T., #316);
#335 = COMPOSITE_CURVE_SEGMENT(.CONTINUOUS., .T., #324);
#336 = GEOMETRIC_SET('', (#331, #374));
#337 = PRESENTATION_STYLE_ASSIGNMENT((#338));
#338 = CURVE_STYLE('', #340, POSITIVE_LENGTH_MEASURE(1.E-6), #339);
#339 = COLOUR_RGB('', 0., 0., 1.);
#340 = DRAUGHTING_PRE_DEFINED_CURVE_FONT('continuous');
#341 = STYLED_ITEM('', (#337), #331);
#342 = PRESENTATION_STYLE_ASSIGNMENT((#343));
#343 = CURVE_STYLE('', #345, POSITIVE_LENGTH_MEASURE(1.E-6), #344);
#344 = COLOUR_RGB('', 0., 0., 1.);
#345 = DRAUGHTING_PRE_DEFINED_CURVE_FONT('continuous');
#346 = OVER_RIDING_STYLED_ITEM('', (#342), #302, #341);
#347 = PRESENTATION_STYLE_ASSIGNMENT((#348));
#348 = CURVE_STYLE('', #350, POSITIVE_LENGTH_MEASURE(1.E-6), #349);
#349 = COLOUR_RGB('', 0., 0., 1.);
#350 = DRAUGHTING_PRE_DEFINED_CURVE_FONT('continuous');
#351 = OVER_RIDING_STYLED_ITEM('', (#347), #309, #341);
#352 = PRESENTATION_STYLE_ASSIGNMENT((#353));
#353 = CURVE_STYLE('', #355, POSITIVE_LENGTH_MEASURE(1.E-6), #354);
#354 = COLOUR_RGB('', 0., 0., 1.);
#355 = DRAUGHTING_PRE_DEFINED_CURVE_FONT('continuous');
#356 = OVER_RIDING_STYLED_ITEM('', (#352), #316, #341);
#357 = PRESENTATION_STYLE_ASSIGNMENT((#358));
#358 = CURVE_STYLE('', #360, POSITIVE_LENGTH_MEASURE(1.E-6), #359);
#359 = COLOUR_RGB('', 0., 0., 1.);
#360 = DRAUGHTING_PRE_DEFINED_CURVE_FONT('continuous');
#361 = OVER_RIDING_STYLED_ITEM('', (#357), #324, #341);
#362 = AXIS2_PLACEMENT_3D('CIP', #363, #364, #365);
#363 = CARTESIAN_POINT('', (3.74939945665464E-31, 6.12323399573677E-15, -100.));
#364 = DIRECTION('', (-3.74939945665465E-33, -6.12323399573677E-17, 1.));
#365 = DIRECTION('', (1., -6.12323399573677E-17, 0.));
#366 = AXIS2_PLACEMENT_3D('MCS', #367, #368, #369);
#367 = CARTESIAN_POINT('', (1.49975978266186E-31, 2.44929359829471E-15, -40.));
#368 = DIRECTION('', (-3.74939945665465E-33, -6.12323399573677E-17, 1.));
#369 = DIRECTION('', (1., -6.12323399573677E-17, 0.));
#370 = AXIS2_PLACEMENT_3D('PCS', #371, #372, #373);
#371 = CARTESIAN_POINT('', (0., 0., 0.));
#372 = DIRECTION('', (0., 0., 1.));
#373 = DIRECTION('', (1., 0., 0.));
#374 = CARTESIAN_POINT('CRP', (3., 0., -100.));
#375 = (
   GEOMETRIC_REPRESENTATION_CONTEXT (3)
   GLOBAL_UNCERTAINTY_ASSIGNED_CONTEXT ((#377))
   GLOBAL_UNIT_ASSIGNED_CONTEXT ((#376, #378, #379))
   REPRESENTATION_CONTEXT ('', '3D')
);
#376 = (
   LENGTH_UNIT ()
   NAMED_UNIT (*)
   SI_UNIT (.MILLI., .METRE.)
);
#377 = UNCERTAINTY_MEASURE_WITH_UNIT(LENGTH_MEASURE(1.E-6), #376, 'DISTANCE_ACCURACY_VALUE', '');
#378 = (
   NAMED_UNIT (*)
   SI_UNIT ($, .STERADIAN.)
   SOLID_ANGLE_UNIT ()
);
#379 = (
   NAMED_UNIT (*)
   PLANE_ANGLE_UNIT ()
   SI_UNIT ($, .RADIAN.)
);
#380 = SHAPE_REPRESENTATION('', (), #375);
#381 = PRODUCT_DEFINITION_SHAPE('', '', #382);
#382 = PRODUCT_DEFINITION('', '', #385, #389);
#383 = APPLICATION_CONTEXT('configuration controlled 3D designs of mechanical parts and assemblies');
#384 = APPLICATION_PROTOCOL_DEFINITION('International Standard', 'automotive_design', 2002, #383);
#385 = PRODUCT_DEFINITION_FORMATION_WITH_SPECIFIED_SOURCE('', '', #386, .NOT_KNOWN.);
#386 = PRODUCT('EmptyName', 'EmptyName', '', (#387));
#387 = PRODUCT_CONTEXT('', #383, 'mechanical');
#388 = PRODUCT_RELATED_PRODUCT_CATEGORY('detail', '', (#386));
#389 = PRODUCT_DEFINITION_CONTEXT('part definition', #383, 'design');
#390 = SHAPE_DEFINITION_REPRESENTATION(#381, #380);
#391 = CONSTRUCTIVE_GEOMETRY_REPRESENTATION('supplemental geometry', (#362, #366, #370), #375);
#392 = CONSTRUCTIVE_GEOMETRY_REPRESENTATION_RELATIONSHIP('', '', #380, #391);
#393 = SHAPE_REPRESENTATION_RELATIONSHIP('', '', #380, #394);
#394 = SHAPE_REPRESENTATION('', (#336), #375);
#395 = SHAPE_REPRESENTATION_RELATIONSHIP('', '', #380, #396);
#396 = ADVANCED_BREP_SHAPE_REPRESENTATION('', (#1, #194), #375);
ENDSEC;
END-ISO-10303-21;
