ISO-10303-21;
HEADER;
FILE_DESCRIPTION(('STEP'), '1');
FILE_NAME('C:\\Users\\ds2002\\OneDrive - Sandvik\\HomeShare\\Documents\\Batchrepair\\CorSRT2\\NEW_MILBN_SLD\\Output3\\MOD000000000000000020084641800000.stp', '2018-11-27T13:11:55', (''), (''), 'Express v3.0.0.0', 'Express Tool', 'Unknown');
FILE_SCHEMA(('AUTOMOTIVE_DESIGN'));
ENDSEC;

DATA;
#1 = MANIFOLD_SOLID_BREP('NOCUT', #2);
#2 = CLOSED_SHELL('', (#3, #50, #89, #136, #145, #176));
#3 = ADVANCED_FACE('', (#4), #31, .T.);
#4 = FACE_OUTER_BOUND('', #5, .T.);
#5 = EDGE_LOOP('', (#6, #16, #23, #24));
#6 = ORIENTED_EDGE('', *, *, #7, .F.);
#7 = EDGE_CURVE('', #8, #10, #12, .T.);
#8 = VERTEX_POINT('', #9);
#9 = CARTESIAN_POINT('', (-2.6, 2.6238057671732E-15, -40.25));
#10 = VERTEX_POINT('', #11);
#11 = CARTESIAN_POINT('', (-1., 4.83735485663204E-15, -78.));
#12 = LINE('', #13, #14);
#13 = CARTESIAN_POINT('', (-2.6, 2.6238057671732E-15, -40.25));
#14 = VECTOR('', #15, 37.7838920705636);
#15 = DIRECTION('', (1.6, 2.21354908945884E-15, -37.75));
#16 = ORIENTED_EDGE('', *, *, #17, .T.);
#17 = EDGE_CURVE('', #8, #8, #18, .T.);
#18 = CIRCLE('', #19, 2.6);
#19 = AXIS2_PLACEMENT_3D('', #20, #21, #22);
#20 = CARTESIAN_POINT('', (-1.11022302462516E-16, 1.11022302462516E-16, -40.25));
#21 = DIRECTION('', (0., 0., -1.));
#22 = DIRECTION('', (-1., 9.66455178734879E-16, 0.));
#23 = ORIENTED_EDGE('', *, *, #7, .T.);
#24 = ORIENTED_EDGE('', *, *, #25, .F.);
#25 = EDGE_CURVE('', #10, #10, #26, .T.);
#26 = CIRCLE('', #27, 0.999999999999999);
#27 = AXIS2_PLACEMENT_3D('', #28, #29, #30);
#28 = CARTESIAN_POINT('', (-1.70002900645727E-16, 4.24660306919122E-15, -78.));
#29 = DIRECTION('', (0., 0., -1.));
#30 = DIRECTION('', (-1., 5.90751787440816E-16, 0.));
#31 = (
   BOUNDED_SURFACE ()
   B_SPLINE_SURFACE (2, 1, ((#32, #33), (#34, #35), (#36, #37), (#38, #39), (#40, #41), (#42, #43), (#44, #45), (#46, #47), (#48, #49)), .UNSPECIFIED., .T., .F., .U.)
   B_SPLINE_SURFACE_WITH_KNOTS ((3, 2, 2, 2, 3), (2, 2), (0., 0.25, 0.5, 0.75, 1.), (0., 1.), .UNSPECIFIED.)
   GEOMETRIC_REPRESENTATION_ITEM ()
   RATIONAL_B_SPLINE_SURFACE (((1., 1.), (0.707106781186548, 0.707106781186548), (1., 1.), (0.707106781186548, 0.707106781186548), (1., 1.), (0.707106781186548, 0.707106781186548), (1., 1.), (0.707106781186548, 0.707106781186548), (1., 1.)))
   REPRESENTATION_ITEM ('')
   SURFACE ()
);
#32 = CARTESIAN_POINT('', (-2.6, 2.6238057671732E-15, -40.25));
#33 = CARTESIAN_POINT('', (-0.999999999999999, 5.47993878269177E-15, -78.));
#34 = CARTESIAN_POINT('', (-2.6, 2.6, -40.25));
#35 = CARTESIAN_POINT('', (-0.999999999999999, 1., -78.));
#36 = CARTESIAN_POINT('', (5.91100329229093E-16, 2.6, -40.25));
#37 = CARTESIAN_POINT('', (2.70047166035233E-16, 1., -78.));
#38 = CARTESIAN_POINT('', (2.6, 2.6, -40.25));
#39 = CARTESIAN_POINT('', (0.999999999999999, 1., -78.));
#40 = CARTESIAN_POINT('', (2.6, 1.58038298679316E-15, -40.25));
#41 = CARTESIAN_POINT('', (0.999999999999999, 5.07862232869944E-15, -78.));
#42 = CARTESIAN_POINT('', (2.6, -2.6, -40.25));
#43 = CARTESIAN_POINT('', (0.999999999999999, -0.999999999999994, -78.));
#44 = CARTESIAN_POINT('', (-1.33914283372636E-16, -2.6, -40.25));
#45 = CARTESIAN_POINT('', (-8.804608042352E-18, -0.999999999999994, -78.));
#46 = CARTESIAN_POINT('', (-2.6, -2.6, -40.25));
#47 = CARTESIAN_POINT('', (-0.999999999999999, -0.999999999999994, -78.));
#48 = CARTESIAN_POINT('', (-2.6, 2.6238057671732E-15, -40.25));
#49 = CARTESIAN_POINT('', (-0.999999999999999, 5.47993878269177E-15, -78.));
#50 = ADVANCED_FACE('', (#51), #70, .T.);
#51 = FACE_OUTER_BOUND('', #52, .T.);
#52 = EDGE_LOOP('', (#53, #61, #68, #69));
#53 = ORIENTED_EDGE('', *, *, #54, .F.);
#54 = EDGE_CURVE('', #55, #8, #57, .T.);
#55 = VERTEX_POINT('', #56);
#56 = CARTESIAN_POINT('', (-3., 2.51052593825207E-15, -38.));
#57 = LINE('', #58, #59);
#58 = CARTESIAN_POINT('', (-3., 2.51052593825207E-15, -38.));
#59 = VECTOR('', #60, 2.28527897640529);
#60 = DIRECTION('', (0.4, 1.1327982892113E-16, -2.25));
#61 = ORIENTED_EDGE('', *, *, #62, .T.);
#62 = EDGE_CURVE('', #55, #55, #63, .T.);
#63 = CIRCLE('', #64, 3.);
#64 = AXIS2_PLACEMENT_3D('', #65, #66, #67);
#65 = CARTESIAN_POINT('', (-7.21644966006352E-16, 8.32667268468867E-16, -38.));
#66 = DIRECTION('', (0., 0., -1.));
#67 = DIRECTION('', (-1., 5.59286223261068E-16, 0.));
#68 = ORIENTED_EDGE('', *, *, #54, .T.);
#69 = ORIENTED_EDGE('', *, *, #17, .F.);
#70 = (
   BOUNDED_SURFACE ()
   B_SPLINE_SURFACE (2, 1, ((#71, #72), (#73, #74), (#75, #76), (#77, #78), (#79, #80), (#81, #82), (#83, #84), (#85, #86), (#87, #88)), .UNSPECIFIED., .T., .F., .U.)
   B_SPLINE_SURFACE_WITH_KNOTS ((3, 2, 2, 2, 3), (2, 2), (0., 0.25, 0.5, 0.75, 1.), (0., 1.), .UNSPECIFIED.)
   GEOMETRIC_REPRESENTATION_ITEM ()
   RATIONAL_B_SPLINE_SURFACE (((1., 1.), (0.707106781186548, 0.707106781186548), (1., 1.), (0.707106781186548, 0.707106781186548), (1., 1.), (0.707106781186548, 0.707106781186548), (1., 1.), (0.707106781186548, 0.707106781186548), (1., 1.)))
   REPRESENTATION_ITEM ('')
   SURFACE ()
);
#71 = CARTESIAN_POINT('', (-3., 2.51052593825207E-15, -38.));
#72 = CARTESIAN_POINT('', (-2.6, 2.43484118556433E-15, -40.25));
#73 = CARTESIAN_POINT('', (-3., 3., -38.));
#74 = CARTESIAN_POINT('', (-2.6, 2.6, -40.25));
#75 = CARTESIAN_POINT('', (6.19861018018789E-16, 3., -38.));
#76 = CARTESIAN_POINT('', (5.68669201313997E-16, 2.6, -40.25));
#77 = CARTESIAN_POINT('', (3., 3., -38.));
#78 = CARTESIAN_POINT('', (2.6, 2.6, -40.25));
#79 = CARTESIAN_POINT('', (3., 1.74264868768018E-15, -38.));
#80 = CARTESIAN_POINT('', (2.6, 1.76934756840203E-15, -40.25));
#81 = CARTESIAN_POINT('', (3., -3., -38.));
#82 = CARTESIAN_POINT('', (2.6, -2.6, -40.25));
#83 = CARTESIAN_POINT('', (2.19377807191109E-16, -3., -38.));
#84 = CARTESIAN_POINT('', (2.21583751930007E-16, -2.6, -40.25));
#85 = CARTESIAN_POINT('', (-3., -3., -38.));
#86 = CARTESIAN_POINT('', (-2.6, -2.6, -40.25));
#87 = CARTESIAN_POINT('', (-3., 2.51052593825207E-15, -38.));
#88 = CARTESIAN_POINT('', (-2.6, 2.43484118556433E-15, -40.25));
#89 = ADVANCED_FACE('', (#90), #117, .T.);
#90 = FACE_OUTER_BOUND('', #91, .T.);
#91 = EDGE_LOOP('', (#92, #102, #109, #110));
#92 = ORIENTED_EDGE('', *, *, #93, .T.);
#93 = EDGE_CURVE('', #94, #96, #98, .T.);
#94 = VERTEX_POINT('', #95);
#95 = CARTESIAN_POINT('', (-3., 2.02066721859313E-16, -0.299999999999997));
#96 = VERTEX_POINT('', #97);
#97 = CARTESIAN_POINT('', (-2.7, 1.65327317884893E-16, 0.));
#98 = LINE('', #99, #100);
#99 = CARTESIAN_POINT('', (-3., 2.02066721859313E-16, -0.299999999999997));
#100 = VECTOR('', #101, 0.424264068711926);
#101 = DIRECTION('', (0.3, -3.673940397442E-17, 0.299999999999997));
#102 = ORIENTED_EDGE('', *, *, #103, .T.);
#103 = EDGE_CURVE('', #96, #96, #104, .T.);
#104 = CIRCLE('', #105, 2.7);
#105 = AXIS2_PLACEMENT_3D('', #106, #107, #108);
#106 = CARTESIAN_POINT('', (6.24500451351651E-17, -1.88737914186277E-15, -1.07852076885685E-31));
#107 = DIRECTION('', (6.60738625565492E-33, 6.12323399573678E-17, -1.));
#108 = DIRECTION('', (-1., 7.60261651758392E-16, 3.99452136613649E-32));
#109 = ORIENTED_EDGE('', *, *, #93, .F.);
#110 = ORIENTED_EDGE('', *, *, #111, .F.);
#111 = EDGE_CURVE('', #94, #94, #112, .T.);
#112 = CIRCLE('', #113, 3.);
#113 = AXIS2_PLACEMENT_3D('', #114, #115, #116);
#114 = CARTESIAN_POINT('', (-8.32667268468867E-16, 1.66533453693773E-16, -0.299999999999997));
#115 = DIRECTION('', (7.45939217764516E-34, 6.29780982393227E-17, -1.));
#116 = DIRECTION('', (-1., 1.18444227218465E-17, 0.));
#117 = (
   BOUNDED_SURFACE ()
   B_SPLINE_SURFACE (1, 2, ((#118, #119, #120, #121, #122, #123, #124, #125, #126), (#127, #128, #129, #130, #131, #132, #133, #134, #135)), .UNSPECIFIED., .F., .T., .U.)
   B_SPLINE_SURFACE_WITH_KNOTS ((2, 2), (3, 2, 2, 2, 3), (0., 1.), (0., 0.25, 0.5, 0.75, 1.), .UNSPECIFIED.)
   GEOMETRIC_REPRESENTATION_ITEM ()
   RATIONAL_B_SPLINE_SURFACE (((1., 0.707106781186548, 1., 0.707106781186548, 1., 0.707106781186548, 1., 0.707106781186548, 1.), (1., 0.707106781186548, 1., 0.707106781186548, 1., 0.707106781186548, 1., 0.707106781186548, 1.)))
   REPRESENTATION_ITEM ('')
   SURFACE ()
);
#118 = CARTESIAN_POINT('', (-3., 1.49129302665284E-15, -0.299999999999997));
#119 = CARTESIAN_POINT('', (-3., 3., -0.299999999999985));
#120 = CARTESIAN_POINT('', (2.34149119846292E-15, 3., -0.299999999999985));
#121 = CARTESIAN_POINT('', (3., 3., -0.299999999999985));
#122 = CARTESIAN_POINT('', (3., -1.34594359183367E-15, -0.299999999999997));
#123 = CARTESIAN_POINT('', (3., -3., -0.300000000000009));
#124 = CARTESIAN_POINT('', (-1.28351380279387E-16, -3., -0.300000000000009));
#125 = CARTESIAN_POINT('', (-3., -3., -0.300000000000009));
#126 = CARTESIAN_POINT('', (-3., 1.49129302665284E-15, -0.299999999999997));
#127 = CARTESIAN_POINT('', (-2.7, 1.65327317884893E-16, -2.18952885050753E-47));
#128 = CARTESIAN_POINT('', (-2.7, 2.7, 1.04916075827078E-14));
#129 = CARTESIAN_POINT('', (2.19962936753859E-15, 2.7, 1.04916075827078E-14));
#130 = CARTESIAN_POINT('', (2.7, 2.7, 1.04916075827078E-14));
#131 = CARTESIAN_POINT('', (2.7, -2.38818563875297E-15, 1.12461399303431E-30));
#132 = CARTESIAN_POINT('', (2.7, -2.7, -1.04916075827078E-14));
#133 = CARTESIAN_POINT('', (-2.32289533294833E-17, -2.7, -1.04916075827078E-14));
#134 = CARTESIAN_POINT('', (-2.7, -2.7, -1.04916075827078E-14));
#135 = CARTESIAN_POINT('', (-2.7, 1.65327317884893E-16, -2.18952885050753E-47));
#136 = ADVANCED_FACE('', (#137), #140, .T.);
#137 = FACE_OUTER_BOUND('', #138, .T.);
#138 = EDGE_LOOP('', (#139));
#139 = ORIENTED_EDGE('', *, *, #103, .F.);
#140 = B_SPLINE_SURFACE_WITH_KNOTS('', 1, 1, ((#141, #142), (#143, #144)), .UNSPECIFIED., .F., .F., .U., (2, 2), (2, 2), (1.50021428024809, 6.90021428024809), (1.50021428024809, 6.90021428024809), .UNSPECIFIED.);
#141 = CARTESIAN_POINT('', (2.7, -2.7, 6.94010003971609E-15));
#142 = CARTESIAN_POINT('', (-2.7, -2.7, -7.27075467548589E-15));
#143 = CARTESIAN_POINT('', (2.7, 2.7, 7.27075467548587E-15));
#144 = CARTESIAN_POINT('', (-2.7, 2.7, -6.9401000397161E-15));
#145 = ADVANCED_FACE('', (#146), #157, .T.);
#146 = FACE_OUTER_BOUND('', #147, .T.);
#147 = EDGE_LOOP('', (#148, #154, #155, #156));
#148 = ORIENTED_EDGE('', *, *, #149, .T.);
#149 = EDGE_CURVE('', #55, #94, #150, .T.);
#150 = LINE('', #151, #152);
#151 = CARTESIAN_POINT('', (-3., 2.51052593825207E-15, -38.));
#152 = VECTOR('', #153, 37.7);
#153 = DIRECTION('', (0., -2.30845921639276E-15, 37.7));
#154 = ORIENTED_EDGE('', *, *, #111, .T.);
#155 = ORIENTED_EDGE('', *, *, #149, .F.);
#156 = ORIENTED_EDGE('', *, *, #62, .F.);
#157 = (
   BOUNDED_SURFACE ()
   B_SPLINE_SURFACE (1, 2, ((#158, #159, #160, #161, #162, #163, #164, #165, #166), (#167, #168, #169, #170, #171, #172, #173, #174, #175)), .UNSPECIFIED., .F., .T., .U.)
   B_SPLINE_SURFACE_WITH_KNOTS ((2, 2), (3, 2, 2, 2, 3), (0., 1.), (0., 4.7123889803847, 9.4247779607694, 14.1371669411541, 18.8495559215388), .UNSPECIFIED.)
   GEOMETRIC_REPRESENTATION_ITEM ()
   RATIONAL_B_SPLINE_SURFACE (((1., 0.707106781186548, 1., 0.707106781186548, 1., 0.707106781186548, 1., 0.707106781186548, 1.), (1., 0.707106781186548, 1., 0.707106781186548, 1., 0.707106781186548, 1., 0.707106781186548, 1.)))
   REPRESENTATION_ITEM ('')
   SURFACE ()
);
#158 = CARTESIAN_POINT('', (-3., 2.20046816618459E-15, -38.));
#159 = CARTESIAN_POINT('', (-3., 3., -38.));
#160 = CARTESIAN_POINT('', (2.55430412740184E-15, 3., -38.));
#161 = CARTESIAN_POINT('', (3., 3., -38.));
#162 = CARTESIAN_POINT('', (3., -1.61102952151536E-15, -38.));
#163 = CARTESIAN_POINT('', (3., -3., -38.));
#164 = CARTESIAN_POINT('', (-8.89799520553906E-16, -3., -38.));
#165 = CARTESIAN_POINT('', (-3., -3., -38.));
#166 = CARTESIAN_POINT('', (-3., 2.20046816618459E-15, -38.));
#167 = CARTESIAN_POINT('', (-3., 2.02066721859312E-16, -0.299999999999997));
#168 = CARTESIAN_POINT('', (-3., 3., -0.299999999999997));
#169 = CARTESIAN_POINT('', (3.25189426120798E-15, 3., -0.299999999999997));
#170 = CARTESIAN_POINT('', (3., 3., -0.299999999999997));
#171 = CARTESIAN_POINT('', (3., -3.60943096584064E-15, -0.299999999999997));
#172 = CARTESIAN_POINT('', (3., -3., -0.299999999999997));
#173 = CARTESIAN_POINT('', (-1.92209386747767E-16, -3., -0.299999999999997));
#174 = CARTESIAN_POINT('', (-3., -3., -0.299999999999997));
#175 = CARTESIAN_POINT('', (-3., 2.02066721859312E-16, -0.299999999999997));
#176 = ADVANCED_FACE('', (#177), #180, .T.);
#177 = FACE_OUTER_BOUND('', #178, .T.);
#178 = EDGE_LOOP('', (#179));
#179 = ORIENTED_EDGE('', *, *, #25, .T.);
#180 = B_SPLINE_SURFACE_WITH_KNOTS('', 1, 1, ((#181, #182), (#183, #184)), .UNSPECIFIED., .F., .F., .U., (2, 2), (2, 2), (82.2987468550195, 84.2987468550195), (76.5987431937696, 78.5987431937696), .UNSPECIFIED.);
#181 = CARTESIAN_POINT('', (-0.999999999999994, 1., -78.));
#182 = CARTESIAN_POINT('', (-0.999999999999995, -1., -78.));
#183 = CARTESIAN_POINT('', (1.00000000000001, 1., -78.));
#184 = CARTESIAN_POINT('', (1.00000000000001, -1., -78.));
#185 = DRAUGHTING_MODEL('', (#193, #301, #341, #346, #351, #356, #361), #375);
#186 = PRESENTATION_STYLE_ASSIGNMENT((#187));
#187 = SURFACE_STYLE_USAGE(.POSITIVE., #188);
#188 = SURFACE_SIDE_STYLE('', (#189));
#189 = SURFACE_STYLE_FILL_AREA(#190);
#190 = FILL_AREA_STYLE('', (#191));
#191 = FILL_AREA_STYLE_COLOUR('', #192);
#192 = COLOUR_RGB('', 0.50196078431373, 0.50196078431373, 0.50196078431373);
#193 = STYLED_ITEM('', (#186), #1);
#194 = MANIFOLD_SOLID_BREP('CUT', #195);
#195 = CLOSED_SHELL('', (#196, #213, #252));
#196 = ADVANCED_FACE('', (#197), #208, .T.);
#197 = FACE_OUTER_BOUND('', #198, .T.);
#198 = EDGE_LOOP('', (#199));
#199 = ORIENTED_EDGE('', *, *, #200, .F.);
#200 = EDGE_CURVE('', #201, #201, #203, .T.);
#201 = VERTEX_POINT('', #202);
#202 = CARTESIAN_POINT('', (-1., 4.83735485663205E-15, -78.));
#203 = CIRCLE('', #204, 0.999999999999999);
#204 = AXIS2_PLACEMENT_3D('', #205, #206, #207);
#205 = CARTESIAN_POINT('', (-1.70002900645727E-16, 4.24660306919122E-15, -78.));
#206 = DIRECTION('', (0., 0., -1.));
#207 = DIRECTION('', (-1., 5.90751787440827E-16, 0.));
#208 = B_SPLINE_SURFACE_WITH_KNOTS('', 1, 1, ((#209, #210), (#211, #212)), .UNSPECIFIED., .F., .F., .U., (2, 2), (2, 2), (76.5987431937696, 78.5987431937696), (82.2987468550195, 84.2987468550195), .UNSPECIFIED.);
#209 = CARTESIAN_POINT('', (-1., 0.999999999999995, -78.));
#210 = CARTESIAN_POINT('', (1., 0.999999999999995, -78.));
#211 = CARTESIAN_POINT('', (-1., -1., -78.));
#212 = CARTESIAN_POINT('', (1., -1., -78.));
#213 = ADVANCED_FACE('', (#214), #233, .T.);
#214 = FACE_OUTER_BOUND('', #215, .T.);
#215 = EDGE_LOOP('', (#216, #224, #225, #226));
#216 = ORIENTED_EDGE('', *, *, #217, .F.);
#217 = EDGE_CURVE('', #201, #218, #220, .T.);
#218 = VERTEX_POINT('', #219);
#219 = CARTESIAN_POINT('', (-1., 4.89858719658941E-15, -79.));
#220 = LINE('', #221, #222);
#221 = CARTESIAN_POINT('', (-1., 4.83735485663205E-15, -78.));
#222 = VECTOR('', #223, 1.);
#223 = DIRECTION('', (0., 6.12323399573597E-17, -1.));
#224 = ORIENTED_EDGE('', *, *, #200, .T.);
#225 = ORIENTED_EDGE('', *, *, #217, .T.);
#226 = ORIENTED_EDGE('', *, *, #227, .F.);
#227 = EDGE_CURVE('', #218, #218, #228, .T.);
#228 = CIRCLE('', #229, 0.999999999999999);
#229 = AXIS2_PLACEMENT_3D('', #230, #231, #232);
#230 = CARTESIAN_POINT('', (-2.81025203108243E-16, 4.9960036108132E-15, -79.));
#231 = DIRECTION('', (0., 0., -1.));
#232 = DIRECTION('', (-1., -9.74164142237946E-17, 0.));
#233 = (
   BOUNDED_SURFACE ()
   B_SPLINE_SURFACE (2, 1, ((#234, #235), (#236, #237), (#238, #239), (#240, #241), (#242, #243), (#244, #245), (#246, #247), (#248, #249), (#250, #251)), .UNSPECIFIED., .T., .F., .U.)
   B_SPLINE_SURFACE_WITH_KNOTS ((3, 2, 2, 2, 3), (2, 2), (0., 1.5707963267949, 3.1415926535898, 4.71238898038469, 6.28318530717959), (0., 1.), .UNSPECIFIED.)
   GEOMETRIC_REPRESENTATION_ITEM ()
   RATIONAL_B_SPLINE_SURFACE (((1., 1.), (0.707106781186548, 0.707106781186548), (1., 1.), (0.707106781186548, 0.707106781186548), (1., 1.), (0.707106781186548, 0.707106781186548), (1., 1.), (0.707106781186548, 0.707106781186548), (1., 1.)))
   REPRESENTATION_ITEM ('')
   SURFACE ()
);
#234 = CARTESIAN_POINT('', (-0.999999999999999, 4.83735485663205E-15, -78.));
#235 = CARTESIAN_POINT('', (-0.999999999999999, 5.58675539825403E-15, -79.));
#236 = CARTESIAN_POINT('', (-0.999999999999998, 1., -78.));
#237 = CARTESIAN_POINT('', (-0.999999999999998, 1., -79.));
#238 = CARTESIAN_POINT('', (3.59516546837731E-16, 1., -78.));
#239 = CARTESIAN_POINT('', (3.59516546837731E-16, 1., -79.));
#240 = CARTESIAN_POINT('', (0.999999999999999, 1., -78.));
#241 = CARTESIAN_POINT('', (0.999999999999999, 1., -79.));
#242 = CARTESIAN_POINT('', (0.999999999999999, 3.77831596166513E-15, -78.));
#243 = CARTESIAN_POINT('', (0.999999999999999, 4.52771650328711E-15, -79.));
#244 = CARTESIAN_POINT('', (0.999999999999998, -0.999999999999995, -78.));
#245 = CARTESIAN_POINT('', (0.999999999999998, -0.999999999999994, -79.));
#246 = CARTESIAN_POINT('', (-5.7705766821445E-16, -0.999999999999995, -78.));
#247 = CARTESIAN_POINT('', (-5.7705766821445E-16, -0.999999999999994, -79.));
#248 = CARTESIAN_POINT('', (-0.999999999999999, -0.999999999999994, -78.));
#249 = CARTESIAN_POINT('', (-0.999999999999999, -0.999999999999993, -79.));
#250 = CARTESIAN_POINT('', (-0.999999999999999, 4.83735485663205E-15, -78.));
#251 = CARTESIAN_POINT('', (-0.999999999999999, 5.58675539825403E-15, -79.));
#252 = ADVANCED_FACE('', (#253), #266, .T.);
#253 = FACE_OUTER_BOUND('', #254, .T.);
#254 = EDGE_LOOP('', (#255, #264, #265));
#255 = ORIENTED_EDGE('', *, *, #256, .F.);
#256 = EDGE_CURVE('', #218, #257, #259, .T.);
#257 = VERTEX_POINT('', #258);
#258 = CARTESIAN_POINT('', (2.94719322334619E-16, 4.89858719658941E-15, -80.));
#259 = CIRCLE('', #260, 0.999999999999995);
#260 = AXIS2_PLACEMENT_3D('', #261, #262, #263);
#261 = CARTESIAN_POINT('', (5.77315972805081E-15, 4.83735485663204E-15, -79.));
#262 = DIRECTION('', (-6.123233995737E-17, -1., -6.12323399573691E-17));
#263 = DIRECTION('', (-1., 6.12323399573691E-17, 1.4210854715202E-14));
#264 = ORIENTED_EDGE('', *, *, #227, .T.);
#265 = ORIENTED_EDGE('', *, *, #256, .T.);
#266 = (
   BOUNDED_SURFACE ()
   B_SPLINE_SURFACE (2, 2, ((#267, #268, #269), (#270, #271, #272), (#273, #274, #275), (#276, #277, #278), (#279, #280, #281), (#282, #283, #284), (#285, #286, #287), (#288, #289, #290), (#291, #292, #293)), .UNSPECIFIED., .T., .F., .U.)
   B_SPLINE_SURFACE_WITH_KNOTS ((3, 2, 2, 2, 3), (3, 3), (0., 0.25, 0.5, 0.75, 1.), (0., 1.), .UNSPECIFIED.)
   GEOMETRIC_REPRESENTATION_ITEM ()
   RATIONAL_B_SPLINE_SURFACE (((1., 0.707106781186548, 1.), (0.707106781186548, 0.5, 0.707106781186548), (1., 0.707106781186548, 1.), (0.707106781186548, 0.5, 0.707106781186548), (1., 0.707106781186548, 1.), (0.707106781186548, 0.5, 0.707106781186548), (1., 0.707106781186548, 1.), (0.707106781186548, 0.5, 0.707106781186548), (1., 0.707106781186548, 1.)))
   REPRESENTATION_ITEM ('')
   SURFACE ()
);
#267 = CARTESIAN_POINT('', (-1., 4.89858719658941E-15, -79.));
#268 = CARTESIAN_POINT('', (-1., 4.95981953654678E-15, -80.));
#269 = CARTESIAN_POINT('', (2.94719322334619E-16, 4.89858719658941E-15, -80.));
#270 = CARTESIAN_POINT('', (-1., 1.00000000000002, -79.));
#271 = CARTESIAN_POINT('', (-1.00000000000005, 1., -80.));
#272 = CARTESIAN_POINT('', (2.94719322334619E-16, 4.89858719658941E-15, -80.));
#273 = CARTESIAN_POINT('', (1.32116539930392E-14, 1.00000000000002, -79.));
#274 = CARTESIAN_POINT('', (-4.71703775342178E-14, 1.00000000000005, -80.));
#275 = CARTESIAN_POINT('', (2.94719322334619E-16, 4.89858719658941E-15, -80.));
#276 = CARTESIAN_POINT('', (1.00000000000003, 1.00000000000002, -79.));
#277 = CARTESIAN_POINT('', (0.999999999999952, 1.0000000000001, -80.));
#278 = CARTESIAN_POINT('', (2.94719322334619E-16, 4.89858719658941E-15, -80.));
#279 = CARTESIAN_POINT('', (1.00000000000003, 4.89858719659071E-15, -79.));
#280 = CARTESIAN_POINT('', (0.999999999999998, 9.7302173160658E-14, -80.));
#281 = CARTESIAN_POINT('', (2.94719322334619E-16, 4.89858719658941E-15, -80.));
#282 = CARTESIAN_POINT('', (1.00000000000003, -1.00000000000001, -79.0000000000001));
#283 = CARTESIAN_POINT('', (1.00000000000004, -0.999999999999902, -80.0000000000001));
#284 = CARTESIAN_POINT('', (2.94719322334619E-16, 4.89858719658941E-15, -80.));
#285 = CARTESIAN_POINT('', (1.33341186729539E-14, -1.00000000000001, -79.0000000000001));
#286 = CARTESIAN_POINT('', (4.52944407698068E-14, -0.999999999999948, -80.0000000000001));
#287 = CARTESIAN_POINT('', (2.94719322334619E-16, 4.89858719658941E-15, -80.));
#288 = CARTESIAN_POINT('', (-1., -1.00000000000001, -79.));
#289 = CARTESIAN_POINT('', (-0.999999999999953, -0.999999999999994, -80.));
#290 = CARTESIAN_POINT('', (2.94719322334619E-16, 4.89858719658941E-15, -80.));
#291 = CARTESIAN_POINT('', (-1., 4.89858719658941E-15, -79.));
#292 = CARTESIAN_POINT('', (-1., 4.95981953654678E-15, -80.));
#293 = CARTESIAN_POINT('', (2.94719322334619E-16, 4.89858719658941E-15, -80.));
#294 = PRESENTATION_STYLE_ASSIGNMENT((#295));
#295 = SURFACE_STYLE_USAGE(.POSITIVE., #296);
#296 = SURFACE_SIDE_STYLE('', (#297));
#297 = SURFACE_STYLE_FILL_AREA(#298);
#298 = FILL_AREA_STYLE('', (#299));
#299 = FILL_AREA_STYLE_COLOUR('', #300);
#300 = COLOUR_RGB('', 0.8, 0.8, 0.8);
#301 = STYLED_ITEM('', (#294), #194);
#302 = TRIMMED_CURVE('cutting part line', #303, (#307), (#308), .T., .CARTESIAN.);
#303 = LINE('', #304, #305);
#304 = CARTESIAN_POINT('', (-8.77359472857187E-31, -4.77612251667468E-15, -78.));
#305 = VECTOR('', #306, 1.);
#306 = DIRECTION('', (1., -1.83697019872105E-16, 0.));
#307 = CARTESIAN_POINT('', (-8.77359472857187E-31, -4.77612251667468E-15, -78.));
#308 = CARTESIAN_POINT('', (1., -4.95981953654679E-15, -78.));
#309 = TRIMMED_CURVE('cutting part line', #310, (#314), (#315), .T., .CARTESIAN.);
#310 = LINE('', #311, #312);
#311 = CARTESIAN_POINT('', (1., -4.95981953654679E-15, -78.));
#312 = VECTOR('', #313, 1.);
#313 = DIRECTION('', (0., -6.12323399573597E-17, -1.));
#314 = CARTESIAN_POINT('', (1., -4.95981953654679E-15, -78.));
#315 = CARTESIAN_POINT('', (1., -5.02105187650415E-15, -79.));
#316 = TRIMMED_CURVE('cutting part line', #317, (#322), (#323), .T., .CARTESIAN.);
#317 = CIRCLE('', #318, 0.999999999999979);
#318 = AXIS2_PLACEMENT_3D('', #319, #320, #321);
#319 = CARTESIAN_POINT('', (1.47659662275146E-14, -4.83735485663205E-15, -79.));
#320 = DIRECTION('', (1.83697019872101E-16, 1., -6.12323399573668E-17));
#321 = DIRECTION('', (1., -1.836970198721E-16, 1.42108547152022E-14));
#322 = CARTESIAN_POINT('', (0.999999999999994, -5.02105187650414E-15, -79.));
#323 = CARTESIAN_POINT('', (-7.15923777279707E-16, -4.89858719658941E-15, -80.));
#324 = TRIMMED_CURVE('cutting part line', #325, (#329), (#330), .T., .CARTESIAN.);
#325 = LINE('', #326, #327);
#326 = CARTESIAN_POINT('', (-8.99855869597115E-31, -4.89858719658941E-15, -80.));
#327 = VECTOR('', #328, 2.);
#328 = DIRECTION('', (2.24963967399279E-32, 1.2246467991473E-16, 2.));
#329 = CARTESIAN_POINT('', (-8.99855869597115E-31, -4.89858719658941E-15, -80.));
#330 = CARTESIAN_POINT('', (-8.77359472857187E-31, -4.77612251667468E-15, -78.));
#331 = COMPOSITE_CURVE('cutting part line', (#332, #333, #334, #335), .U.);
#332 = COMPOSITE_CURVE_SEGMENT(.CONTINUOUS., .T., #302);
#333 = COMPOSITE_CURVE_SEGMENT(.CONTINUOUS., .T., #309);
#334 = COMPOSITE_CURVE_SEGMENT(.CONTINUOUS., .T., #316);
#335 = COMPOSITE_CURVE_SEGMENT(.CONTINUOUS., .T., #324);
#336 = GEOMETRIC_SET('', (#331, #374));
#337 = PRESENTATION_STYLE_ASSIGNMENT((#338));
#338 = CURVE_STYLE('', #340, POSITIVE_LENGTH_MEASURE(1.E-6), #339);
#339 = COLOUR_RGB('', 0., 0., 1.);
#340 = DRAUGHTING_PRE_DEFINED_CURVE_FONT('continuous');
#341 = STYLED_ITEM('', (#337), #331);
#342 = PRESENTATION_STYLE_ASSIGNMENT((#343));
#343 = CURVE_STYLE('', #345, POSITIVE_LENGTH_MEASURE(1.E-6), #344);
#344 = COLOUR_RGB('', 0., 0., 1.);
#345 = DRAUGHTING_PRE_DEFINED_CURVE_FONT('continuous');
#346 = OVER_RIDING_STYLED_ITEM('', (#342), #302, #341);
#347 = PRESENTATION_STYLE_ASSIGNMENT((#348));
#348 = CURVE_STYLE('', #350, POSITIVE_LENGTH_MEASURE(1.E-6), #349);
#349 = COLOUR_RGB('', 0., 0., 1.);
#350 = DRAUGHTING_PRE_DEFINED_CURVE_FONT('continuous');
#351 = OVER_RIDING_STYLED_ITEM('', (#347), #309, #341);
#352 = PRESENTATION_STYLE_ASSIGNMENT((#353));
#353 = CURVE_STYLE('', #355, POSITIVE_LENGTH_MEASURE(1.E-6), #354);
#354 = COLOUR_RGB('', 0., 0., 1.);
#355 = DRAUGHTING_PRE_DEFINED_CURVE_FONT('continuous');
#356 = OVER_RIDING_STYLED_ITEM('', (#352), #316, #341);
#357 = PRESENTATION_STYLE_ASSIGNMENT((#358));
#358 = CURVE_STYLE('', #360, POSITIVE_LENGTH_MEASURE(1.E-6), #359);
#359 = COLOUR_RGB('', 0., 0., 1.);
#360 = DRAUGHTING_PRE_DEFINED_CURVE_FONT('continuous');
#361 = OVER_RIDING_STYLED_ITEM('', (#357), #324, #341);
#362 = AXIS2_PLACEMENT_3D('CIP', #363, #364, #365);
#363 = CARTESIAN_POINT('', (2.99951956532372E-31, 4.89858719658941E-15, -80.));
#364 = DIRECTION('', (-3.74939945665465E-33, -6.12323399573677E-17, 1.));
#365 = DIRECTION('', (1., -6.12323399573677E-17, 0.));
#366 = AXIS2_PLACEMENT_3D('MCS', #367, #368, #369);
#367 = CARTESIAN_POINT('', (1.34978380439567E-31, 2.20436423846524E-15, -36.));
#368 = DIRECTION('', (-3.74939945665465E-33, -6.12323399573677E-17, 1.));
#369 = DIRECTION('', (1., -6.12323399573677E-17, 0.));
#370 = AXIS2_PLACEMENT_3D('PCS', #371, #372, #373);
#371 = CARTESIAN_POINT('', (0., 0., 0.));
#372 = DIRECTION('', (0., 0., 1.));
#373 = DIRECTION('', (1., 0., 0.));
#374 = CARTESIAN_POINT('CRP', (1., 0., -80.));
#375 = (
   GEOMETRIC_REPRESENTATION_CONTEXT (3)
   GLOBAL_UNCERTAINTY_ASSIGNED_CONTEXT ((#377))
   GLOBAL_UNIT_ASSIGNED_CONTEXT ((#376, #378, #379))
   REPRESENTATION_CONTEXT ('', '3D')
);
#376 = (
   LENGTH_UNIT ()
   NAMED_UNIT (*)
   SI_UNIT (.MILLI., .METRE.)
);
#377 = UNCERTAINTY_MEASURE_WITH_UNIT(LENGTH_MEASURE(1.E-6), #376, 'DISTANCE_ACCURACY_VALUE', '');
#378 = (
   NAMED_UNIT (*)
   SI_UNIT ($, .STERADIAN.)
   SOLID_ANGLE_UNIT ()
);
#379 = (
   NAMED_UNIT (*)
   PLANE_ANGLE_UNIT ()
   SI_UNIT ($, .RADIAN.)
);
#380 = SHAPE_REPRESENTATION('', (), #375);
#381 = PRODUCT_DEFINITION_SHAPE('', '', #382);
#382 = PRODUCT_DEFINITION('', '', #385, #389);
#383 = APPLICATION_CONTEXT('configuration controlled 3D designs of mechanical parts and assemblies');
#384 = APPLICATION_PROTOCOL_DEFINITION('International Standard', 'automotive_design', 2002, #383);
#385 = PRODUCT_DEFINITION_FORMATION_WITH_SPECIFIED_SOURCE('', '', #386, .NOT_KNOWN.);
#386 = PRODUCT('EmptyName', 'EmptyName', '', (#387));
#387 = PRODUCT_CONTEXT('', #383, 'mechanical');
#388 = PRODUCT_RELATED_PRODUCT_CATEGORY('detail', '', (#386));
#389 = PRODUCT_DEFINITION_CONTEXT('part definition', #383, 'design');
#390 = SHAPE_DEFINITION_REPRESENTATION(#381, #380);
#391 = CONSTRUCTIVE_GEOMETRY_REPRESENTATION('supplemental geometry', (#362, #366, #370), #375);
#392 = CONSTRUCTIVE_GEOMETRY_REPRESENTATION_RELATIONSHIP('', '', #380, #391);
#393 = SHAPE_REPRESENTATION_RELATIONSHIP('', '', #380, #394);
#394 = SHAPE_REPRESENTATION('', (#336), #375);
#395 = SHAPE_REPRESENTATION_RELATIONSHIP('', '', #380, #396);
#396 = ADVANCED_BREP_SHAPE_REPRESENTATION('', (#1, #194), #375);
ENDSEC;
END-ISO-10303-21;
