ISO-10303-21;
HEADER;
FILE_DESCRIPTION(('STEP'), '1');
FILE_NAME('C:\\Users\\ds2002\\OneDrive - Sandvik\\HomeShare\\Documents\\Batchrepair\\CorSRT2\\NEW_MILBN_SLD\\Output3\\MOD000000000000000020082353500000.stp', '2018-11-27T13:12:01', (''), (''), 'Express v3.0.0.0', 'Express Tool', 'Unknown');
FILE_SCHEMA(('AUTOMOTIVE_DESIGN'));
ENDSEC;

DATA;
#1 = MANIFOLD_SOLID_BREP('NOCUT', #2);
#2 = CLOSED_SHELL('', (#3, #50, #70, #117, #164, #173, #185, #216));
#3 = ADVANCED_FACE('', (#4), #31, .T.);
#4 = FACE_OUTER_BOUND('', #5, .T.);
#5 = EDGE_LOOP('', (#6, #16, #23, #24));
#6 = ORIENTED_EDGE('', *, *, #7, .F.);
#7 = EDGE_CURVE('', #8, #10, #12, .T.);
#8 = VERTEX_POINT('', #9);
#9 = CARTESIAN_POINT('', (-9.65, 5.90892080588598E-16, -1.09476442525376E-47));
#10 = VERTEX_POINT('', #11);
#11 = CARTESIAN_POINT('', (-9.65, 1.22158518214948E-15, -10.3));
#12 = LINE('', #13, #14);
#13 = CARTESIAN_POINT('', (-9.65, 5.90892080588598E-16, -1.09476442525376E-47));
#14 = VECTOR('', #15, 10.3);
#15 = DIRECTION('', (0., 6.30693101560882E-16, -10.3));
#16 = ORIENTED_EDGE('', *, *, #17, .T.);
#17 = EDGE_CURVE('', #8, #8, #18, .T.);
#18 = CIRCLE('', #19, 9.65);
#19 = AXIS2_PLACEMENT_3D('', #20, #21, #22);
#20 = CARTESIAN_POINT('', (-5.55111512312578E-17, 2.88657986402541E-15, 1.60237371373018E-31));
#21 = DIRECTION('', (2.03803487892636E-33, 6.12323399573677E-17, -1.));
#22 = DIRECTION('', (-1., -4.82824466921368E-16, -3.16025067771904E-32));
#23 = ORIENTED_EDGE('', *, *, #7, .T.);
#24 = ORIENTED_EDGE('', *, *, #25, .F.);
#25 = EDGE_CURVE('', #10, #10, #26, .T.);
#26 = CIRCLE('', #27, 9.65);
#27 = AXIS2_PLACEMENT_3D('', #28, #29, #30);
#28 = CARTESIAN_POINT('', (3.3584246494911E-15, 8.88178419700125E-16, -10.3));
#29 = DIRECTION('', (0., 0., -1.));
#30 = DIRECTION('', (-1., 3.45499235698813E-17, 0.));
#31 = (
   BOUNDED_SURFACE ()
   B_SPLINE_SURFACE (2, 1, ((#32, #33), (#34, #35), (#36, #37), (#38, #39), (#40, #41), (#42, #43), (#44, #45), (#46, #47), (#48, #49)), .UNSPECIFIED., .T., .F., .U.)
   B_SPLINE_SURFACE_WITH_KNOTS ((3, 2, 2, 2, 3), (2, 2), (0., 15.1581845535707, 30.3163691071415, 45.4745536607122, 60.632738214283), (0., 1.), .UNSPECIFIED.)
   GEOMETRIC_REPRESENTATION_ITEM ()
   RATIONAL_B_SPLINE_SURFACE (((1., 1.), (0.707106781186548, 0.707106781186548), (1., 1.), (0.707106781186548, 0.707106781186548), (1., 1.), (0.707106781186548, 0.707106781186548), (1., 1.), (0.707106781186548, 0.707106781186548), (1., 1.)))
   REPRESENTATION_ITEM ('')
   SURFACE ()
);
#32 = CARTESIAN_POINT('', (-9.65, 5.90892080588597E-16, 0.));
#33 = CARTESIAN_POINT('', (-9.65, 9.25063167266482E-15, -10.3));
#34 = CARTESIAN_POINT('', (-9.64999999999999, 9.65, 8.11325117121704E-15));
#35 = CARTESIAN_POINT('', (-9.64999999999999, 9.65000000000001, -10.3));
#36 = CARTESIAN_POINT('', (1.0991207943789E-14, 9.64999999999999, 8.11325117121704E-15));
#37 = CARTESIAN_POINT('', (1.09912079437891E-14, 9.65, -10.3));
#38 = CARTESIAN_POINT('', (9.65000000000001, 9.64999999999998, 8.11325117121704E-15));
#39 = CARTESIAN_POINT('', (9.65000000000001, 9.64999999999999, -10.3));
#40 = CARTESIAN_POINT('', (9.65, -1.71726763134139E-14, -4.17932303516345E-32));
#41 = CARTESIAN_POINT('', (9.65, -8.51293672133769E-15, -10.3));
#42 = CARTESIAN_POINT('', (9.65, -9.65000000000002, -8.11325117121704E-15));
#43 = CARTESIAN_POINT('', (9.65, -9.65000000000001, -10.3));
#44 = CARTESIAN_POINT('', (-5.59057628903626E-15, -9.65000000000001, -8.11325117121704E-15));
#45 = CARTESIAN_POINT('', (-5.59057628903625E-15, -9.65, -10.3));
#46 = CARTESIAN_POINT('', (-9.65000000000001, -9.65, -8.11325117121704E-15));
#47 = CARTESIAN_POINT('', (-9.65000000000001, -9.64999999999999, -10.3));
#48 = CARTESIAN_POINT('', (-9.65, 5.90892080588597E-16, 0.));
#49 = CARTESIAN_POINT('', (-9.65, 9.25063167266482E-15, -10.3));
#50 = ADVANCED_FACE('', (#51, #54), #65, .T.);
#51 = FACE_OUTER_BOUND('', #52, .T.);
#52 = EDGE_LOOP('', (#53));
#53 = ORIENTED_EDGE('', *, *, #17, .F.);
#54 = FACE_BOUND('', #55, .T.);
#55 = EDGE_LOOP('', (#56));
#56 = ORIENTED_EDGE('', *, *, #57, .T.);
#57 = EDGE_CURVE('', #58, #58, #60, .T.);
#58 = VERTEX_POINT('', #59);
#59 = CARTESIAN_POINT('', (-7.365, 4.50976183786013E-16, -1.09476442525376E-47));
#60 = CIRCLE('', #61, 7.365);
#61 = AXIS2_PLACEMENT_3D('', #62, #63, #64);
#62 = CARTESIAN_POINT('', (-2.08166817117217E-15, -4.21884749357559E-15, -2.83496887813801E-31));
#63 = DIRECTION('', (3.32293705277632E-34, 6.12323399573677E-17, -1.));
#64 = DIRECTION('', (-1., 3.89126808176179E-16, 2.34948512994915E-32));
#65 = B_SPLINE_SURFACE_WITH_KNOTS('', 1, 1, ((#66, #67), (#68, #69)), .UNSPECIFIED., .F., .F., .U., (2, 2), (2, 2), (5.3618769645904, 24.6618769645904), (5.3618769645904, 24.6618769645904), .UNSPECIFIED.);
#66 = CARTESIAN_POINT('', (9.65, -9.65, -5.90892080588598E-16));
#67 = CARTESIAN_POINT('', (-9.65, -9.65, -5.90892080588598E-16));
#68 = CARTESIAN_POINT('', (9.65, 9.65, 5.90892080588599E-16));
#69 = CARTESIAN_POINT('', (-9.65, 9.65, 5.90892080588599E-16));
#70 = ADVANCED_FACE('', (#71), #98, .T.);
#71 = FACE_OUTER_BOUND('', #72, .T.);
#72 = EDGE_LOOP('', (#73, #83, #90, #91));
#73 = ORIENTED_EDGE('', *, *, #74, .T.);
#74 = EDGE_CURVE('', #75, #77, #79, .T.);
#75 = VERTEX_POINT('', #76);
#76 = CARTESIAN_POINT('', (-7.23, 2.28396628040981E-16, 3.5));
#77 = VERTEX_POINT('', #78);
#78 = CARTESIAN_POINT('', (-5.97, -5.83544199793714E-16, 15.5));
#79 = LINE('', #80, #81);
#80 = CARTESIAN_POINT('', (-7.23, 2.28396628040981E-16, 3.5));
#81 = VECTOR('', #82, 12.0659686722617);
#82 = DIRECTION('', (1.26, -8.11940827834695E-16, 12.));
#83 = ORIENTED_EDGE('', *, *, #84, .T.);
#84 = EDGE_CURVE('', #77, #77, #85, .T.);
#85 = CIRCLE('', #86, 5.97);
#86 = AXIS2_PLACEMENT_3D('', #87, #88, #89);
#87 = CARTESIAN_POINT('', (2.72004641033163E-15, -1.99840144432528E-15, 15.5));
#88 = DIRECTION('', (-2.97547209279774E-16, 9.68015267001935E-16, -1.));
#89 = DIRECTION('', (-1., 2.36994513321871E-16, 2.97547209279774E-16));
#90 = ORIENTED_EDGE('', *, *, #74, .F.);
#91 = ORIENTED_EDGE('', *, *, #92, .F.);
#92 = EDGE_CURVE('', #75, #75, #93, .T.);
#93 = CIRCLE('', #94, 7.23);
#94 = AXIS2_PLACEMENT_3D('', #95, #96, #97);
#95 = CARTESIAN_POINT('', (-8.04911692853238E-16, -6.66133814775094E-16, 3.5));
#96 = DIRECTION('', (-2.58654068654629E-32, -2.09055927765386E-16, -1.));
#97 = DIRECTION('', (-1., 1.2372481920001E-16, 0.));
#98 = (
   BOUNDED_SURFACE ()
   B_SPLINE_SURFACE (1, 2, ((#99, #100, #101, #102, #103, #104, #105, #106, #107), (#108, #109, #110, #111, #112, #113, #114, #115, #116)), .UNSPECIFIED., .F., .T., .U.)
   B_SPLINE_SURFACE_WITH_KNOTS ((2, 2), (3, 2, 2, 2, 3), (0., 1.), (0., 0.25, 0.5, 0.75, 1.), .UNSPECIFIED.)
   GEOMETRIC_REPRESENTATION_ITEM ()
   RATIONAL_B_SPLINE_SURFACE (((1., 0.707106781186548, 1., 0.707106781186548, 1., 0.707106781186548, 1., 0.707106781186548, 1.), (1., 0.707106781186548, 1., 0.707106781186548, 1., 0.707106781186548, 1., 0.707106781186548, 1.)))
   REPRESENTATION_ITEM ('')
   SURFACE ()
);
#99 = CARTESIAN_POINT('', (-7.23, -3.58101032380485E-15, 3.5));
#100 = CARTESIAN_POINT('', (-7.23, 7.22999999999999, 3.5));
#101 = CARTESIAN_POINT('', (1.36086152773539E-15, 7.23, 3.5));
#102 = CARTESIAN_POINT('', (7.23, 7.22999999999999, 3.5));
#103 = CARTESIAN_POINT('', (7.23, -3.9712650275628E-15, 3.5));
#104 = CARTESIAN_POINT('', (7.23, -7.23, 3.5));
#105 = CARTESIAN_POINT('', (1.85602645976098E-15, -7.23, 3.5));
#106 = CARTESIAN_POINT('', (-7.23, -7.23, 3.5));
#107 = CARTESIAN_POINT('', (-7.23, -3.58101032380485E-15, 3.5));
#108 = CARTESIAN_POINT('', (-5.97, -5.83544199793714E-16, 15.5));
#109 = CARTESIAN_POINT('', (-5.97, 5.97, 15.5));
#110 = CARTESIAN_POINT('', (1.32685593114237E-15, 5.97, 15.5));
#111 = CARTESIAN_POINT('', (5.97, 5.97, 15.5));
#112 = CARTESIAN_POINT('', (5.97, -9.05787710365629E-16, 15.5));
#113 = CARTESIAN_POINT('', (5.97, -5.97, 15.5));
#114 = CARTESIAN_POINT('', (1.73572655966143E-15, -5.97, 15.5));
#115 = CARTESIAN_POINT('', (-5.97, -5.97, 15.5));
#116 = CARTESIAN_POINT('', (-5.97, -5.83544199793714E-16, 15.5));
#117 = ADVANCED_FACE('', (#118), #145, .T.);
#118 = FACE_OUTER_BOUND('', #119, .T.);
#119 = EDGE_LOOP('', (#120, #130, #137, #138));
#120 = ORIENTED_EDGE('', *, *, #121, .T.);
#121 = EDGE_CURVE('', #122, #124, #126, .T.);
#122 = VERTEX_POINT('', #123);
#123 = CARTESIAN_POINT('', (-4.6, -6.67432505535308E-16, 15.5));
#124 = VERTEX_POINT('', #125);
#125 = CARTESIAN_POINT('', (-4.6, -9.12361865364778E-16, 19.5));
#126 = LINE('', #127, #128);
#127 = CARTESIAN_POINT('', (-4.6, -6.67432505535308E-16, 15.5));
#128 = VECTOR('', #129, 4.);
#129 = DIRECTION('', (0., -2.4492935982947E-16, 4.));
#130 = ORIENTED_EDGE('', *, *, #131, .T.);
#131 = EDGE_CURVE('', #124, #124, #132, .T.);
#132 = CIRCLE('', #133, 4.6);
#133 = AXIS2_PLACEMENT_3D('', #134, #135, #136);
#134 = CARTESIAN_POINT('', (-5.82867087928207E-16, 1.11022302462516E-16, 19.5));
#135 = DIRECTION('', (0., 0., -1.));
#136 = DIRECTION('', (-1., -2.2247481909289E-16, 0.));
#137 = ORIENTED_EDGE('', *, *, #121, .F.);
#138 = ORIENTED_EDGE('', *, *, #139, .F.);
#139 = EDGE_CURVE('', #122, #122, #140, .T.);
#140 = CIRCLE('', #141, 4.6);
#141 = AXIS2_PLACEMENT_3D('', #142, #143, #144);
#142 = CARTESIAN_POINT('', (-5.82867087928207E-16, 3.33066907387547E-16, 15.5));
#143 = DIRECTION('', (2.85865634701431E-31, -1.31432552847282E-15, -1.));
#144 = DIRECTION('', (-1., -2.17499872374534E-16, 0.));
#145 = (
   BOUNDED_SURFACE ()
   B_SPLINE_SURFACE (1, 2, ((#146, #147, #148, #149, #150, #151, #152, #153, #154), (#155, #156, #157, #158, #159, #160, #161, #162, #163)), .UNSPECIFIED., .F., .T., .U.)
   B_SPLINE_SURFACE_WITH_KNOTS ((2, 2), (3, 2, 2, 2, 3), (0., 1.), (0., 7.22566310325653, 14.4513262065131, 21.6769893097696, 28.9026524130261), .UNSPECIFIED.)
   GEOMETRIC_REPRESENTATION_ITEM ()
   RATIONAL_B_SPLINE_SURFACE (((1., 0.707106781186548, 1., 0.707106781186548, 1., 0.707106781186548, 1., 0.707106781186548, 1.), (1., 0.707106781186548, 1., 0.707106781186548, 1., 0.707106781186548, 1., 0.707106781186548, 1.)))
   REPRESENTATION_ITEM ('')
   SURFACE ()
);
#146 = CARTESIAN_POINT('', (-4.6, -6.90317260439747E-16, 15.5));
#147 = CARTESIAN_POINT('', (-4.6, 4.6, 15.5));
#148 = CARTESIAN_POINT('', (9.84782056658201E-16, 4.6, 15.5));
#149 = CARTESIAN_POINT('', (4.6, 4.6, 15.5));
#150 = CARTESIAN_POINT('', (4.6, -7.44746656277753E-16, 15.5));
#151 = CARTESIAN_POINT('', (4.6, -4.6, 15.5));
#152 = CARTESIAN_POINT('', (1.49369018842798E-15, -4.6, 15.5));
#153 = CARTESIAN_POINT('', (-4.6, -4.6, 15.5));
#154 = CARTESIAN_POINT('', (-4.6, -6.90317260439747E-16, 15.5));
#155 = CARTESIAN_POINT('', (-4.6, -9.12361865364778E-16, 19.5));
#156 = CARTESIAN_POINT('', (-4.6, 4.6, 19.5));
#157 = CARTESIAN_POINT('', (9.84782056658201E-16, 4.6, 19.5));
#158 = CARTESIAN_POINT('', (4.6, 4.6, 19.5));
#159 = CARTESIAN_POINT('', (4.6, -9.66791261202784E-16, 19.5));
#160 = CARTESIAN_POINT('', (4.6, -4.6, 19.5));
#161 = CARTESIAN_POINT('', (1.49369018842798E-15, -4.6, 19.5));
#162 = CARTESIAN_POINT('', (-4.6, -4.6, 19.5));
#163 = CARTESIAN_POINT('', (-4.6, -9.12361865364778E-16, 19.5));
#164 = ADVANCED_FACE('', (#165), #168, .T.);
#165 = FACE_OUTER_BOUND('', #166, .T.);
#166 = EDGE_LOOP('', (#167));
#167 = ORIENTED_EDGE('', *, *, #131, .F.);
#168 = B_SPLINE_SURFACE_WITH_KNOTS('', 1, 1, ((#169, #170), (#171, #172)), .UNSPECIFIED., .F., .F., .U., (2, 2), (2, 2), (2.55592062560786, 11.7559206256079), (2.55592062560786, 11.7559206256079), .UNSPECIFIED.);
#169 = CARTESIAN_POINT('', (4.6, -4.6, 19.5));
#170 = CARTESIAN_POINT('', (-4.6, -4.6, 19.5));
#171 = CARTESIAN_POINT('', (4.6, 4.6, 19.5));
#172 = CARTESIAN_POINT('', (-4.6, 4.6, 19.5));
#173 = ADVANCED_FACE('', (#174, #177), #180, .T.);
#174 = FACE_OUTER_BOUND('', #175, .T.);
#175 = EDGE_LOOP('', (#176));
#176 = ORIENTED_EDGE('', *, *, #84, .F.);
#177 = FACE_BOUND('', #178, .T.);
#178 = EDGE_LOOP('', (#179));
#179 = ORIENTED_EDGE('', *, *, #139, .T.);
#180 = B_SPLINE_SURFACE_WITH_KNOTS('', 1, 1, ((#181, #182), (#183, #184)), .UNSPECIFIED., .F., .F., .U., (2, 2), (2, 2), (3.31714046410412, 15.2571404641041), (3.31714046410412, 15.2571404641041), .UNSPECIFIED.);
#181 = CARTESIAN_POINT('', (5.97, -5.97, 15.5));
#182 = CARTESIAN_POINT('', (-5.97, -5.97, 15.5));
#183 = CARTESIAN_POINT('', (5.97, 5.97, 15.5));
#184 = CARTESIAN_POINT('', (-5.97, 5.97, 15.5));
#185 = ADVANCED_FACE('', (#186), #197, .T.);
#186 = FACE_OUTER_BOUND('', #187, .T.);
#187 = EDGE_LOOP('', (#188, #194, #195, #196));
#188 = ORIENTED_EDGE('', *, *, #189, .T.);
#189 = EDGE_CURVE('', #58, #75, #190, .T.);
#190 = LINE('', #191, #192);
#191 = CARTESIAN_POINT('', (-7.365, 4.50976183786013E-16, -1.09476442525376E-47));
#192 = VECTOR('', #193, 3.50260260377908);
#193 = DIRECTION('', (0.135, -2.22579555745032E-16, 3.5));
#194 = ORIENTED_EDGE('', *, *, #92, .T.);
#195 = ORIENTED_EDGE('', *, *, #189, .F.);
#196 = ORIENTED_EDGE('', *, *, #57, .F.);
#197 = (
   BOUNDED_SURFACE ()
   B_SPLINE_SURFACE (1, 2, ((#198, #199, #200, #201, #202, #203, #204, #205, #206), (#207, #208, #209, #210, #211, #212, #213, #214, #215)), .UNSPECIFIED., .F., .T., .U.)
   B_SPLINE_SURFACE_WITH_KNOTS ((2, 2), (3, 2, 2, 2, 3), (0., 1.), (0., 0.25, 0.5, 0.75, 1.), .UNSPECIFIED.)
   GEOMETRIC_REPRESENTATION_ITEM ()
   RATIONAL_B_SPLINE_SURFACE (((1., 0.707106781186548, 1., 0.707106781186548, 1., 0.707106781186548, 1., 0.707106781186548, 1.), (1., 0.707106781186548, 1., 0.707106781186548, 1., 0.707106781186548, 1., 0.707106781186548, 1.)))
   REPRESENTATION_ITEM ('')
   SURFACE ()
);
#198 = CARTESIAN_POINT('', (-7.365, -2.13105419813737E-15, 0.));
#199 = CARTESIAN_POINT('', (-7.365, 7.365, -5.13969819085754E-15));
#200 = CARTESIAN_POINT('', (3.05235146804928E-15, 7.36499999999999, -5.13969819085754E-15));
#201 = CARTESIAN_POINT('', (7.365, 7.36499999999999, -5.13969819085754E-15));
#202 = CARTESIAN_POINT('', (7.365, -1.02896697297925E-14, -6.29431493801713E-31));
#203 = CARTESIAN_POINT('', (7.36499999999999, -7.36500000000001, 5.13969819085754E-15));
#204 = CARTESIAN_POINT('', (-4.2043116960338E-15, -7.36500000000001, 5.13969819085754E-15));
#205 = CARTESIAN_POINT('', (-7.365, -7.365, 5.13969819085755E-15));
#206 = CARTESIAN_POINT('', (-7.365, -2.13105419813737E-15, 0.));
#207 = CARTESIAN_POINT('', (-7.23, 2.28396628040981E-16, 3.5));
#208 = CARTESIAN_POINT('', (-7.23, 7.23, 3.5));
#209 = CARTESIAN_POINT('', (2.97757800594654E-15, 7.23, 3.5));
#210 = CARTESIAN_POINT('', (7.23, 7.22999999999999, 3.5));
#211 = CARTESIAN_POINT('', (7.23, -7.78067197940863E-15, 3.5));
#212 = CARTESIAN_POINT('', (7.22999999999999, -7.23000000000001, 3.5));
#213 = CARTESIAN_POINT('', (-4.14607096571954E-15, -7.23, 3.5));
#214 = CARTESIAN_POINT('', (-7.23, -7.23, 3.5));
#215 = CARTESIAN_POINT('', (-7.23, 2.28396628040981E-16, 3.5));
#216 = ADVANCED_FACE('', (#217), #220, .T.);
#217 = FACE_OUTER_BOUND('', #218, .T.);
#218 = EDGE_LOOP('', (#219));
#219 = ORIENTED_EDGE('', *, *, #25, .T.);
#220 = B_SPLINE_SURFACE_WITH_KNOTS('', 1, 1, ((#221, #222), (#223, #224)), .UNSPECIFIED., .F., .F., .U., (2, 2), (2, 2), (44.6029904026017, 63.9029904026017), (35.3873024723826, 54.6873024723826), .UNSPECIFIED.);
#221 = CARTESIAN_POINT('', (-9.64999999999999, 9.65000000000001, -10.3));
#222 = CARTESIAN_POINT('', (-9.64999999999999, -9.65000000000001, -10.3));
#223 = CARTESIAN_POINT('', (9.65000000000001, 9.65000000000001, -10.3));
#224 = CARTESIAN_POINT('', (9.65000000000001, -9.65000000000001, -10.3));
#225 = DRAUGHTING_MODEL('', (#233, #341, #389, #394, #399, #404, #409, #414), #428);
#226 = PRESENTATION_STYLE_ASSIGNMENT((#227));
#227 = SURFACE_STYLE_USAGE(.POSITIVE., #228);
#228 = SURFACE_SIDE_STYLE('', (#229));
#229 = SURFACE_STYLE_FILL_AREA(#230);
#230 = FILL_AREA_STYLE('', (#231));
#231 = FILL_AREA_STYLE_COLOUR('', #232);
#232 = COLOUR_RGB('', 0.50196078431373, 0.50196078431373, 0.50196078431373);
#233 = STYLED_ITEM('', (#226), #1);
#234 = MANIFOLD_SOLID_BREP('CUT', #235);
#235 = CLOSED_SHELL('', (#236, #253, #292));
#236 = ADVANCED_FACE('', (#237), #248, .T.);
#237 = FACE_OUTER_BOUND('', #238, .T.);
#238 = EDGE_LOOP('', (#239));
#239 = ORIENTED_EDGE('', *, *, #240, .F.);
#240 = EDGE_CURVE('', #241, #241, #243, .T.);
#241 = VERTEX_POINT('', #242);
#242 = CARTESIAN_POINT('', (-10., 1.24301650113456E-15, -10.3));
#243 = CIRCLE('', #244, 10.);
#244 = AXIS2_PLACEMENT_3D('', #245, #246, #247);
#245 = CARTESIAN_POINT('', (-1.11022302462516E-15, -4.21884749357559E-15, -10.3));
#246 = DIRECTION('', (0., 0., -1.));
#247 = DIRECTION('', (-1., 3.01257039641546E-16, 0.));
#248 = B_SPLINE_SURFACE_WITH_KNOTS('', 1, 1, ((#249, #250), (#251, #252)), .UNSPECIFIED., .F., .F., .U., (2, 2), (2, 2), (5.556349186104, 25.556349186104), (5.556349186104, 25.556349186104), .UNSPECIFIED.);
#249 = CARTESIAN_POINT('', (10., -10., -10.3));
#250 = CARTESIAN_POINT('', (-10., -10., -10.3));
#251 = CARTESIAN_POINT('', (10., 10., -10.3));
#252 = CARTESIAN_POINT('', (-10., 10., -10.3));
#253 = ADVANCED_FACE('', (#254), #273, .T.);
#254 = FACE_OUTER_BOUND('', #255, .T.);
#255 = EDGE_LOOP('', (#256, #264, #265, #266));
#256 = ORIENTED_EDGE('', *, *, #257, .F.);
#257 = EDGE_CURVE('', #241, #258, #260, .T.);
#258 = VERTEX_POINT('', #259);
#259 = CARTESIAN_POINT('', (-10., 1.30424884109193E-15, -11.3));
#260 = LINE('', #261, #262);
#261 = CARTESIAN_POINT('', (-10., 1.24301650113456E-15, -10.3));
#262 = VECTOR('', #263, 1.);
#263 = DIRECTION('', (0., 6.12323399573701E-17, -1.));
#264 = ORIENTED_EDGE('', *, *, #240, .T.);
#265 = ORIENTED_EDGE('', *, *, #257, .T.);
#266 = ORIENTED_EDGE('', *, *, #267, .F.);
#267 = EDGE_CURVE('', #258, #258, #268, .T.);
#268 = CIRCLE('', #269, 10.);
#269 = AXIS2_PLACEMENT_3D('', #270, #271, #272);
#270 = CARTESIAN_POINT('', (-5.55111512312578E-17, 8.88178419700125E-16, -11.3));
#271 = DIRECTION('', (0., 0., -1.));
#272 = DIRECTION('', (-1., 4.16070421391805E-17, 0.));
#273 = (
   BOUNDED_SURFACE ()
   B_SPLINE_SURFACE (2, 1, ((#274, #275), (#276, #277), (#278, #279), (#280, #281), (#282, #283), (#284, #285), (#286, #287), (#288, #289), (#290, #291)), .UNSPECIFIED., .T., .F., .U.)
   B_SPLINE_SURFACE_WITH_KNOTS ((3, 2, 2, 2, 3), (2, 2), (0., 15.707963267949, 31.415926535898, 47.1238898038469, 62.8318530717959), (0., 1.), .UNSPECIFIED.)
   GEOMETRIC_REPRESENTATION_ITEM ()
   RATIONAL_B_SPLINE_SURFACE (((1., 1.), (0.707106781186548, 0.707106781186548), (1., 1.), (0.707106781186548, 0.707106781186548), (1., 1.), (0.707106781186548, 0.707106781186548), (1., 1.), (0.707106781186548, 0.707106781186548), (1., 1.)))
   REPRESENTATION_ITEM ('')
   SURFACE ()
);
#274 = CARTESIAN_POINT('', (-10., 1.24301650113456E-15, -10.3));
#275 = CARTESIAN_POINT('', (-10., 1.24301650113456E-15, -11.3));
#276 = CARTESIAN_POINT('', (-10., 10., -10.3));
#277 = CARTESIAN_POINT('', (-10., 10., -11.3));
#278 = CARTESIAN_POINT('', (-3.50488766516782E-15, 10., -10.3));
#279 = CARTESIAN_POINT('', (-3.50488766516782E-15, 10., -11.3));
#280 = CARTESIAN_POINT('', (10., 10., -10.3));
#281 = CARTESIAN_POINT('', (10., 10., -11.3));
#282 = CARTESIAN_POINT('', (10., 8.69808717712918E-16, -10.3));
#283 = CARTESIAN_POINT('', (10., 8.69808717712918E-16, -11.3));
#284 = CARTESIAN_POINT('', (10., -10., -10.3));
#285 = CARTESIAN_POINT('', (10., -10., -11.3));
#286 = CARTESIAN_POINT('', (-2.65344864944211E-15, -10., -10.3));
#287 = CARTESIAN_POINT('', (-2.65344864944211E-15, -10., -11.3));
#288 = CARTESIAN_POINT('', (-10., -10., -10.3));
#289 = CARTESIAN_POINT('', (-10., -10., -11.3));
#290 = CARTESIAN_POINT('', (-10., 1.24301650113456E-15, -10.3));
#291 = CARTESIAN_POINT('', (-10., 1.24301650113456E-15, -11.3));
#292 = ADVANCED_FACE('', (#293), #306, .T.);
#293 = FACE_OUTER_BOUND('', #294, .T.);
#294 = EDGE_LOOP('', (#295, #304, #305));
#295 = ORIENTED_EDGE('', *, *, #296, .F.);
#296 = EDGE_CURVE('', #258, #297, #299, .T.);
#297 = VERTEX_POINT('', #298);
#298 = CARTESIAN_POINT('', (5.38968387752153E-15, 1.30424884109193E-15, -21.3));
#299 = CIRCLE('', #300, 10.);
#300 = AXIS2_PLACEMENT_3D('', #301, #302, #303);
#301 = CARTESIAN_POINT('', (1.06581410364015E-14, 6.9192544151825E-16, -11.3));
#302 = DIRECTION('', (-6.12323399573679E-17, -1., -6.1232339957368E-17));
#303 = DIRECTION('', (-1., 6.1232339957368E-17, -7.10542735760099E-16));
#304 = ORIENTED_EDGE('', *, *, #267, .T.);
#305 = ORIENTED_EDGE('', *, *, #296, .T.);
#306 = (
   BOUNDED_SURFACE ()
   B_SPLINE_SURFACE (2, 2, ((#307, #308, #309), (#310, #311, #312), (#313, #314, #315), (#316, #317, #318), (#319, #320, #321), (#322, #323, #324), (#325, #326, #327), (#328, #329, #330), (#331, #332, #333)), .UNSPECIFIED., .T., .F., .U.)
   B_SPLINE_SURFACE_WITH_KNOTS ((3, 2, 2, 2, 3), (3, 3), (0., 0.25, 0.5, 0.75, 1.), (0., 1.), .UNSPECIFIED.)
   GEOMETRIC_REPRESENTATION_ITEM ()
   RATIONAL_B_SPLINE_SURFACE (((1., 0.707106781186548, 1.), (0.707106781186548, 0.5, 0.707106781186548), (1., 0.707106781186548, 1.), (0.707106781186548, 0.5, 0.707106781186548), (1., 0.707106781186548, 1.), (0.707106781186548, 0.5, 0.707106781186548), (1., 0.707106781186548, 1.), (0.707106781186548, 0.5, 0.707106781186548), (1., 0.707106781186548, 1.)))
   REPRESENTATION_ITEM ('')
   SURFACE ()
);
#307 = CARTESIAN_POINT('', (-10., 1.30424884109193E-15, -11.3));
#308 = CARTESIAN_POINT('', (-10., 1.91657224066561E-15, -21.3));
#309 = CARTESIAN_POINT('', (5.38968387752153E-15, 1.30424884109193E-15, -21.3));
#310 = CARTESIAN_POINT('', (-10., 10., -11.3));
#311 = CARTESIAN_POINT('', (-10., 10., -21.3));
#312 = CARTESIAN_POINT('', (5.38968387752153E-15, 1.30424884109193E-15, -21.3));
#313 = CARTESIAN_POINT('', (1.77635683940025E-15, 10., -11.3));
#314 = CARTESIAN_POINT('', (2.38868023897393E-15, 10., -21.3));
#315 = CARTESIAN_POINT('', (5.38968387752153E-15, 1.30424884109193E-15, -21.3));
#316 = CARTESIAN_POINT('', (10., 10., -11.3));
#317 = CARTESIAN_POINT('', (10., 10., -21.3));
#318 = CARTESIAN_POINT('', (5.38968387752153E-15, 1.30424884109193E-15, -21.3));
#319 = CARTESIAN_POINT('', (10., 1.30424884109192E-15, -11.3));
#320 = CARTESIAN_POINT('', (10., 6.91925441518243E-16, -21.3));
#321 = CARTESIAN_POINT('', (5.38968387752153E-15, 1.30424884109193E-15, -21.3));
#322 = CARTESIAN_POINT('', (10., -10., -11.3));
#323 = CARTESIAN_POINT('', (10., -10., -21.3));
#324 = CARTESIAN_POINT('', (5.38968387752153E-15, 1.30424884109193E-15, -21.3));
#325 = CARTESIAN_POINT('', (3.0010036385476E-15, -10., -11.3));
#326 = CARTESIAN_POINT('', (2.38868023897392E-15, -10., -21.3));
#327 = CARTESIAN_POINT('', (5.38968387752153E-15, 1.30424884109193E-15, -21.3));
#328 = CARTESIAN_POINT('', (-10., -10., -11.3));
#329 = CARTESIAN_POINT('', (-10., -10., -21.3));
#330 = CARTESIAN_POINT('', (5.38968387752153E-15, 1.30424884109193E-15, -21.3));
#331 = CARTESIAN_POINT('', (-10., 1.30424884109193E-15, -11.3));
#332 = CARTESIAN_POINT('', (-10., 1.91657224066561E-15, -21.3));
#333 = CARTESIAN_POINT('', (5.38968387752153E-15, 1.30424884109193E-15, -21.3));
#334 = PRESENTATION_STYLE_ASSIGNMENT((#335));
#335 = SURFACE_STYLE_USAGE(.POSITIVE., #336);
#336 = SURFACE_SIDE_STYLE('', (#337));
#337 = SURFACE_STYLE_FILL_AREA(#338);
#338 = FILL_AREA_STYLE('', (#339));
#339 = FILL_AREA_STYLE_COLOUR('', #340);
#340 = COLOUR_RGB('', 0.8, 0.8, 0.8);
#341 = STYLED_ITEM('', (#334), #234);
#342 = TRIMMED_CURVE('cutting part line', #343, (#347), (#348), .T., .CARTESIAN.);
#343 = LINE('', #344, #345);
#344 = CARTESIAN_POINT('', (-1.15856443210628E-31, -6.30693101560887E-16, -10.3));
#345 = VECTOR('', #346, 9.65);
#346 = DIRECTION('', (9.65, -1.77267624176579E-15, 0.));
#347 = CARTESIAN_POINT('', (-1.15856443210628E-31, -6.30693101560887E-16, -10.3));
#348 = CARTESIAN_POINT('', (9.65, -2.40336934332668E-15, -10.3));
#349 = TRIMMED_CURVE('cutting part line', #350, (#354), (#355), .T., .CARTESIAN.);
#350 = LINE('', #351, #352);
#351 = CARTESIAN_POINT('', (9.65, -2.40336934332668E-15, -10.3));
#352 = VECTOR('', #353, 0.35);
#353 = DIRECTION('', (0.35, -6.42939569552377E-17, 0.));
#354 = CARTESIAN_POINT('', (9.65, -2.40336934332668E-15, -10.3));
#355 = CARTESIAN_POINT('', (10., -2.46766330028191E-15, -10.3));
#356 = TRIMMED_CURVE('cutting part line', #357, (#361), (#362), .T., .CARTESIAN.);
#357 = LINE('', #358, #359);
#358 = CARTESIAN_POINT('', (10., -2.46766330028191E-15, -10.3));
#359 = VECTOR('', #360, 1.);
#360 = DIRECTION('', (0., -6.12323399573699E-17, -1.));
#361 = CARTESIAN_POINT('', (10., -2.46766330028191E-15, -10.3));
#362 = CARTESIAN_POINT('', (10., -2.52889564023928E-15, -11.3));
#363 = TRIMMED_CURVE('cutting part line', #364, (#369), (#370), .T., .CARTESIAN.);
#364 = CIRCLE('', #365, 10.);
#365 = AXIS2_PLACEMENT_3D('', #366, #367, #368);
#366 = CARTESIAN_POINT('', (-8.88178419700125E-15, -6.91925441518248E-16, -11.3));
#367 = DIRECTION('', (1.83697019872103E-16, 1., -6.1232339957368E-17));
#368 = DIRECTION('', (1., -1.83697019872103E-16, -7.105427357601E-16));
#369 = CARTESIAN_POINT('', (10., -2.52889564023928E-15, -11.3));
#370 = CARTESIAN_POINT('', (-8.71355000727763E-15, -1.30424884109193E-15, -21.3));
#371 = TRIMMED_CURVE('cutting part line', #372, (#376), (#377), .T., .CARTESIAN.);
#372 = LINE('', #373, #374);
#373 = CARTESIAN_POINT('', (-2.39586625280232E-31, -1.30424884109193E-15, -21.3));
#374 = VECTOR('', #375, 11.);
#375 = DIRECTION('', (1.23730182069603E-31, 6.73555739531043E-16, 11.));
#376 = CARTESIAN_POINT('', (-2.39586625280232E-31, -1.30424884109193E-15, -21.3));
#377 = CARTESIAN_POINT('', (-1.15856443210628E-31, -6.30693101560887E-16, -10.3));
#378 = COMPOSITE_CURVE('cutting part line', (#379, #380, #381, #382, #383), .U.);
#379 = COMPOSITE_CURVE_SEGMENT(.CONTINUOUS., .T., #342);
#380 = COMPOSITE_CURVE_SEGMENT(.CONTINUOUS., .T., #349);
#381 = COMPOSITE_CURVE_SEGMENT(.CONTINUOUS., .T., #356);
#382 = COMPOSITE_CURVE_SEGMENT(.CONTINUOUS., .T., #363);
#383 = COMPOSITE_CURVE_SEGMENT(.CONTINUOUS., .T., #371);
#384 = GEOMETRIC_SET('', (#378, #427));
#385 = PRESENTATION_STYLE_ASSIGNMENT((#386));
#386 = CURVE_STYLE('', #388, POSITIVE_LENGTH_MEASURE(1.E-6), #387);
#387 = COLOUR_RGB('', 0., 0., 1.);
#388 = DRAUGHTING_PRE_DEFINED_CURVE_FONT('continuous');
#389 = STYLED_ITEM('', (#385), #378);
#390 = PRESENTATION_STYLE_ASSIGNMENT((#391));
#391 = CURVE_STYLE('', #393, POSITIVE_LENGTH_MEASURE(1.E-6), #392);
#392 = COLOUR_RGB('', 0., 0., 1.);
#393 = DRAUGHTING_PRE_DEFINED_CURVE_FONT('continuous');
#394 = OVER_RIDING_STYLED_ITEM('', (#390), #342, #389);
#395 = PRESENTATION_STYLE_ASSIGNMENT((#396));
#396 = CURVE_STYLE('', #398, POSITIVE_LENGTH_MEASURE(1.E-6), #397);
#397 = COLOUR_RGB('', 0., 0., 1.);
#398 = DRAUGHTING_PRE_DEFINED_CURVE_FONT('continuous');
#399 = OVER_RIDING_STYLED_ITEM('', (#395), #349, #389);
#400 = PRESENTATION_STYLE_ASSIGNMENT((#401));
#401 = CURVE_STYLE('', #403, POSITIVE_LENGTH_MEASURE(1.E-6), #402);
#402 = COLOUR_RGB('', 0., 0., 1.);
#403 = DRAUGHTING_PRE_DEFINED_CURVE_FONT('continuous');
#404 = OVER_RIDING_STYLED_ITEM('', (#400), #356, #389);
#405 = PRESENTATION_STYLE_ASSIGNMENT((#406));
#406 = CURVE_STYLE('', #408, POSITIVE_LENGTH_MEASURE(1.E-6), #407);
#407 = COLOUR_RGB('', 0., 0., 1.);
#408 = DRAUGHTING_PRE_DEFINED_CURVE_FONT('continuous');
#409 = OVER_RIDING_STYLED_ITEM('', (#405), #363, #389);
#410 = PRESENTATION_STYLE_ASSIGNMENT((#411));
#411 = CURVE_STYLE('', #413, POSITIVE_LENGTH_MEASURE(1.E-6), #412);
#412 = COLOUR_RGB('', 0., 0., 1.);
#413 = DRAUGHTING_PRE_DEFINED_CURVE_FONT('continuous');
#414 = OVER_RIDING_STYLED_ITEM('', (#410), #371, #389);
#415 = AXIS2_PLACEMENT_3D('CIP', #416, #417, #418);
#416 = CARTESIAN_POINT('', (7.98622084267439E-32, 1.30424884109193E-15, -21.3));
#417 = DIRECTION('', (-3.74939945665465E-33, -6.12323399573677E-17, 1.));
#418 = DIRECTION('', (1., -6.12323399573677E-17, 0.));
#419 = AXIS2_PLACEMENT_3D('MCS', #420, #421, #422);
#420 = CARTESIAN_POINT('', (0., 0., 0.));
#421 = DIRECTION('', (0., 0., 1.));
#422 = DIRECTION('', (1., 0., 0.));
#423 = AXIS2_PLACEMENT_3D('PCS', #424, #425, #426);
#424 = CARTESIAN_POINT('', (0., 0., 0.));
#425 = DIRECTION('', (0., 0., 1.));
#426 = DIRECTION('', (1., 0., 0.));
#427 = CARTESIAN_POINT('CRP', (10., 0., -21.3));
#428 = (
   GEOMETRIC_REPRESENTATION_CONTEXT (3)
   GLOBAL_UNCERTAINTY_ASSIGNED_CONTEXT ((#430))
   GLOBAL_UNIT_ASSIGNED_CONTEXT ((#429, #431, #432))
   REPRESENTATION_CONTEXT ('', '3D')
);
#429 = (
   LENGTH_UNIT ()
   NAMED_UNIT (*)
   SI_UNIT (.MILLI., .METRE.)
);
#430 = UNCERTAINTY_MEASURE_WITH_UNIT(LENGTH_MEASURE(1.E-6), #429, 'DISTANCE_ACCURACY_VALUE', '');
#431 = (
   NAMED_UNIT (*)
   SI_UNIT ($, .STERADIAN.)
   SOLID_ANGLE_UNIT ()
);
#432 = (
   NAMED_UNIT (*)
   PLANE_ANGLE_UNIT ()
   SI_UNIT ($, .RADIAN.)
);
#433 = SHAPE_REPRESENTATION('', (), #428);
#434 = PRODUCT_DEFINITION_SHAPE('', '', #435);
#435 = PRODUCT_DEFINITION('', '', #438, #442);
#436 = APPLICATION_CONTEXT('configuration controlled 3D designs of mechanical parts and assemblies');
#437 = APPLICATION_PROTOCOL_DEFINITION('International Standard', 'automotive_design', 2002, #436);
#438 = PRODUCT_DEFINITION_FORMATION_WITH_SPECIFIED_SOURCE('', '', #439, .NOT_KNOWN.);
#439 = PRODUCT('EmptyName', 'EmptyName', '', (#440));
#440 = PRODUCT_CONTEXT('', #436, 'mechanical');
#441 = PRODUCT_RELATED_PRODUCT_CATEGORY('detail', '', (#439));
#442 = PRODUCT_DEFINITION_CONTEXT('part definition', #436, 'design');
#443 = SHAPE_DEFINITION_REPRESENTATION(#434, #433);
#444 = CONSTRUCTIVE_GEOMETRY_REPRESENTATION('supplemental geometry', (#415, #419, #423), #428);
#445 = CONSTRUCTIVE_GEOMETRY_REPRESENTATION_RELATIONSHIP('', '', #433, #444);
#446 = SHAPE_REPRESENTATION_RELATIONSHIP('', '', #433, #447);
#447 = SHAPE_REPRESENTATION('', (#384), #428);
#448 = SHAPE_REPRESENTATION_RELATIONSHIP('', '', #433, #449);
#449 = ADVANCED_BREP_SHAPE_REPRESENTATION('', (#1, #234), #428);
ENDSEC;
END-ISO-10303-21;
