ISO-10303-21;
HEADER;
FILE_DESCRIPTION(('STEP'), '1');
FILE_NAME('C:\\Users\\ds2002\\OneDrive - Sandvik\\HomeShare\\Documents\\Batchrepair\\CorSRT2\\NEW_MILBN_SLD\\Output2\\MOD000000000000000020084961300000.stp', '2018-11-23T12:39:20', (''), (''), 'Express v3.0.0.0', 'Express Tool', 'Unknown');
FILE_SCHEMA(('AUTOMOTIVE_DESIGN'));
ENDSEC;

DATA;
#1 = MANIFOLD_SOLID_BREP('NOCUT', #2);
#2 = CLOSED_SHELL('', (#3, #50, #97, #106, #137, #176));
#3 = ADVANCED_FACE('', (#4), #31, .T.);
#4 = FACE_OUTER_BOUND('', #5, .T.);
#5 = EDGE_LOOP('', (#6, #16, #23, #24));
#6 = ORIENTED_EDGE('', *, *, #7, .F.);
#7 = EDGE_CURVE('', #8, #10, #12, .T.);
#8 = VERTEX_POINT('', #9);
#9 = CARTESIAN_POINT('', (-4.7625, 3.75736946063397E-15, -56.6));
#10 = VERTEX_POINT('', #11);
#11 = CARTESIAN_POINT('', (-3.97, 3.74252061819431E-15, -57.15));
#12 = LINE('', #13, #14);
#13 = CARTESIAN_POINT('', (-4.7625, 3.75736946063397E-15, -56.6));
#14 = VECTOR('', #15, 0.964653435177627);
#15 = DIRECTION('', (0.7925, -1.48488424396605E-17, -0.549999999999997));
#16 = ORIENTED_EDGE('', *, *, #17, .T.);
#17 = EDGE_CURVE('', #8, #8, #18, .T.);
#18 = CIRCLE('', #19, 4.7625);
#19 = AXIS2_PLACEMENT_3D('', #20, #21, #22);
#20 = CARTESIAN_POINT('', (2.63677968348475E-16, 5.55111512312578E-16, -56.6));
#21 = DIRECTION('', (1.49195325093984E-15, -4.85379623643194E-15, -1.));
#22 = DIRECTION('', (-1., 4.27460760552975E-16, -1.49195325093984E-15));
#23 = ORIENTED_EDGE('', *, *, #7, .T.);
#24 = ORIENTED_EDGE('', *, *, #25, .F.);
#25 = EDGE_CURVE('', #10, #10, #26, .T.);
#26 = CIRCLE('', #27, 3.97);
#27 = AXIS2_PLACEMENT_3D('', #28, #29, #30);
#28 = CARTESIAN_POINT('', (1.346145417358E-15, 1.11022302462516E-15, -57.15));
#29 = DIRECTION('', (1.78978019083148E-15, -5.82272155566929E-15, -1.));
#30 = DIRECTION('', (-1., 4.18117892958729E-16, -1.78978019083149E-15));
#31 = (
   BOUNDED_SURFACE ()
   B_SPLINE_SURFACE (2, 1, ((#32, #33), (#34, #35), (#36, #37), (#38, #39), (#40, #41), (#42, #43), (#44, #45), (#46, #47), (#48, #49)), .UNSPECIFIED., .T., .F., .U.)
   B_SPLINE_SURFACE_WITH_KNOTS ((3, 2, 2, 2, 3), (2, 2), (0., 0.25, 0.5, 0.75, 1.), (0., 1.), .UNSPECIFIED.)
   GEOMETRIC_REPRESENTATION_ITEM ()
   RATIONAL_B_SPLINE_SURFACE (((1., 1.), (0.707106781186548, 0.707106781186548), (1., 1.), (0.707106781186548, 0.707106781186548), (1., 1.), (0.707106781186548, 0.707106781186548), (1., 1.), (0.707106781186548, 0.707106781186548), (1., 1.)))
   REPRESENTATION_ITEM ('')
   SURFACE ()
);
#32 = CARTESIAN_POINT('', (-4.7625, 3.75736946063397E-15, -56.6));
#33 = CARTESIAN_POINT('', (-3.97, 2.2435993071618E-15, -57.15));
#34 = CARTESIAN_POINT('', (-4.7625, 4.7625, -56.6));
#35 = CARTESIAN_POINT('', (-3.97, 3.97, -57.15));
#36 = CARTESIAN_POINT('', (3.46575044158701E-15, 4.7625, -56.6));
#37 = CARTESIAN_POINT('', (3.11072994215621E-15, 3.97, -57.15));
#38 = CARTESIAN_POINT('', (4.7625, 4.7625, -56.6));
#39 = CARTESIAN_POINT('', (3.97, 3.97, -57.15));
#40 = CARTESIAN_POINT('', (4.7625, -5.09596163439667E-16, -56.6));
#41 = CARTESIAN_POINT('', (3.97, -1.31332531805024E-15, -57.15));
#42 = CARTESIAN_POINT('', (4.7625, -4.7625, -56.6));
#43 = CARTESIAN_POINT('', (3.97, -3.97, -57.15));
#44 = CARTESIAN_POINT('', (-2.17977144392703E-16, -4.7625, -56.6));
#45 = CARTESIAN_POINT('', (3.99900962056671E-17, -3.97, -57.15));
#46 = CARTESIAN_POINT('', (-4.7625, -4.7625, -56.6));
#47 = CARTESIAN_POINT('', (-3.97, -3.97, -57.15));
#48 = CARTESIAN_POINT('', (-4.7625, 3.75736946063397E-15, -56.6));
#49 = CARTESIAN_POINT('', (-3.97, 2.2435993071618E-15, -57.15));
#50 = ADVANCED_FACE('', (#51), #78, .T.);
#51 = FACE_OUTER_BOUND('', #52, .T.);
#52 = EDGE_LOOP('', (#53, #63, #70, #71));
#53 = ORIENTED_EDGE('', *, *, #54, .T.);
#54 = EDGE_CURVE('', #55, #57, #59, .T.);
#55 = VERTEX_POINT('', #56);
#56 = CARTESIAN_POINT('', (-4.7625, 3.2078092095166E-16, -0.47625));
#57 = VERTEX_POINT('', #58);
#58 = CARTESIAN_POINT('', (-4.28625, 2.62457117142267E-16, 0.));
#59 = LINE('', #60, #61);
#60 = CARTESIAN_POINT('', (-4.7625, 3.2078092095166E-16, -0.47625));
#61 = VECTOR('', #62, 0.673519209080187);
#62 = DIRECTION('', (0.47625, -5.8323803809393E-17, 0.47625));
#63 = ORIENTED_EDGE('', *, *, #64, .T.);
#64 = EDGE_CURVE('', #57, #57, #65, .T.);
#65 = CIRCLE('', #66, 4.28625);
#66 = AXIS2_PLACEMENT_3D('', #67, #68, #69);
#67 = CARTESIAN_POINT('', (2.08166817117217E-16, 2.22044604925031E-15, 1.41748443906901E-31));
#68 = DIRECTION('', (5.09914260327735E-33, 6.12323399573676E-17, -1.));
#69 = DIRECTION('', (-1., -7.01736343115104E-16, -4.80681009253414E-32));
#70 = ORIENTED_EDGE('', *, *, #54, .F.);
#71 = ORIENTED_EDGE('', *, *, #72, .F.);
#72 = EDGE_CURVE('', #55, #55, #73, .T.);
#73 = CIRCLE('', #74, 4.76249999999998);
#74 = AXIS2_PLACEMENT_3D('', #75, #76, #77);
#75 = CARTESIAN_POINT('', (-8.74300631892311E-16, 2.1094237467878E-15, -0.47625));
#76 = DIRECTION('', (-2.33117695459352E-17, 1.55183052165054E-16, -1.));
#77 = DIRECTION('', (-1., -6.20497407249134E-16, 2.33117695459351E-17));
#78 = (
   BOUNDED_SURFACE ()
   B_SPLINE_SURFACE (1, 2, ((#79, #80, #81, #82, #83, #84, #85, #86, #87), (#88, #89, #90, #91, #92, #93, #94, #95, #96)), .UNSPECIFIED., .F., .T., .U.)
   B_SPLINE_SURFACE_WITH_KNOTS ((2, 2), (3, 2, 2, 2, 3), (0., 1.), (0., 0.25, 0.5, 0.75, 1.), .UNSPECIFIED.)
   GEOMETRIC_REPRESENTATION_ITEM ()
   RATIONAL_B_SPLINE_SURFACE (((1., 0.707106781186548, 1., 0.707106781186548, 1., 0.707106781186548, 1., 0.707106781186548, 1.), (1., 0.707106781186548, 1., 0.707106781186548, 1., 0.707106781186548, 1., 0.707106781186548, 1.)))
   REPRESENTATION_ITEM ('')
   SURFACE ()
);
#79 = CARTESIAN_POINT('', (-4.7625, 1.85826706490691E-15, -0.47625));
#80 = CARTESIAN_POINT('', (-4.7625, 4.7625, -0.476249999999988));
#81 = CARTESIAN_POINT('', (1.91359274105531E-15, 4.7625, -0.476249999999988));
#82 = CARTESIAN_POINT('', (4.7625, 4.7625, -0.476249999999988));
#83 = CARTESIAN_POINT('', (4.7625, -5.04978731053851E-15, -0.47625));
#84 = CARTESIAN_POINT('', (4.7625, -4.76250000000001, -0.476250000000012));
#85 = CARTESIAN_POINT('', (-4.41122359629619E-15, -4.7625, -0.476250000000012));
#86 = CARTESIAN_POINT('', (-4.76250000000001, -4.7625, -0.476250000000012));
#87 = CARTESIAN_POINT('', (-4.7625, 1.85826706490691E-15, -0.47625));
#88 = CARTESIAN_POINT('', (-4.28625, 2.62457117142269E-16, 1.09476442525376E-46));
#89 = CARTESIAN_POINT('', (-4.28625, 4.28625, 1.09912079437891E-14));
#90 = CARTESIAN_POINT('', (1.56819002228304E-15, 4.28625, 1.09912079437891E-14));
#91 = CARTESIAN_POINT('', (4.28625, 4.28625, 1.09912079437891E-14));
#92 = CARTESIAN_POINT('', (4.28625, -5.95479182075861E-15, 9.76256213390072E-31));
#93 = CARTESIAN_POINT('', (4.28625, -4.28625000000001, -1.09912079437891E-14));
#94 = CARTESIAN_POINT('', (-4.12414468133331E-15, -4.28625, -1.09912079437891E-14));
#95 = CARTESIAN_POINT('', (-4.28625000000001, -4.28625, -1.09912079437891E-14));
#96 = CARTESIAN_POINT('', (-4.28625, 2.62457117142269E-16, 1.09476442525376E-46));
#97 = ADVANCED_FACE('', (#98), #101, .T.);
#98 = FACE_OUTER_BOUND('', #99, .T.);
#99 = EDGE_LOOP('', (#100));
#100 = ORIENTED_EDGE('', *, *, #64, .F.);
#101 = B_SPLINE_SURFACE_WITH_KNOTS('', 1, 1, ((#102, #103), (#104, #105)), .UNSPECIFIED., .F., .F., .U., (2, 2), (2, 2), (2.38159016989385, 10.9540901698938), (2.38159016989385, 10.9540901698938), .UNSPECIFIED.);
#102 = CARTESIAN_POINT('', (4.28625, -4.28625, -2.62457117142263E-16));
#103 = CARTESIAN_POINT('', (-4.28625, -4.28625, -1.44733118323442E-14));
#104 = CARTESIAN_POINT('', (4.28625, 4.28625, 1.44733118323443E-14));
#105 = CARTESIAN_POINT('', (-4.28625, 4.28625, 2.62457117142297E-16));
#106 = ADVANCED_FACE('', (#107), #118, .T.);
#107 = FACE_OUTER_BOUND('', #108, .T.);
#108 = EDGE_LOOP('', (#109, #115, #116, #117));
#109 = ORIENTED_EDGE('', *, *, #110, .T.);
#110 = EDGE_CURVE('', #8, #55, #111, .T.);
#111 = LINE('', #112, #113);
#112 = CARTESIAN_POINT('', (-4.7625, 3.75736946063397E-15, -56.6));
#113 = VECTOR('', #114, 56.12375);
#114 = DIRECTION('', (0., -3.43658853968231E-15, 56.12375));
#115 = ORIENTED_EDGE('', *, *, #72, .T.);
#116 = ORIENTED_EDGE('', *, *, #110, .F.);
#117 = ORIENTED_EDGE('', *, *, #17, .F.);
#118 = (
   BOUNDED_SURFACE ()
   B_SPLINE_SURFACE (1, 2, ((#119, #120, #121, #122, #123, #124, #125, #126, #127), (#128, #129, #130, #131, #132, #133, #134, #135, #136)), .UNSPECIFIED., .F., .T., .U.)
   B_SPLINE_SURFACE_WITH_KNOTS ((2, 2), (3, 2, 2, 2, 3), (0., 1.), (0., 7.4809175063607, 14.9618350127214, 22.4427525190821, 29.9236700254428), .UNSPECIFIED.)
   GEOMETRIC_REPRESENTATION_ITEM ()
   RATIONAL_B_SPLINE_SURFACE (((1., 0.707106781186548, 1., 0.707106781186548, 1., 0.707106781186548, 1., 0.707106781186548, 1.), (1., 0.707106781186548, 1., 0.707106781186548, 1., 0.707106781186548, 1., 0.707106781186548, 1.)))
   REPRESENTATION_ITEM ('')
   SURFACE ()
);
#119 = CARTESIAN_POINT('', (-4.7625, 1.3199816431143E-15, -56.6));
#120 = CARTESIAN_POINT('', (-4.7625, 4.7625, -56.6));
#121 = CARTESIAN_POINT('', (3.00969849882317E-16, 4.7625, -56.6));
#122 = CARTESIAN_POINT('', (4.7625, 4.7625, -56.6));
#123 = CARTESIAN_POINT('', (4.7625, -2.9265439517031E-16, -56.6));
#124 = CARTESIAN_POINT('', (4.7625, -4.7625, -56.6));
#125 = CARTESIAN_POINT('', (-7.28428150308368E-16, -4.7625, -56.6));
#126 = CARTESIAN_POINT('', (-4.7625, -4.7625, -56.6));
#127 = CARTESIAN_POINT('', (-4.7625, 1.3199816431143E-15, -56.6));
#128 = CARTESIAN_POINT('', (-4.7625, 3.2078092095166E-16, -0.47625));
#129 = CARTESIAN_POINT('', (-4.7625, 4.7625, -0.47625));
#130 = CARTESIAN_POINT('', (2.26348573896282E-15, 4.7625, -0.47625));
#131 = CARTESIAN_POINT('', (4.7625, 4.7625, -0.47625));
#132 = CARTESIAN_POINT('', (4.7625, -1.29185511733295E-15, -0.47625));
#133 = CARTESIAN_POINT('', (4.7625, -4.7625, -0.476250000000001));
#134 = CARTESIAN_POINT('', (1.23408773877214E-15, -4.7625, -0.47625));
#135 = CARTESIAN_POINT('', (-4.7625, -4.7625, -0.47625));
#136 = CARTESIAN_POINT('', (-4.7625, 3.2078092095166E-16, -0.47625));
#137 = ADVANCED_FACE('', (#138), #157, .T.);
#138 = FACE_OUTER_BOUND('', #139, .T.);
#139 = EDGE_LOOP('', (#140, #149, #155, #156));
#140 = ORIENTED_EDGE('', *, *, #141, .F.);
#141 = EDGE_CURVE('', #142, #142, #144, .T.);
#142 = VERTEX_POINT('', #143);
#143 = CARTESIAN_POINT('', (-3.97, 4.71458401501752E-15, -73.025));
#144 = CIRCLE('', #145, 3.97);
#145 = AXIS2_PLACEMENT_3D('', #146, #147, #148);
#146 = CARTESIAN_POINT('', (1.80411241501588E-16, 1.77635683940025E-15, -73.025));
#147 = DIRECTION('', (0., 0., -1.));
#148 = DIRECTION('', (-1., 7.40107600911151E-16, 0.));
#149 = ORIENTED_EDGE('', *, *, #150, .F.);
#150 = EDGE_CURVE('', #10, #142, #151, .T.);
#151 = LINE('', #152, #153);
#152 = CARTESIAN_POINT('', (-3.97, 3.74252061819431E-15, -57.15));
#153 = VECTOR('', #154, 15.875);
#154 = DIRECTION('', (0., 9.7206339682321E-16, -15.875));
#155 = ORIENTED_EDGE('', *, *, #25, .T.);
#156 = ORIENTED_EDGE('', *, *, #150, .T.);
#157 = (
   BOUNDED_SURFACE ()
   B_SPLINE_SURFACE (2, 1, ((#158, #159), (#160, #161), (#162, #163), (#164, #165), (#166, #167), (#168, #169), (#170, #171), (#172, #173), (#174, #175)), .UNSPECIFIED., .T., .F., .U.)
   B_SPLINE_SURFACE_WITH_KNOTS ((3, 2, 2, 2, 3), (2, 2), (0., 6.23606141737575, 12.4721228347515, 18.7081842521273, 24.944245669503), (0., 0.571454283657308), .UNSPECIFIED.)
   GEOMETRIC_REPRESENTATION_ITEM ()
   RATIONAL_B_SPLINE_SURFACE (((1., 1.), (0.707106781186548, 0.707106781186548), (1., 1.), (0.707106781186548, 0.707106781186548), (1., 1.), (0.707106781186548, 0.707106781186548), (1., 1.), (0.707106781186548, 0.707106781186548), (1., 1.)))
   REPRESENTATION_ITEM ('')
   SURFACE ()
);
#158 = CARTESIAN_POINT('', (-3.97, 3.74252061819431E-15, -57.15));
#159 = CARTESIAN_POINT('', (-3.96999999999997, 4.63069903789442E-15, -73.025));
#160 = CARTESIAN_POINT('', (-3.97, 3.97, -57.15));
#161 = CARTESIAN_POINT('', (-3.96999999999997, 3.97, -73.025));
#162 = CARTESIAN_POINT('', (2.34757184051496E-15, 3.97, -57.15));
#163 = CARTESIAN_POINT('', (3.07603323699648E-14, 3.97, -73.025));
#164 = CARTESIAN_POINT('', (3.97, 3.97, -57.15));
#165 = CARTESIAN_POINT('', (3.97000000000003, 3.97, -73.025));
#166 = CARTESIAN_POINT('', (3.97, -5.91800579832435E-16, -57.15));
#167 = CARTESIAN_POINT('', (3.97000000000003, 2.96377839867672E-16, -73.025));
#168 = CARTESIAN_POINT('', (3.97, -3.97, -57.15));
#169 = CARTESIAN_POINT('', (3.97000000000003, -3.97, -73.025));
#170 = CARTESIAN_POINT('', (-1.50056457825028E-15, -3.97, -57.15));
#171 = CARTESIAN_POINT('', (2.69121959511996E-14, -3.97, -73.025));
#172 = CARTESIAN_POINT('', (-3.97, -3.97, -57.15));
#173 = CARTESIAN_POINT('', (-3.96999999999997, -3.97, -73.025));
#174 = CARTESIAN_POINT('', (-3.97, 3.74252061819431E-15, -57.15));
#175 = CARTESIAN_POINT('', (-3.96999999999997, 4.63069903789442E-15, -73.025));
#176 = ADVANCED_FACE('', (#177), #180, .T.);
#177 = FACE_OUTER_BOUND('', #178, .T.);
#178 = EDGE_LOOP('', (#179));
#179 = ORIENTED_EDGE('', *, *, #141, .T.);
#180 = B_SPLINE_SURFACE_WITH_KNOTS('', 1, 1, ((#181, #182), (#183, #184)), .UNSPECIFIED., .F., .F., .U., (2, 2), (2, 2), (89.0063565339542, 96.9463565339542), (82.8831397763012, 90.8231397763012), .UNSPECIFIED.);
#181 = CARTESIAN_POINT('', (-3.97, 3.97, -73.025));
#182 = CARTESIAN_POINT('', (-3.97, -3.97, -73.025));
#183 = CARTESIAN_POINT('', (3.97, 3.97, -73.025));
#184 = CARTESIAN_POINT('', (3.97, -3.97, -73.025));
#185 = DRAUGHTING_MODEL('', (#193, #301, #341, #346, #351, #356, #361), #375);
#186 = PRESENTATION_STYLE_ASSIGNMENT((#187));
#187 = SURFACE_STYLE_USAGE(.POSITIVE., #188);
#188 = SURFACE_SIDE_STYLE('', (#189));
#189 = SURFACE_STYLE_FILL_AREA(#190);
#190 = FILL_AREA_STYLE('', (#191));
#191 = FILL_AREA_STYLE_COLOUR('', #192);
#192 = COLOUR_RGB('', 0.50196078431373, 0.50196078431373, 0.50196078431373);
#193 = STYLED_ITEM('', (#186), #1);
#194 = MANIFOLD_SOLID_BREP('CUT', #195);
#195 = CLOSED_SHELL('', (#196, #213, #252));
#196 = ADVANCED_FACE('', (#197), #208, .T.);
#197 = FACE_OUTER_BOUND('', #198, .T.);
#198 = EDGE_LOOP('', (#199));
#199 = ORIENTED_EDGE('', *, *, #200, .F.);
#200 = EDGE_CURVE('', #201, #201, #203, .T.);
#201 = VERTEX_POINT('', #202);
#202 = CARTESIAN_POINT('', (-3.97, 4.71458401501752E-15, -73.025));
#203 = CIRCLE('', #204, 3.97);
#204 = AXIS2_PLACEMENT_3D('', #205, #206, #207);
#205 = CARTESIAN_POINT('', (1.80411241501588E-16, 1.77635683940025E-15, -73.025));
#206 = DIRECTION('', (0., 0., -1.));
#207 = DIRECTION('', (-1., 7.40107600911151E-16, 0.));
#208 = B_SPLINE_SURFACE_WITH_KNOTS('', 1, 1, ((#209, #210), (#211, #212)), .UNSPECIFIED., .F., .F., .U., (2, 2), (2, 2), (82.8831397763012, 90.8231397763012), (89.0063565339542, 96.9463565339542), .UNSPECIFIED.);
#209 = CARTESIAN_POINT('', (-3.97, 3.96999999999999, -73.025));
#210 = CARTESIAN_POINT('', (3.97, 3.96999999999999, -73.025));
#211 = CARTESIAN_POINT('', (-3.97, -3.97, -73.025));
#212 = CARTESIAN_POINT('', (3.97, -3.97, -73.025));
#213 = ADVANCED_FACE('', (#214), #233, .T.);
#214 = FACE_OUTER_BOUND('', #215, .T.);
#215 = EDGE_LOOP('', (#216, #217, #225, #232));
#216 = ORIENTED_EDGE('', *, *, #200, .T.);
#217 = ORIENTED_EDGE('', *, *, #218, .T.);
#218 = EDGE_CURVE('', #201, #219, #221, .T.);
#219 = VERTEX_POINT('', #220);
#220 = CARTESIAN_POINT('', (-3.97, 5.44355502220998E-15, -84.93));
#221 = LINE('', #222, #223);
#222 = CARTESIAN_POINT('', (-3.97, 4.71458401501752E-15, -73.025));
#223 = VECTOR('', #224, 11.905);
#224 = DIRECTION('', (0., 7.2897100719246E-16, -11.905));
#225 = ORIENTED_EDGE('', *, *, #226, .F.);
#226 = EDGE_CURVE('', #219, #219, #227, .T.);
#227 = CIRCLE('', #228, 3.97);
#228 = AXIS2_PLACEMENT_3D('', #229, #230, #231);
#229 = CARTESIAN_POINT('', (-1.09634523681734E-15, 7.66053886991358E-15, -84.93));
#230 = DIRECTION('', (0., 0., -1.));
#231 = DIRECTION('', (-1., -5.58434218565139E-16, 0.));
#232 = ORIENTED_EDGE('', *, *, #218, .F.);
#233 = (
   BOUNDED_SURFACE ()
   B_SPLINE_SURFACE (2, 1, ((#234, #235), (#236, #237), (#238, #239), (#240, #241), (#242, #243), (#244, #245), (#246, #247), (#248, #249), (#250, #251)), .UNSPECIFIED., .T., .F., .U.)
   B_SPLINE_SURFACE_WITH_KNOTS ((3, 2, 2, 2, 3), (2, 2), (0., 6.23606141737575, 12.4721228347515, 18.7081842521273, 24.944245669503), (0.571454283657308, 1.), .UNSPECIFIED.)
   GEOMETRIC_REPRESENTATION_ITEM ()
   RATIONAL_B_SPLINE_SURFACE (((1., 1.), (0.707106781186548, 0.707106781186548), (1., 1.), (0.707106781186548, 0.707106781186548), (1., 1.), (0.707106781186548, 0.707106781186548), (1., 1.), (0.707106781186548, 0.707106781186548), (1., 1.)))
   REPRESENTATION_ITEM ('')
   SURFACE ()
);
#234 = CARTESIAN_POINT('', (-3.97, 4.71458401501752E-15, -73.025));
#235 = CARTESIAN_POINT('', (-3.97, 6.37991855195525E-15, -84.93));
#236 = CARTESIAN_POINT('', (-3.97, 3.97, -73.025));
#237 = CARTESIAN_POINT('', (-3.97, 3.97000000000001, -84.93));
#238 = CARTESIAN_POINT('', (2.3898234542146E-15, 3.97, -73.025));
#239 = CARTESIAN_POINT('', (2.3898234542146E-15, 3.97, -84.93));
#240 = CARTESIAN_POINT('', (3.97, 3.97, -73.025));
#241 = CARTESIAN_POINT('', (3.97, 3.97, -84.93));
#242 = CARTESIAN_POINT('', (3.97, 2.12492862744605E-16, -73.025));
#243 = CARTESIAN_POINT('', (3.97, 1.87782739968234E-15, -84.93));
#244 = CARTESIAN_POINT('', (3.97, -3.97, -73.025));
#245 = CARTESIAN_POINT('', (3.97, -3.97, -84.93));
#246 = CARTESIAN_POINT('', (-1.62608291879681E-15, -3.97, -73.025));
#247 = CARTESIAN_POINT('', (-1.62608291879681E-15, -3.97, -84.93));
#248 = CARTESIAN_POINT('', (-3.97, -3.97, -73.025));
#249 = CARTESIAN_POINT('', (-3.97, -3.96999999999999, -84.93));
#250 = CARTESIAN_POINT('', (-3.97, 4.71458401501752E-15, -73.025));
#251 = CARTESIAN_POINT('', (-3.97, 6.37991855195525E-15, -84.93));
#252 = ADVANCED_FACE('', (#253), #266, .T.);
#253 = FACE_OUTER_BOUND('', #254, .T.);
#254 = EDGE_LOOP('', (#255, #264, #265));
#255 = ORIENTED_EDGE('', *, *, #256, .F.);
#256 = EDGE_CURVE('', #219, #257, #259, .T.);
#257 = VERTEX_POINT('', #258);
#258 = CARTESIAN_POINT('', (7.29277168892249E-16, 5.44355502220999E-15, -88.9));
#259 = CIRCLE('', #260, 3.97);
#260 = AXIS2_PLACEMENT_3D('', #261, #262, #263);
#261 = CARTESIAN_POINT('', (7.105427357601E-15, 5.20046263257922E-15, -84.93));
#262 = DIRECTION('', (-6.1232339957371E-17, -1., -6.12323399573709E-17));
#263 = DIRECTION('', (-1., 6.1232339957371E-17, 0.));
#264 = ORIENTED_EDGE('', *, *, #226, .T.);
#265 = ORIENTED_EDGE('', *, *, #256, .T.);
#266 = (
   BOUNDED_SURFACE ()
   B_SPLINE_SURFACE (2, 2, ((#267, #268, #269), (#270, #271, #272), (#273, #274, #275), (#276, #277, #278), (#279, #280, #281), (#282, #283, #284), (#285, #286, #287), (#288, #289, #290), (#291, #292, #293)), .UNSPECIFIED., .T., .F., .U.)
   B_SPLINE_SURFACE_WITH_KNOTS ((3, 2, 2, 2, 3), (3, 3), (0., 0.25, 0.5, 0.75, 1.), (0., 1.), .UNSPECIFIED.)
   GEOMETRIC_REPRESENTATION_ITEM ()
   RATIONAL_B_SPLINE_SURFACE (((1., 0.707106781186548, 1.), (0.707106781186548, 0.5, 0.707106781186548), (1., 0.707106781186548, 1.), (0.707106781186548, 0.5, 0.707106781186548), (1., 0.707106781186548, 1.), (0.707106781186548, 0.5, 0.707106781186548), (1., 0.707106781186548, 1.), (0.707106781186548, 0.5, 0.707106781186548), (1., 0.707106781186548, 1.)))
   REPRESENTATION_ITEM ('')
   SURFACE ()
);
#267 = CARTESIAN_POINT('', (-3.97, 5.44355502220998E-15, -84.93));
#268 = CARTESIAN_POINT('', (-3.97, 5.68664741184074E-15, -88.9));
#269 = CARTESIAN_POINT('', (7.29277168892249E-16, 5.44355502220999E-15, -88.9));
#270 = CARTESIAN_POINT('', (-3.97, 3.96999999999998, -84.93));
#271 = CARTESIAN_POINT('', (-3.97, 3.96999999999998, -88.9));
#272 = CARTESIAN_POINT('', (7.29277168892249E-16, 5.44355502220999E-15, -88.9));
#273 = CARTESIAN_POINT('', (-2.39808173319034E-14, 3.96999999999998, -84.93));
#274 = CARTESIAN_POINT('', (-2.37377249422726E-14, 3.96999999999998, -88.9));
#275 = CARTESIAN_POINT('', (7.29277168892249E-16, 5.44355502220999E-15, -88.9));
#276 = CARTESIAN_POINT('', (3.96999999999995, 3.96999999999998, -84.93));
#277 = CARTESIAN_POINT('', (3.96999999999995, 3.96999999999998, -88.9));
#278 = CARTESIAN_POINT('', (7.29277168892249E-16, 5.44355502220999E-15, -88.9));
#279 = CARTESIAN_POINT('', (3.96999999999995, 5.44355502220999E-15, -84.93));
#280 = CARTESIAN_POINT('', (3.96999999999995, 5.20046263257923E-15, -88.9));
#281 = CARTESIAN_POINT('', (7.29277168892249E-16, 5.44355502220999E-15, -88.9));
#282 = CARTESIAN_POINT('', (3.96999999999995, -3.96999999999997, -84.93));
#283 = CARTESIAN_POINT('', (3.96999999999995, -3.96999999999997, -88.9));
#284 = CARTESIAN_POINT('', (7.29277168892249E-16, 5.44355502220999E-15, -88.9));
#285 = CARTESIAN_POINT('', (-2.34946325526419E-14, -3.96999999999997, -84.93));
#286 = CARTESIAN_POINT('', (-2.37377249422726E-14, -3.96999999999997, -88.9));
#287 = CARTESIAN_POINT('', (7.29277168892249E-16, 5.44355502220999E-15, -88.9));
#288 = CARTESIAN_POINT('', (-3.97, -3.96999999999997, -84.93));
#289 = CARTESIAN_POINT('', (-3.97, -3.96999999999997, -88.9));
#290 = CARTESIAN_POINT('', (7.29277168892249E-16, 5.44355502220999E-15, -88.9));
#291 = CARTESIAN_POINT('', (-3.97, 5.44355502220998E-15, -84.93));
#292 = CARTESIAN_POINT('', (-3.97, 5.68664741184074E-15, -88.9));
#293 = CARTESIAN_POINT('', (7.29277168892249E-16, 5.44355502220999E-15, -88.9));
#294 = PRESENTATION_STYLE_ASSIGNMENT((#295));
#295 = SURFACE_STYLE_USAGE(.POSITIVE., #296);
#296 = SURFACE_SIDE_STYLE('', (#297));
#297 = SURFACE_STYLE_FILL_AREA(#298);
#298 = FILL_AREA_STYLE('', (#299));
#299 = FILL_AREA_STYLE_COLOUR('', #300);
#300 = COLOUR_RGB('', 0.8, 0.8, 0.8);
#301 = STYLED_ITEM('', (#294), #194);
#302 = TRIMMED_CURVE('cutting part line', #303, (#307), (#308), .T., .CARTESIAN.);
#303 = LINE('', #304, #305);
#304 = CARTESIAN_POINT('', (-8.21399685966615E-31, -4.47149162538677E-15, -73.025));
#305 = VECTOR('', #306, 3.97);
#306 = DIRECTION('', (3.97, -7.2927716889225E-16, 0.));
#307 = CARTESIAN_POINT('', (-8.21399685966615E-31, -4.47149162538677E-15, -73.025));
#308 = CARTESIAN_POINT('', (3.97, -5.20076879427902E-15, -73.025));
#309 = TRIMMED_CURVE('cutting part line', #310, (#314), (#315), .T., .CARTESIAN.);
#310 = LINE('', #311, #312);
#311 = CARTESIAN_POINT('', (3.97, -5.20076879427902E-15, -73.025));
#312 = VECTOR('', #313, 11.905);
#313 = DIRECTION('', (0., -7.2897100719246E-16, -11.905));
#314 = CARTESIAN_POINT('', (3.97, -5.20076879427902E-15, -73.025));
#315 = CARTESIAN_POINT('', (3.97, -5.92973980147148E-15, -84.93));
#316 = TRIMMED_CURVE('cutting part line', #317, (#322), (#323), .T., .CARTESIAN.);
#317 = CIRCLE('', #318, 3.96999999999999);
#318 = AXIS2_PLACEMENT_3D('', #319, #320, #321);
#319 = CARTESIAN_POINT('', (2.17603712826531E-14, -5.20046263257923E-15, -84.93));
#320 = DIRECTION('', (1.83697019872104E-16, 1., -6.12323399573684E-17));
#321 = DIRECTION('', (1., -1.83697019872104E-16, 0.));
#322 = CARTESIAN_POINT('', (3.97000000000001, -5.92973980147148E-15, -84.93));
#323 = CARTESIAN_POINT('', (-1.79749752963021E-15, -5.44355502220998E-15, -88.9));
#324 = TRIMMED_CURVE('cutting part line', #325, (#329), (#330), .T., .CARTESIAN.);
#325 = LINE('', #326, #327);
#326 = CARTESIAN_POINT('', (-9.99964835089794E-31, -5.44355502220999E-15, -88.9));
#327 = VECTOR('', #328, 15.875);
#328 = DIRECTION('', (1.78565149123179E-31, 9.7206339682322E-16, 15.875));
#329 = CARTESIAN_POINT('', (-9.99964835089794E-31, -5.44355502220999E-15, -88.9));
#330 = CARTESIAN_POINT('', (-8.21399685966615E-31, -4.47149162538677E-15, -73.025));
#331 = COMPOSITE_CURVE('cutting part line', (#332, #333, #334, #335), .U.);
#332 = COMPOSITE_CURVE_SEGMENT(.CONTINUOUS., .T., #302);
#333 = COMPOSITE_CURVE_SEGMENT(.CONTINUOUS., .T., #309);
#334 = COMPOSITE_CURVE_SEGMENT(.CONTINUOUS., .T., #316);
#335 = COMPOSITE_CURVE_SEGMENT(.CONTINUOUS., .T., #324);
#336 = GEOMETRIC_SET('', (#331, #374));
#337 = PRESENTATION_STYLE_ASSIGNMENT((#338));
#338 = CURVE_STYLE('', #340, POSITIVE_LENGTH_MEASURE(1.E-6), #339);
#339 = COLOUR_RGB('', 0., 0., 1.);
#340 = DRAUGHTING_PRE_DEFINED_CURVE_FONT('continuous');
#341 = STYLED_ITEM('', (#337), #331);
#342 = PRESENTATION_STYLE_ASSIGNMENT((#343));
#343 = CURVE_STYLE('', #345, POSITIVE_LENGTH_MEASURE(1.E-6), #344);
#344 = COLOUR_RGB('', 0., 0., 1.);
#345 = DRAUGHTING_PRE_DEFINED_CURVE_FONT('continuous');
#346 = OVER_RIDING_STYLED_ITEM('', (#342), #302, #341);
#347 = PRESENTATION_STYLE_ASSIGNMENT((#348));
#348 = CURVE_STYLE('', #350, POSITIVE_LENGTH_MEASURE(1.E-6), #349);
#349 = COLOUR_RGB('', 0., 0., 1.);
#350 = DRAUGHTING_PRE_DEFINED_CURVE_FONT('continuous');
#351 = OVER_RIDING_STYLED_ITEM('', (#347), #309, #341);
#352 = PRESENTATION_STYLE_ASSIGNMENT((#353));
#353 = CURVE_STYLE('', #355, POSITIVE_LENGTH_MEASURE(1.E-6), #354);
#354 = COLOUR_RGB('', 0., 0., 1.);
#355 = DRAUGHTING_PRE_DEFINED_CURVE_FONT('continuous');
#356 = OVER_RIDING_STYLED_ITEM('', (#352), #316, #341);
#357 = PRESENTATION_STYLE_ASSIGNMENT((#358));
#358 = CURVE_STYLE('', #360, POSITIVE_LENGTH_MEASURE(1.E-6), #359);
#359 = COLOUR_RGB('', 0., 0., 1.);
#360 = DRAUGHTING_PRE_DEFINED_CURVE_FONT('continuous');
#361 = OVER_RIDING_STYLED_ITEM('', (#357), #324, #341);
#362 = AXIS2_PLACEMENT_3D('CIP', #363, #364, #365);
#363 = CARTESIAN_POINT('', (3.33321611696598E-31, 5.44355502220998E-15, -88.9));
#364 = DIRECTION('', (-3.74939945665465E-33, -6.12323399573677E-17, 1.));
#365 = DIRECTION('', (1., -6.12323399573677E-17, 0.));
#366 = AXIS2_PLACEMENT_3D('MCS', #367, #368, #369);
#367 = CARTESIAN_POINT('', (1.34978380439567E-31, 2.20436423846524E-15, -36.));
#368 = DIRECTION('', (-3.74939945665465E-33, -6.12323399573677E-17, 1.));
#369 = DIRECTION('', (1., -6.12323399573677E-17, 0.));
#370 = AXIS2_PLACEMENT_3D('PCS', #371, #372, #373);
#371 = CARTESIAN_POINT('', (0., 0., 0.));
#372 = DIRECTION('', (0., 0., 1.));
#373 = DIRECTION('', (1., 0., 0.));
#374 = CARTESIAN_POINT('CRP', (3.97, 0., -88.9));
#375 = (
   GEOMETRIC_REPRESENTATION_CONTEXT (3)
   GLOBAL_UNCERTAINTY_ASSIGNED_CONTEXT ((#377))
   GLOBAL_UNIT_ASSIGNED_CONTEXT ((#376, #378, #379))
   REPRESENTATION_CONTEXT ('', '3D')
);
#376 = (
   LENGTH_UNIT ()
   NAMED_UNIT (*)
   SI_UNIT (.MILLI., .METRE.)
);
#377 = UNCERTAINTY_MEASURE_WITH_UNIT(LENGTH_MEASURE(1.E-6), #376, 'DISTANCE_ACCURACY_VALUE', '');
#378 = (
   NAMED_UNIT (*)
   SI_UNIT ($, .STERADIAN.)
   SOLID_ANGLE_UNIT ()
);
#379 = (
   NAMED_UNIT (*)
   PLANE_ANGLE_UNIT ()
   SI_UNIT ($, .RADIAN.)
);
#380 = SHAPE_REPRESENTATION('', (), #375);
#381 = PRODUCT_DEFINITION_SHAPE('', '', #382);
#382 = PRODUCT_DEFINITION('', '', #385, #389);
#383 = APPLICATION_CONTEXT('configuration controlled 3D designs of mechanical parts and assemblies');
#384 = APPLICATION_PROTOCOL_DEFINITION('International Standard', 'automotive_design', 2002, #383);
#385 = PRODUCT_DEFINITION_FORMATION_WITH_SPECIFIED_SOURCE('', '', #386, .NOT_KNOWN.);
#386 = PRODUCT('EmptyName', 'EmptyName', '', (#387));
#387 = PRODUCT_CONTEXT('', #383, 'mechanical');
#388 = PRODUCT_RELATED_PRODUCT_CATEGORY('detail', '', (#386));
#389 = PRODUCT_DEFINITION_CONTEXT('part definition', #383, 'design');
#390 = SHAPE_DEFINITION_REPRESENTATION(#381, #380);
#391 = CONSTRUCTIVE_GEOMETRY_REPRESENTATION('supplemental geometry', (#362, #366, #370), #375);
#392 = CONSTRUCTIVE_GEOMETRY_REPRESENTATION_RELATIONSHIP('', '', #380, #391);
#393 = SHAPE_REPRESENTATION_RELATIONSHIP('', '', #380, #394);
#394 = SHAPE_REPRESENTATION('', (#336), #375);
#395 = SHAPE_REPRESENTATION_RELATIONSHIP('', '', #380, #396);
#396 = ADVANCED_BREP_SHAPE_REPRESENTATION('', (#1, #194), #375);
ENDSEC;
END-ISO-10303-21;
