ISO-10303-21;
HEADER;
FILE_DESCRIPTION(('STEP'), '1');
FILE_NAME('C:\\Users\\ds2002\\OneDrive - Sandvik\\HomeShare\\Documents\\Batchrepair\\CorSRT2\\NEW_MILBN_SLD\\Output2\\MOD000000000000000020084960500000.stp', '2018-11-23T12:39:30', (''), (''), 'Express v3.0.0.0', 'Express Tool', 'Unknown');
FILE_SCHEMA(('AUTOMOTIVE_DESIGN'));
ENDSEC;

DATA;
#1 = MANIFOLD_SOLID_BREP('NOCUT', #2);
#2 = CLOSED_SHELL('', (#3, #50, #97, #106, #137, #176));
#3 = ADVANCED_FACE('', (#4), #31, .T.);
#4 = FACE_OUTER_BOUND('', #5, .T.);
#5 = EDGE_LOOP('', (#6, #16, #23, #24));
#6 = ORIENTED_EDGE('', *, *, #7, .F.);
#7 = EDGE_CURVE('', #8, #10, #12, .T.);
#8 = VERTEX_POINT('', #9);
#9 = CARTESIAN_POINT('', (-3.175, 3.61117724898576E-15, -55.8));
#10 = VERTEX_POINT('', #11);
#11 = CARTESIAN_POINT('', (-2.38, 3.6451611976621E-15, -57.15));
#12 = LINE('', #13, #14);
#13 = CARTESIAN_POINT('', (-3.175, 3.61117724898576E-15, -55.8));
#14 = VECTOR('', #15, 1.56669237567558);
#15 = DIRECTION('', (0.795, 3.39839486763402E-17, -1.35));
#16 = ORIENTED_EDGE('', *, *, #17, .T.);
#17 = EDGE_CURVE('', #8, #8, #18, .T.);
#18 = CIRCLE('', #19, 3.175);
#19 = AXIS2_PLACEMENT_3D('', #20, #21, #22);
#20 = CARTESIAN_POINT('', (5.82867087928207E-16, 2.60902410786912E-15, -55.8));
#21 = DIRECTION('', (0., 0., -1.));
#22 = DIRECTION('', (-1., 3.15638784603667E-16, 0.));
#23 = ORIENTED_EDGE('', *, *, #7, .T.);
#24 = ORIENTED_EDGE('', *, *, #25, .F.);
#25 = EDGE_CURVE('', #10, #10, #26, .T.);
#26 = CIRCLE('', #27, 2.38);
#27 = AXIS2_PLACEMENT_3D('', #28, #29, #30);
#28 = CARTESIAN_POINT('', (2.4980018054066E-16, 5.55111512312578E-16, -57.15));
#29 = DIRECTION('', (0., 0., -1.));
#30 = DIRECTION('', (-1., 1.29834020392837E-15, 0.));
#31 = (
   BOUNDED_SURFACE ()
   B_SPLINE_SURFACE (2, 1, ((#32, #33), (#34, #35), (#36, #37), (#38, #39), (#40, #41), (#42, #43), (#44, #45), (#46, #47), (#48, #49)), .UNSPECIFIED., .T., .F., .U.)
   B_SPLINE_SURFACE_WITH_KNOTS ((3, 2, 2, 2, 3), (2, 2), (0., 0.25, 0.5, 0.75, 1.), (0., 1.), .UNSPECIFIED.)
   GEOMETRIC_REPRESENTATION_ITEM ()
   RATIONAL_B_SPLINE_SURFACE (((1., 1.), (0.707106781186548, 0.707106781186548), (1., 1.), (0.707106781186548, 0.707106781186548), (1., 1.), (0.707106781186548, 0.707106781186548), (1., 1.), (0.707106781186548, 0.707106781186548), (1., 1.)))
   REPRESENTATION_ITEM ('')
   SURFACE ()
);
#32 = CARTESIAN_POINT('', (-3.175, 3.61117724898576E-15, -55.8));
#33 = CARTESIAN_POINT('', (-2.38, 5.3851338576977E-15, -57.15));
#34 = CARTESIAN_POINT('', (-3.175, 3.175, -55.8));
#35 = CARTESIAN_POINT('', (-2.38, 2.38000000000001, -57.15));
#36 = CARTESIAN_POINT('', (4.47147644301502E-15, 3.175, -55.8));
#37 = CARTESIAN_POINT('', (3.46304404919891E-15, 2.38, -57.15));
#38 = CARTESIAN_POINT('', (3.175, 3.175, -55.8));
#39 = CARTESIAN_POINT('', (2.38, 2.38, -57.15));
#40 = CARTESIAN_POINT('', (3.175, -4.44359721734415E-15, -55.8));
#41 = CARTESIAN_POINT('', (2.38, -6.52775820999999E-16, -57.15));
#42 = CARTESIAN_POINT('', (3.175, -3.175, -55.8));
#43 = CARTESIAN_POINT('', (2.38, -2.38, -57.15));
#44 = CARTESIAN_POINT('', (-3.19447266458561E-15, -3.175, -55.8));
#45 = CARTESIAN_POINT('', (-2.28339969130171E-15, -2.38, -57.15));
#46 = CARTESIAN_POINT('', (-3.175, -3.175, -55.8));
#47 = CARTESIAN_POINT('', (-2.38, -2.38, -57.15));
#48 = CARTESIAN_POINT('', (-3.175, 3.61117724898576E-15, -55.8));
#49 = CARTESIAN_POINT('', (-2.38, 5.3851338576977E-15, -57.15));
#50 = ADVANCED_FACE('', (#51), #78, .T.);
#51 = FACE_OUTER_BOUND('', #52, .T.);
#52 = EDGE_LOOP('', (#53, #63, #70, #71));
#53 = ORIENTED_EDGE('', *, *, #54, .T.);
#54 = EDGE_CURVE('', #55, #57, #59, .T.);
#55 = VERTEX_POINT('', #56);
#56 = CARTESIAN_POINT('', (-3.175, 2.13853947301107E-16, -0.317500000000003));
#57 = VERTEX_POINT('', #58);
#58 = CARTESIAN_POINT('', (-2.8575, 1.74971411428178E-16, 0.));
#59 = LINE('', #60, #61);
#60 = CARTESIAN_POINT('', (-3.175, 2.13853947301107E-16, -0.317500000000003));
#61 = VECTOR('', #62, 0.44901280605346);
#62 = DIRECTION('', (0.3175, -3.8882535872929E-17, 0.317500000000003));
#63 = ORIENTED_EDGE('', *, *, #64, .T.);
#64 = EDGE_CURVE('', #57, #57, #65, .T.);
#65 = CIRCLE('', #66, 2.8575);
#66 = AXIS2_PLACEMENT_3D('', #67, #68, #69);
#67 = CARTESIAN_POINT('', (-3.46944695195361E-16, -6.66133814775094E-16, -2.77333911991762E-32));
#68 = DIRECTION('', (8.31826769960494E-33, 6.12323399573676E-17, -1.));
#69 = DIRECTION('', (-1., 2.94350035416718E-16, 9.70547373549474E-33));
#70 = ORIENTED_EDGE('', *, *, #54, .F.);
#71 = ORIENTED_EDGE('', *, *, #72, .F.);
#72 = EDGE_CURVE('', #55, #55, #73, .T.);
#73 = CIRCLE('', #74, 3.17500000000001);
#74 = AXIS2_PLACEMENT_3D('', #75, #76, #77);
#75 = CARTESIAN_POINT('', (5.41233724504764E-16, 4.9960036108132E-16, -0.317500000000003));
#76 = DIRECTION('', (5.24514814783537E-17, 7.87931949724616E-18, -1.));
#77 = DIRECTION('', (-1., -3.34928230311427E-16, -5.24514814783537E-17));
#78 = (
   BOUNDED_SURFACE ()
   B_SPLINE_SURFACE (1, 2, ((#79, #80, #81, #82, #83, #84, #85, #86, #87), (#88, #89, #90, #91, #92, #93, #94, #95, #96)), .UNSPECIFIED., .F., .T., .U.)
   B_SPLINE_SURFACE_WITH_KNOTS ((2, 2), (3, 2, 2, 2, 3), (0., 1.), (0., 0.25, 0.5, 0.75, 1.), .UNSPECIFIED.)
   GEOMETRIC_REPRESENTATION_ITEM ()
   RATIONAL_B_SPLINE_SURFACE (((1., 0.707106781186548, 1., 0.707106781186548, 1., 0.707106781186548, 1., 0.707106781186548, 1.), (1., 0.707106781186548, 1., 0.707106781186548, 1., 0.707106781186548, 1., 0.707106781186548, 1.)))
   REPRESENTATION_ITEM ('')
   SURFACE ()
);
#79 = CARTESIAN_POINT('', (-3.175, -6.87597834643122E-16, -0.317500000000003));
#80 = CARTESIAN_POINT('', (-3.175, 3.175, -0.317500000000012));
#81 = CARTESIAN_POINT('', (1.74089138166917E-15, 3.175, -0.317500000000012));
#82 = CARTESIAN_POINT('', (3.175, 3.175, -0.317500000000012));
#83 = CARTESIAN_POINT('', (3.175, -1.92117897311552E-15, -0.317500000000003));
#84 = CARTESIAN_POINT('', (3.175, -3.175, -0.317499999999993));
#85 = CARTESIAN_POINT('', (8.96135601926058E-16, -3.175, -0.317499999999993));
#86 = CARTESIAN_POINT('', (-3.175, -3.175, -0.317499999999993));
#87 = CARTESIAN_POINT('', (-3.175, -6.87597834643122E-16, -0.317500000000003));
#88 = CARTESIAN_POINT('', (-2.8575, 1.74971411428178E-16, 0.));
#89 = CARTESIAN_POINT('', (-2.8575, 2.8575, -8.49320613838237E-15));
#90 = CARTESIAN_POINT('', (1.67921232474555E-15, 2.8575, -8.49320613838237E-15));
#91 = CARTESIAN_POINT('', (2.8575, 2.8575, -8.49320613838237E-15));
#92 = CARTESIAN_POINT('', (2.8575, -9.35251613196978E-16, -1.09558455358522E-30));
#93 = CARTESIAN_POINT('', (2.8575, -2.8575, 8.49320613838237E-15));
#94 = CARTESIAN_POINT('', (9.18932122976749E-16, -2.8575, 8.49320613838237E-15));
#95 = CARTESIAN_POINT('', (-2.8575, -2.8575, 8.49320613838237E-15));
#96 = CARTESIAN_POINT('', (-2.8575, 1.74971411428178E-16, 0.));
#97 = ADVANCED_FACE('', (#98), #101, .T.);
#98 = FACE_OUTER_BOUND('', #99, .T.);
#99 = EDGE_LOOP('', (#100));
#100 = ORIENTED_EDGE('', *, *, #64, .F.);
#101 = B_SPLINE_SURFACE_WITH_KNOTS('', 1, 1, ((#102, #103), (#104, #105)), .UNSPECIFIED., .F., .F., .U., (2, 2), (2, 2), (1.58772677992923, 7.30272677992923), (1.58772677992923, 7.30272677992923), .UNSPECIFIED.);
#102 = CARTESIAN_POINT('', (2.8575, -2.8575, 6.93045594617286E-15));
#103 = CARTESIAN_POINT('', (-2.8575, -2.8575, -7.28039876902917E-15));
#104 = CARTESIAN_POINT('', (2.8575, 2.8575, 7.28039876902922E-15));
#105 = CARTESIAN_POINT('', (-2.8575, 2.8575, -6.93045594617282E-15));
#106 = ADVANCED_FACE('', (#107), #118, .T.);
#107 = FACE_OUTER_BOUND('', #108, .T.);
#108 = EDGE_LOOP('', (#109, #115, #116, #117));
#109 = ORIENTED_EDGE('', *, *, #110, .T.);
#110 = EDGE_CURVE('', #8, #55, #111, .T.);
#111 = LINE('', #112, #113);
#112 = CARTESIAN_POINT('', (-3.175, 3.61117724898576E-15, -55.8));
#113 = VECTOR('', #114, 55.4825);
#114 = DIRECTION('', (0., -3.39732330168465E-15, 55.4825));
#115 = ORIENTED_EDGE('', *, *, #72, .T.);
#116 = ORIENTED_EDGE('', *, *, #110, .F.);
#117 = ORIENTED_EDGE('', *, *, #17, .F.);
#118 = (
   BOUNDED_SURFACE ()
   B_SPLINE_SURFACE (1, 2, ((#119, #120, #121, #122, #123, #124, #125, #126, #127), (#128, #129, #130, #131, #132, #133, #134, #135, #136)), .UNSPECIFIED., .F., .T., .U.)
   B_SPLINE_SURFACE_WITH_KNOTS ((2, 2), (3, 2, 2, 2, 3), (0., 1.), (0., 4.9872783375738, 9.97455667514761, 14.9618350127214, 19.9491133502952), .UNSPECIFIED.)
   GEOMETRIC_REPRESENTATION_ITEM ()
   RATIONAL_B_SPLINE_SURFACE (((1., 0.707106781186548, 1., 0.707106781186548, 1., 0.707106781186548, 1., 0.707106781186548, 1.), (1., 0.707106781186548, 1., 0.707106781186548, 1., 0.707106781186548, 1., 0.707106781186548, 1.)))
   REPRESENTATION_ITEM ('')
   SURFACE ()
);
#119 = CARTESIAN_POINT('', (-3.175, 3.43350071871406E-15, -55.8));
#120 = CARTESIAN_POINT('', (-3.17499999999999, 3.175, -55.8));
#121 = CARTESIAN_POINT('', (6.73209444840039E-15, 3.175, -55.8));
#122 = CARTESIAN_POINT('', (3.17500000000001, 3.175, -55.8));
#123 = CARTESIAN_POINT('', (3.175, -1.26831852058453E-15, -55.8));
#124 = CARTESIAN_POINT('', (3.175, -3.175, -55.8));
#125 = CARTESIAN_POINT('', (2.41910056783109E-15, -3.175, -55.8));
#126 = CARTESIAN_POINT('', (-3.175, -3.175, -55.8));
#127 = CARTESIAN_POINT('', (-3.175, 3.43350071871406E-15, -55.8));
#128 = CARTESIAN_POINT('', (-3.175, 2.13853947301106E-16, -0.317500000000003));
#129 = CARTESIAN_POINT('', (-3.175, 3.175, -0.317500000000003));
#130 = CARTESIAN_POINT('', (3.82195512727762E-15, 3.175, -0.317500000000003));
#131 = CARTESIAN_POINT('', (3.175, 3.175, -0.317500000000003));
#132 = CARTESIAN_POINT('', (3.175, -4.48796529199748E-15, -0.317500000000003));
#133 = CARTESIAN_POINT('', (3.175, -3.175, -0.317500000000003));
#134 = CARTESIAN_POINT('', (-4.91038753291676E-16, -3.175, -0.317500000000003));
#135 = CARTESIAN_POINT('', (-3.175, -3.175, -0.317500000000003));
#136 = CARTESIAN_POINT('', (-3.175, 2.13853947301106E-16, -0.317500000000003));
#137 = ADVANCED_FACE('', (#138), #157, .T.);
#138 = FACE_OUTER_BOUND('', #139, .T.);
#139 = EDGE_LOOP('', (#140, #149, #155, #156));
#140 = ORIENTED_EDGE('', *, *, #141, .F.);
#141 = EDGE_CURVE('', #142, #142, #144, .T.);
#142 = VERTEX_POINT('', #143);
#143 = CARTESIAN_POINT('', (-2.38, 4.22839923575602E-15, -66.675));
#144 = CIRCLE('', #145, 2.38);
#145 = AXIS2_PLACEMENT_3D('', #146, #147, #148);
#146 = CARTESIAN_POINT('', (-2.08166817117217E-16, 9.99200722162641E-16, -66.675));
#147 = DIRECTION('', (0., 0., -1.));
#148 = DIRECTION('', (-1., 1.35680609814848E-15, 0.));
#149 = ORIENTED_EDGE('', *, *, #150, .F.);
#150 = EDGE_CURVE('', #10, #142, #151, .T.);
#151 = LINE('', #152, #153);
#152 = CARTESIAN_POINT('', (-2.38, 3.6451611976621E-15, -57.15));
#153 = VECTOR('', #154, 9.525);
#154 = DIRECTION('', (0., 5.8323803809392E-16, -9.525));
#155 = ORIENTED_EDGE('', *, *, #25, .T.);
#156 = ORIENTED_EDGE('', *, *, #150, .T.);
#157 = (
   BOUNDED_SURFACE ()
   B_SPLINE_SURFACE (2, 1, ((#158, #159), (#160, #161), (#162, #163), (#164, #165), (#166, #167), (#168, #169), (#170, #171), (#172, #173), (#174, #175)), .UNSPECIFIED., .T., .F., .U.)
   B_SPLINE_SURFACE_WITH_KNOTS ((3, 2, 2, 2, 3), (2, 2), (0., 3.73849525777185, 7.4769905155437, 11.2154857733156, 14.9539810310874), (0., 0.571385722855429), .UNSPECIFIED.)
   GEOMETRIC_REPRESENTATION_ITEM ()
   RATIONAL_B_SPLINE_SURFACE (((1., 1.), (0.707106781186548, 0.707106781186548), (1., 1.), (0.707106781186548, 0.707106781186548), (1., 1.), (0.707106781186548, 0.707106781186548), (1., 1.), (0.707106781186548, 0.707106781186548), (1., 1.)))
   REPRESENTATION_ITEM ('')
   SURFACE ()
);
#158 = CARTESIAN_POINT('', (-2.38, 3.6451611976621E-15, -57.15));
#159 = CARTESIAN_POINT('', (-2.38, 3.09004968534952E-15, -66.675));
#160 = CARTESIAN_POINT('', (-2.38, 2.38, -57.15));
#161 = CARTESIAN_POINT('', (-2.38, 2.38, -66.675));
#162 = CARTESIAN_POINT('', (2.79781457150611E-16, 2.38, -57.15));
#163 = CARTESIAN_POINT('', (2.79781457150611E-16, 2.38, -66.675));
#164 = CARTESIAN_POINT('', (2.38, 2.38, -57.15));
#165 = CARTESIAN_POINT('', (2.38, 2.38, -66.675));
#166 = CARTESIAN_POINT('', (2.38, 2.19741986366075E-15, -57.15));
#167 = CARTESIAN_POINT('', (2.38, 1.64230835134817E-15, -66.675));
#168 = CARTESIAN_POINT('', (2.38, -2.38, -57.15));
#169 = CARTESIAN_POINT('', (2.38, -2.38, -66.675));
#170 = CARTESIAN_POINT('', (-8.76493938653667E-16, -2.38, -57.15));
#171 = CARTESIAN_POINT('', (-8.76493938653667E-16, -2.38, -66.675));
#172 = CARTESIAN_POINT('', (-2.38, -2.38, -57.15));
#173 = CARTESIAN_POINT('', (-2.38, -2.38, -66.675));
#174 = CARTESIAN_POINT('', (-2.38, 3.6451611976621E-15, -57.15));
#175 = CARTESIAN_POINT('', (-2.38, 3.09004968534952E-15, -66.675));
#176 = ADVANCED_FACE('', (#177), #180, .T.);
#177 = FACE_OUTER_BOUND('', #178, .T.);
#178 = EDGE_LOOP('', (#179));
#179 = ORIENTED_EDGE('', *, *, #141, .T.);
#180 = B_SPLINE_SURFACE_WITH_KNOTS('', 1, 1, ((#181, #182), (#183, #184)), .UNSPECIFIED., .F., .F., .U., (2, 2), (2, 2), (76.7285970217083, 81.4885970217083), (71.966094125875, 76.726094125875), .UNSPECIFIED.);
#181 = CARTESIAN_POINT('', (-2.37999999999999, 2.38, -66.675));
#182 = CARTESIAN_POINT('', (-2.37999999999999, -2.38, -66.675));
#183 = CARTESIAN_POINT('', (2.38, 2.38, -66.675));
#184 = CARTESIAN_POINT('', (2.38, -2.38, -66.675));
#185 = DRAUGHTING_MODEL('', (#193, #301, #341, #346, #351, #356, #361), #375);
#186 = PRESENTATION_STYLE_ASSIGNMENT((#187));
#187 = SURFACE_STYLE_USAGE(.POSITIVE., #188);
#188 = SURFACE_SIDE_STYLE('', (#189));
#189 = SURFACE_STYLE_FILL_AREA(#190);
#190 = FILL_AREA_STYLE('', (#191));
#191 = FILL_AREA_STYLE_COLOUR('', #192);
#192 = COLOUR_RGB('', 0.50196078431373, 0.50196078431373, 0.50196078431373);
#193 = STYLED_ITEM('', (#186), #1);
#194 = MANIFOLD_SOLID_BREP('CUT', #195);
#195 = CLOSED_SHELL('', (#196, #213, #252));
#196 = ADVANCED_FACE('', (#197), #208, .T.);
#197 = FACE_OUTER_BOUND('', #198, .T.);
#198 = EDGE_LOOP('', (#199));
#199 = ORIENTED_EDGE('', *, *, #200, .F.);
#200 = EDGE_CURVE('', #201, #201, #203, .T.);
#201 = VERTEX_POINT('', #202);
#202 = CARTESIAN_POINT('', (-2.38, 4.22839923575602E-15, -66.675));
#203 = CIRCLE('', #204, 2.38);
#204 = AXIS2_PLACEMENT_3D('', #205, #206, #207);
#205 = CARTESIAN_POINT('', (-2.08166817117217E-16, 9.99200722162641E-16, -66.675));
#206 = DIRECTION('', (0., 0., -1.));
#207 = DIRECTION('', (-1., 1.35680609814848E-15, 0.));
#208 = B_SPLINE_SURFACE_WITH_KNOTS('', 1, 1, ((#209, #210), (#211, #212)), .UNSPECIFIED., .F., .F., .U., (2, 2), (2, 2), (71.966094125875, 76.726094125875), (76.7285970217083, 81.4885970217083), .UNSPECIFIED.);
#209 = CARTESIAN_POINT('', (-2.38, 2.38, -66.675));
#210 = CARTESIAN_POINT('', (2.38, 2.38, -66.675));
#211 = CARTESIAN_POINT('', (-2.38, -2.38, -66.675));
#212 = CARTESIAN_POINT('', (2.38, -2.38, -66.675));
#213 = ADVANCED_FACE('', (#214), #233, .T.);
#214 = FACE_OUTER_BOUND('', #215, .T.);
#215 = EDGE_LOOP('', (#216, #217, #225, #232));
#216 = ORIENTED_EDGE('', *, *, #200, .T.);
#217 = ORIENTED_EDGE('', *, *, #218, .T.);
#218 = EDGE_CURVE('', #201, #219, #221, .T.);
#219 = VERTEX_POINT('', #220);
#220 = CARTESIAN_POINT('', (-2.38, 4.66590430475142E-15, -73.82));
#221 = LINE('', #222, #223);
#222 = CARTESIAN_POINT('', (-2.38, 4.22839923575602E-15, -66.675));
#223 = VECTOR('', #224, 7.145);
#224 = DIRECTION('', (0., 4.375050689954E-16, -7.145));
#225 = ORIENTED_EDGE('', *, *, #226, .F.);
#226 = EDGE_CURVE('', #219, #219, #227, .T.);
#227 = CIRCLE('', #228, 2.38);
#228 = AXIS2_PLACEMENT_3D('', #229, #230, #231);
#229 = CARTESIAN_POINT('', (-2.22044604925031E-16, 1.38777878078145E-15, -73.82));
#230 = DIRECTION('', (2.799125864527E-29, 2.03223443057981E-14, -1.));
#231 = DIRECTION('', (-1., 1.3773636655336E-15, 0.));
#232 = ORIENTED_EDGE('', *, *, #218, .F.);
#233 = (
   BOUNDED_SURFACE ()
   B_SPLINE_SURFACE (2, 1, ((#234, #235), (#236, #237), (#238, #239), (#240, #241), (#242, #243), (#244, #245), (#246, #247), (#248, #249), (#250, #251)), .UNSPECIFIED., .T., .F., .U.)
   B_SPLINE_SURFACE_WITH_KNOTS ((3, 2, 2, 2, 3), (2, 2), (0., 3.73849525777185, 7.4769905155437, 11.2154857733156, 14.9539810310874), (0.571385722855429, 1.), .UNSPECIFIED.)
   GEOMETRIC_REPRESENTATION_ITEM ()
   RATIONAL_B_SPLINE_SURFACE (((1., 1.), (0.707106781186548, 0.707106781186548), (1., 1.), (0.707106781186548, 0.707106781186548), (1., 1.), (0.707106781186548, 0.707106781186548), (1., 1.), (0.707106781186548, 0.707106781186548), (1., 1.)))
   REPRESENTATION_ITEM ('')
   SURFACE ()
);
#234 = CARTESIAN_POINT('', (-2.38, 4.22839923575602E-15, -66.675));
#235 = CARTESIAN_POINT('', (-2.38, 4.7835107480686E-15, -73.82));
#236 = CARTESIAN_POINT('', (-2.38, 2.38, -66.675));
#237 = CARTESIAN_POINT('', (-2.38, 2.38, -73.82));
#238 = CARTESIAN_POINT('', (1.54996999173135E-15, 2.38, -66.675));
#239 = CARTESIAN_POINT('', (1.54996999173135E-15, 2.38, -73.82));
#240 = CARTESIAN_POINT('', (2.38, 2.38, -66.675));
#241 = CARTESIAN_POINT('', (2.38, 2.38, -73.82));
#242 = CARTESIAN_POINT('', (2.38, 5.03958800941676E-16, -66.675));
#243 = CARTESIAN_POINT('', (2.38, 1.05907031325425E-15, -73.82));
#244 = CARTESIAN_POINT('', (2.38, -2.38, -66.675));
#245 = CARTESIAN_POINT('', (2.38, -2.38, -73.82));
#246 = CARTESIAN_POINT('', (-1.88300450488593E-15, -2.38, -66.675));
#247 = CARTESIAN_POINT('', (-1.88300450488593E-15, -2.38, -73.82));
#248 = CARTESIAN_POINT('', (-2.38, -2.38, -66.675));
#249 = CARTESIAN_POINT('', (-2.38, -2.38, -73.82));
#250 = CARTESIAN_POINT('', (-2.38, 4.22839923575602E-15, -66.675));
#251 = CARTESIAN_POINT('', (-2.38, 4.7835107480686E-15, -73.82));
#252 = ADVANCED_FACE('', (#253), #266, .T.);
#253 = FACE_OUTER_BOUND('', #254, .T.);
#254 = EDGE_LOOP('', (#255, #264, #265));
#255 = ORIENTED_EDGE('', *, *, #256, .F.);
#256 = EDGE_CURVE('', #219, #257, #259, .T.);
#257 = VERTEX_POINT('', #258);
#258 = CARTESIAN_POINT('', (2.15154302370574E-16, 4.66590430475142E-15, -76.2));
#259 = CIRCLE('', #260, 2.37999999999999);
#260 = AXIS2_PLACEMENT_3D('', #261, #262, #263);
#261 = CARTESIAN_POINT('', (-5.32907051820075E-15, 4.52017133565289E-15, -73.82));
#262 = DIRECTION('', (-6.12323399573655E-17, -1., -6.12323399573648E-17));
#263 = DIRECTION('', (-1., 6.12323399573651E-17, 5.97094735932861E-15));
#264 = ORIENTED_EDGE('', *, *, #226, .T.);
#265 = ORIENTED_EDGE('', *, *, #256, .T.);
#266 = (
   BOUNDED_SURFACE ()
   B_SPLINE_SURFACE (2, 2, ((#267, #268, #269), (#270, #271, #272), (#273, #274, #275), (#276, #277, #278), (#279, #280, #281), (#282, #283, #284), (#285, #286, #287), (#288, #289, #290), (#291, #292, #293)), .UNSPECIFIED., .T., .F., .U.)
   B_SPLINE_SURFACE_WITH_KNOTS ((3, 2, 2, 2, 3), (3, 3), (0., 0.25, 0.5, 0.75, 1.), (0., 1.), .UNSPECIFIED.)
   GEOMETRIC_REPRESENTATION_ITEM ()
   RATIONAL_B_SPLINE_SURFACE (((1., 0.707106781186548, 1.), (0.707106781186548, 0.5, 0.707106781186548), (1., 0.707106781186548, 1.), (0.707106781186548, 0.5, 0.707106781186548), (1., 0.707106781186548, 1.), (0.707106781186548, 0.5, 0.707106781186548), (1., 0.707106781186548, 1.), (0.707106781186548, 0.5, 0.707106781186548), (1., 0.707106781186548, 1.)))
   REPRESENTATION_ITEM ('')
   SURFACE ()
);
#267 = CARTESIAN_POINT('', (-2.38, 4.66590430475142E-15, -73.82));
#268 = CARTESIAN_POINT('', (-2.38, 4.81163727384995E-15, -76.2));
#269 = CARTESIAN_POINT('', (2.15154302370574E-16, 4.66590430475142E-15, -76.2));
#270 = CARTESIAN_POINT('', (-2.38, 2.38, -73.82));
#271 = CARTESIAN_POINT('', (-2.38000000000005, 2.38, -76.2));
#272 = CARTESIAN_POINT('', (2.15154302370574E-16, 4.66590430475142E-15, -76.2));
#273 = CARTESIAN_POINT('', (-7.10542735760072E-15, 2.38, -73.82));
#274 = CARTESIAN_POINT('', (-5.53268738363011E-14, 2.38000000000005, -76.2));
#275 = CARTESIAN_POINT('', (2.15154302370574E-16, 4.66590430475142E-15, -76.2));
#276 = CARTESIAN_POINT('', (2.37999999999999, 2.38, -73.82));
#277 = CARTESIAN_POINT('', (2.37999999999994, 2.38000000000009, -76.2));
#278 = CARTESIAN_POINT('', (2.15154302370574E-16, 4.66590430475142E-15, -76.2));
#279 = CARTESIAN_POINT('', (2.37999999999999, 4.66590430475085E-15, -73.82));
#280 = CARTESIAN_POINT('', (2.37999999999999, 1.0125453023125E-13, -76.2));
#281 = CARTESIAN_POINT('', (2.15154302370574E-16, 4.66590430475142E-15, -76.2));
#282 = CARTESIAN_POINT('', (2.37999999999999, -2.37999999999999, -73.82));
#283 = CARTESIAN_POINT('', (2.38000000000003, -2.37999999999989, -76.2));
#284 = CARTESIAN_POINT('', (2.15154302370574E-16, 4.66590430475142E-15, -76.2));
#285 = CARTESIAN_POINT('', (-6.81396141940422E-15, -2.37999999999999, -73.82));
#286 = CARTESIAN_POINT('', (4.14074850592963E-14, -2.37999999999994, -76.2));
#287 = CARTESIAN_POINT('', (2.15154302370574E-16, 4.66590430475142E-15, -76.2));
#288 = CARTESIAN_POINT('', (-2.38, -2.37999999999999, -73.82));
#289 = CARTESIAN_POINT('', (-2.37999999999995, -2.37999999999999, -76.2));
#290 = CARTESIAN_POINT('', (2.15154302370574E-16, 4.66590430475142E-15, -76.2));
#291 = CARTESIAN_POINT('', (-2.38, 4.66590430475142E-15, -73.82));
#292 = CARTESIAN_POINT('', (-2.38, 4.81163727384995E-15, -76.2));
#293 = CARTESIAN_POINT('', (2.15154302370574E-16, 4.66590430475142E-15, -76.2));
#294 = PRESENTATION_STYLE_ASSIGNMENT((#295));
#295 = SURFACE_STYLE_USAGE(.POSITIVE., #296);
#296 = SURFACE_SIDE_STYLE('', (#297));
#297 = SURFACE_STYLE_FILL_AREA(#298);
#298 = FILL_AREA_STYLE('', (#299));
#299 = FILL_AREA_STYLE_COLOUR('', #300);
#300 = COLOUR_RGB('', 0.8, 0.8, 0.8);
#301 = STYLED_ITEM('', (#294), #194);
#302 = TRIMMED_CURVE('cutting part line', #303, (#307), (#308), .T., .CARTESIAN.);
#303 = LINE('', #304, #305);
#304 = CARTESIAN_POINT('', (-7.49973626317345E-31, -4.08266626665749E-15, -66.675));
#305 = VECTOR('', #306, 2.38);
#306 = DIRECTION('', (2.38, -4.371989072956E-16, 0.));
#307 = CARTESIAN_POINT('', (-7.49973626317345E-31, -4.08266626665749E-15, -66.675));
#308 = CARTESIAN_POINT('', (2.38, -4.51986517395309E-15, -66.675));
#309 = TRIMMED_CURVE('cutting part line', #310, (#314), (#315), .T., .CARTESIAN.);
#310 = LINE('', #311, #312);
#311 = CARTESIAN_POINT('', (2.38, -4.51986517395309E-15, -66.675));
#312 = VECTOR('', #313, 7.145);
#313 = DIRECTION('', (0., -4.375050689954E-16, -7.145));
#314 = CARTESIAN_POINT('', (2.38, -4.51986517395309E-15, -66.675));
#315 = CARTESIAN_POINT('', (2.38, -4.95737024294849E-15, -73.82));
#316 = TRIMMED_CURVE('cutting part line', #317, (#322), (#323), .T., .CARTESIAN.);
#317 = CIRCLE('', #318, 2.38000000000001);
#318 = AXIS2_PLACEMENT_3D('', #319, #320, #321);
#319 = CARTESIAN_POINT('', (-3.99680288865056E-15, -4.52017133565288E-15, -73.82));
#320 = DIRECTION('', (1.83697019872106E-16, 1., -6.12323399573663E-17));
#321 = DIRECTION('', (1., -1.83697019872106E-16, 0.));
#322 = CARTESIAN_POINT('', (2.38, -4.95737024294849E-15, -73.82));
#323 = CARTESIAN_POINT('', (-1.51806801500993E-16, -4.66590430475141E-15, -76.2));
#324 = TRIMMED_CURVE('cutting part line', #325, (#329), (#330), .T., .CARTESIAN.);
#325 = LINE('', #326, #327);
#326 = CARTESIAN_POINT('', (-8.57112715791252E-31, -4.66590430475142E-15, -76.2));
#327 = VECTOR('', #328, 9.52500000000001);
#328 = DIRECTION('', (1.07139089473907E-31, 5.8323803809393E-16, 9.52500000000001));
#329 = CARTESIAN_POINT('', (-8.57112715791252E-31, -4.66590430475142E-15, -76.2));
#330 = CARTESIAN_POINT('', (-7.49973626317345E-31, -4.08266626665749E-15, -66.675));
#331 = COMPOSITE_CURVE('cutting part line', (#332, #333, #334, #335), .U.);
#332 = COMPOSITE_CURVE_SEGMENT(.CONTINUOUS., .T., #302);
#333 = COMPOSITE_CURVE_SEGMENT(.CONTINUOUS., .T., #309);
#334 = COMPOSITE_CURVE_SEGMENT(.CONTINUOUS., .T., #316);
#335 = COMPOSITE_CURVE_SEGMENT(.CONTINUOUS., .T., #324);
#336 = GEOMETRIC_SET('', (#331, #374));
#337 = PRESENTATION_STYLE_ASSIGNMENT((#338));
#338 = CURVE_STYLE('', #340, POSITIVE_LENGTH_MEASURE(1.E-6), #339);
#339 = COLOUR_RGB('', 0., 0., 1.);
#340 = DRAUGHTING_PRE_DEFINED_CURVE_FONT('continuous');
#341 = STYLED_ITEM('', (#337), #331);
#342 = PRESENTATION_STYLE_ASSIGNMENT((#343));
#343 = CURVE_STYLE('', #345, POSITIVE_LENGTH_MEASURE(1.E-6), #344);
#344 = COLOUR_RGB('', 0., 0., 1.);
#345 = DRAUGHTING_PRE_DEFINED_CURVE_FONT('continuous');
#346 = OVER_RIDING_STYLED_ITEM('', (#342), #302, #341);
#347 = PRESENTATION_STYLE_ASSIGNMENT((#348));
#348 = CURVE_STYLE('', #350, POSITIVE_LENGTH_MEASURE(1.E-6), #349);
#349 = COLOUR_RGB('', 0., 0., 1.);
#350 = DRAUGHTING_PRE_DEFINED_CURVE_FONT('continuous');
#351 = OVER_RIDING_STYLED_ITEM('', (#347), #309, #341);
#352 = PRESENTATION_STYLE_ASSIGNMENT((#353));
#353 = CURVE_STYLE('', #355, POSITIVE_LENGTH_MEASURE(1.E-6), #354);
#354 = COLOUR_RGB('', 0., 0., 1.);
#355 = DRAUGHTING_PRE_DEFINED_CURVE_FONT('continuous');
#356 = OVER_RIDING_STYLED_ITEM('', (#352), #316, #341);
#357 = PRESENTATION_STYLE_ASSIGNMENT((#358));
#358 = CURVE_STYLE('', #360, POSITIVE_LENGTH_MEASURE(1.E-6), #359);
#359 = COLOUR_RGB('', 0., 0., 1.);
#360 = DRAUGHTING_PRE_DEFINED_CURVE_FONT('continuous');
#361 = OVER_RIDING_STYLED_ITEM('', (#357), #324, #341);
#362 = AXIS2_PLACEMENT_3D('CIP', #363, #364, #365);
#363 = CARTESIAN_POINT('', (2.85704238597084E-31, 4.66590430475142E-15, -76.2));
#364 = DIRECTION('', (-3.74939945665465E-33, -6.12323399573677E-17, 1.));
#365 = DIRECTION('', (1., -6.12323399573677E-17, 0.));
#366 = AXIS2_PLACEMENT_3D('MCS', #367, #368, #369);
#367 = CARTESIAN_POINT('', (1.34978380439567E-31, 2.20436423846524E-15, -36.));
#368 = DIRECTION('', (-3.74939945665465E-33, -6.12323399573677E-17, 1.));
#369 = DIRECTION('', (1., -6.12323399573677E-17, 0.));
#370 = AXIS2_PLACEMENT_3D('PCS', #371, #372, #373);
#371 = CARTESIAN_POINT('', (0., 0., 0.));
#372 = DIRECTION('', (0., 0., 1.));
#373 = DIRECTION('', (1., 0., 0.));
#374 = CARTESIAN_POINT('CRP', (2.38, 0., -76.2));
#375 = (
   GEOMETRIC_REPRESENTATION_CONTEXT (3)
   GLOBAL_UNCERTAINTY_ASSIGNED_CONTEXT ((#377))
   GLOBAL_UNIT_ASSIGNED_CONTEXT ((#376, #378, #379))
   REPRESENTATION_CONTEXT ('', '3D')
);
#376 = (
   LENGTH_UNIT ()
   NAMED_UNIT (*)
   SI_UNIT (.MILLI., .METRE.)
);
#377 = UNCERTAINTY_MEASURE_WITH_UNIT(LENGTH_MEASURE(1.E-6), #376, 'DISTANCE_ACCURACY_VALUE', '');
#378 = (
   NAMED_UNIT (*)
   SI_UNIT ($, .STERADIAN.)
   SOLID_ANGLE_UNIT ()
);
#379 = (
   NAMED_UNIT (*)
   PLANE_ANGLE_UNIT ()
   SI_UNIT ($, .RADIAN.)
);
#380 = SHAPE_REPRESENTATION('', (), #375);
#381 = PRODUCT_DEFINITION_SHAPE('', '', #382);
#382 = PRODUCT_DEFINITION('', '', #385, #389);
#383 = APPLICATION_CONTEXT('configuration controlled 3D designs of mechanical parts and assemblies');
#384 = APPLICATION_PROTOCOL_DEFINITION('International Standard', 'automotive_design', 2002, #383);
#385 = PRODUCT_DEFINITION_FORMATION_WITH_SPECIFIED_SOURCE('', '', #386, .NOT_KNOWN.);
#386 = PRODUCT('EmptyName', 'EmptyName', '', (#387));
#387 = PRODUCT_CONTEXT('', #383, 'mechanical');
#388 = PRODUCT_RELATED_PRODUCT_CATEGORY('detail', '', (#386));
#389 = PRODUCT_DEFINITION_CONTEXT('part definition', #383, 'design');
#390 = SHAPE_DEFINITION_REPRESENTATION(#381, #380);
#391 = CONSTRUCTIVE_GEOMETRY_REPRESENTATION('supplemental geometry', (#362, #366, #370), #375);
#392 = CONSTRUCTIVE_GEOMETRY_REPRESENTATION_RELATIONSHIP('', '', #380, #391);
#393 = SHAPE_REPRESENTATION_RELATIONSHIP('', '', #380, #394);
#394 = SHAPE_REPRESENTATION('', (#336), #375);
#395 = SHAPE_REPRESENTATION_RELATIONSHIP('', '', #380, #396);
#396 = ADVANCED_BREP_SHAPE_REPRESENTATION('', (#1, #194), #375);
ENDSEC;
END-ISO-10303-21;
