ISO-10303-21;
HEADER;
FILE_DESCRIPTION(('STEP'), '1');
FILE_NAME('C:\\Users\\ds2002\\OneDrive - Sandvik\\HomeShare\\Documents\\Batchrepair\\CorSRT2\\NEW_MILBN_SLD\\Output2\\MOD000000000000000020084655200000.stp', '2018-11-23T12:38:46', (''), (''), 'Express v3.0.0.0', 'Express Tool', 'Unknown');
FILE_SCHEMA(('AUTOMOTIVE_DESIGN'));
ENDSEC;

DATA;
#1 = MANIFOLD_SOLID_BREP('NOCUT', #2);
#2 = CLOSED_SHELL('', (#3, #50, #89, #128, #175, #184, #215));
#3 = ADVANCED_FACE('', (#4), #31, .T.);
#4 = FACE_OUTER_BOUND('', #5, .T.);
#5 = EDGE_LOOP('', (#6, #16, #23, #24));
#6 = ORIENTED_EDGE('', *, *, #7, .F.);
#7 = EDGE_CURVE('', #8, #10, #12, .T.);
#8 = VERTEX_POINT('', #9);
#9 = CARTESIAN_POINT('', (-4.1, 5.67501326724883E-15, -88.58));
#10 = VERTEX_POINT('', #11);
#11 = CARTESIAN_POINT('', (-5., 5.75583995599256E-15, -89.));
#12 = LINE('', #13, #14);
#13 = CARTESIAN_POINT('', (-4.1, 5.67501326724883E-15, -88.58));
#14 = VECTOR('', #15, 0.993176721434812);
#15 = DIRECTION('', (-0.9, 8.08266887437295E-17, -0.420000000000002));
#16 = ORIENTED_EDGE('', *, *, #17, .T.);
#17 = EDGE_CURVE('', #8, #8, #18, .T.);
#18 = CIRCLE('', #19, 4.09999999999999);
#19 = AXIS2_PLACEMENT_3D('', #20, #21, #22);
#20 = CARTESIAN_POINT('', (5.82867087928207E-16, 3.44169137633799E-15, -88.58));
#21 = DIRECTION('', (0., 0., -1.));
#22 = DIRECTION('', (-1., 5.4471265631972E-16, 0.));
#23 = ORIENTED_EDGE('', *, *, #7, .T.);
#24 = ORIENTED_EDGE('', *, *, #25, .F.);
#25 = EDGE_CURVE('', #10, #10, #26, .T.);
#26 = CIRCLE('', #27, 5.);
#27 = AXIS2_PLACEMENT_3D('', #28, #29, #30);
#28 = CARTESIAN_POINT('', (3.60822483003176E-16, 3.99680288865056E-15, -89.));
#29 = DIRECTION('', (0., 0., -1.));
#30 = DIRECTION('', (-1., 1.06878053638929E-16, 0.));
#31 = (
   BOUNDED_SURFACE ()
   B_SPLINE_SURFACE (2, 1, ((#32, #33), (#34, #35), (#36, #37), (#38, #39), (#40, #41), (#42, #43), (#44, #45), (#46, #47), (#48, #49)), .UNSPECIFIED., .T., .F., .U.)
   B_SPLINE_SURFACE_WITH_KNOTS ((3, 2, 2, 2, 3), (2, 2), (0., 0.25, 0.5, 0.75, 1.), (0., 1.), .UNSPECIFIED.)
   GEOMETRIC_REPRESENTATION_ITEM ()
   RATIONAL_B_SPLINE_SURFACE (((1., 1.), (0.707106781186548, 0.707106781186548), (1., 1.), (0.707106781186548, 0.707106781186548), (1., 1.), (0.707106781186548, 0.707106781186548), (1., 1.), (0.707106781186548, 0.707106781186548), (1., 1.)))
   REPRESENTATION_ITEM ('')
   SURFACE ()
);
#32 = CARTESIAN_POINT('', (-4.1, 5.67501326724883E-15, -88.58));
#33 = CARTESIAN_POINT('', (-5., 1.24016687354323E-16, -89.));
#34 = CARTESIAN_POINT('', (-4.1, 4.1, -88.58));
#35 = CARTESIAN_POINT('', (-5., 5., -89.0000000000001));
#36 = CARTESIAN_POINT('', (-3.430067947962E-15, 4.10000000000001, -88.58));
#37 = CARTESIAN_POINT('', (-4.26221462792996E-15, 5., -89.0000000000001));
#38 = CARTESIAN_POINT('', (4.1, 4.10000000000001, -88.58));
#39 = CARTESIAN_POINT('', (4.99999999999999, 5.00000000000001, -89.0000000000001));
#40 = CARTESIAN_POINT('', (4.1, 1.32567941291792E-14, -88.58));
#41 = CARTESIAN_POINT('', (5., 9.37009090922061E-15, -89.));
#42 = CARTESIAN_POINT('', (4.1, -4.09999999999999, -88.58));
#43 = CARTESIAN_POINT('', (5.00000000000001, -4.99999999999999, -88.9999999999999));
#44 = CARTESIAN_POINT('', (4.65381810161877E-15, -4.09999999999999, -88.58));
#45 = CARTESIAN_POINT('', (5.59618299351E-15, -5., -88.9999999999999));
#46 = CARTESIAN_POINT('', (-4.1, -4.1, -88.58));
#47 = CARTESIAN_POINT('', (-4.99999999999999, -5., -88.9999999999999));
#48 = CARTESIAN_POINT('', (-4.1, 5.67501326724883E-15, -88.58));
#49 = CARTESIAN_POINT('', (-5., 1.24016687354323E-16, -89.));
#50 = ADVANCED_FACE('', (#51), #70, .T.);
#51 = FACE_OUTER_BOUND('', #52, .T.);
#52 = EDGE_LOOP('', (#53, #61, #68, #69));
#53 = ORIENTED_EDGE('', *, *, #54, .F.);
#54 = EDGE_CURVE('', #55, #8, #57, .T.);
#55 = VERTEX_POINT('', #56);
#56 = CARTESIAN_POINT('', (-4.1, 4.41485171092621E-15, -68.));
#57 = LINE('', #58, #59);
#58 = CARTESIAN_POINT('', (-4.1, 4.41485171092621E-15, -68.));
#59 = VECTOR('', #60, 20.58);
#60 = DIRECTION('', (0., 1.26016155632262E-15, -20.58));
#61 = ORIENTED_EDGE('', *, *, #62, .T.);
#62 = EDGE_CURVE('', #55, #55, #63, .T.);
#63 = CIRCLE('', #64, 4.1);
#64 = AXIS2_PLACEMENT_3D('', #65, #66, #67);
#65 = CARTESIAN_POINT('', (8.60422844084496E-16, 2.66453525910038E-15, -68.));
#66 = DIRECTION('', (0., 0., -1.));
#67 = DIRECTION('', (-1., 4.26906451664838E-16, 0.));
#68 = ORIENTED_EDGE('', *, *, #54, .T.);
#69 = ORIENTED_EDGE('', *, *, #17, .F.);
#70 = (
   BOUNDED_SURFACE ()
   B_SPLINE_SURFACE (2, 1, ((#71, #72), (#73, #74), (#75, #76), (#77, #78), (#79, #80), (#81, #82), (#83, #84), (#85, #86), (#87, #88)), .UNSPECIFIED., .T., .F., .U.)
   B_SPLINE_SURFACE_WITH_KNOTS ((3, 2, 2, 2, 3), (2, 2), (0., 6.44026493985907, 12.8805298797181, 19.3207948195772, 25.7610597594363), (0., 1.), .UNSPECIFIED.)
   GEOMETRIC_REPRESENTATION_ITEM ()
   RATIONAL_B_SPLINE_SURFACE (((1., 1.), (0.707106781186548, 0.707106781186548), (1., 1.), (0.707106781186548, 0.707106781186548), (1., 1.), (0.707106781186548, 0.707106781186548), (1., 1.), (0.707106781186548, 0.707106781186548), (1., 1.)))
   REPRESENTATION_ITEM ('')
   SURFACE ()
);
#71 = CARTESIAN_POINT('', (-4.1, 4.41485171092621E-15, -68.));
#72 = CARTESIAN_POINT('', (-4.1, 1.14092567660647E-14, -88.58));
#73 = CARTESIAN_POINT('', (-4.09999999999999, 4.1, -68.));
#74 = CARTESIAN_POINT('', (-4.09999999999999, 4.10000000000001, -88.58));
#75 = CARTESIAN_POINT('', (4.76054399283702E-15, 4.1, -68.));
#76 = CARTESIAN_POINT('', (4.76054399283703E-15, 4.10000000000001, -88.58));
#77 = CARTESIAN_POINT('', (4.1, 4.1, -68.));
#78 = CARTESIAN_POINT('', (4.1, 4.1, -88.58));
#79 = CARTESIAN_POINT('', (4.1, -3.2466127085007E-15, -68.));
#80 = CARTESIAN_POINT('', (4.1, 3.74779234663778E-15, -88.58));
#81 = CARTESIAN_POINT('', (4.1, -4.1, -68.));
#82 = CARTESIAN_POINT('', (4.1, -4.1, -88.58));
#83 = CARTESIAN_POINT('', (-2.39881523893947E-15, -4.1, -68.));
#84 = CARTESIAN_POINT('', (-2.39881523893947E-15, -4.09999999999999, -88.58));
#85 = CARTESIAN_POINT('', (-4.1, -4.1, -68.));
#86 = CARTESIAN_POINT('', (-4.1, -4.09999999999999, -88.58));
#87 = CARTESIAN_POINT('', (-4.1, 4.41485171092621E-15, -68.));
#88 = CARTESIAN_POINT('', (-4.1, 1.14092567660647E-14, -88.58));
#89 = ADVANCED_FACE('', (#90), #109, .T.);
#90 = FACE_OUTER_BOUND('', #91, .T.);
#91 = EDGE_LOOP('', (#92, #100, #107, #108));
#92 = ORIENTED_EDGE('', *, *, #93, .F.);
#93 = EDGE_CURVE('', #94, #55, #96, .T.);
#94 = VERTEX_POINT('', #95);
#95 = CARTESIAN_POINT('', (-5., 3.7964050773568E-15, -57.));
#96 = LINE('', #97, #98);
#97 = CARTESIAN_POINT('', (-5., 3.7964050773568E-15, -57.));
#98 = VECTOR('', #99, 11.0367567699936);
#99 = DIRECTION('', (0.9, 6.1844663356941E-16, -11.));
#100 = ORIENTED_EDGE('', *, *, #101, .T.);
#101 = EDGE_CURVE('', #94, #94, #102, .T.);
#102 = CIRCLE('', #103, 5.);
#103 = AXIS2_PLACEMENT_3D('', #104, #105, #106);
#104 = CARTESIAN_POINT('', (8.32667268468867E-17, 2.1094237467878E-15, -57.));
#105 = DIRECTION('', (1.63189057481438E-30, 4.83671794477998E-15, -1.));
#106 = DIRECTION('', (-1., 3.37396266113801E-16, 0.));
#107 = ORIENTED_EDGE('', *, *, #93, .T.);
#108 = ORIENTED_EDGE('', *, *, #62, .F.);
#109 = (
   BOUNDED_SURFACE ()
   B_SPLINE_SURFACE (2, 1, ((#110, #111), (#112, #113), (#114, #115), (#116, #117), (#118, #119), (#120, #121), (#122, #123), (#124, #125), (#126, #127)), .UNSPECIFIED., .T., .F., .U.)
   B_SPLINE_SURFACE_WITH_KNOTS ((3, 2, 2, 2, 3), (2, 2), (0., 0.25, 0.5, 0.75, 1.), (0., 1.), .UNSPECIFIED.)
   GEOMETRIC_REPRESENTATION_ITEM ()
   RATIONAL_B_SPLINE_SURFACE (((1., 1.), (0.707106781186548, 0.707106781186548), (1., 1.), (0.707106781186548, 0.707106781186548), (1., 1.), (0.707106781186548, 0.707106781186548), (1., 1.), (0.707106781186548, 0.707106781186548), (1., 1.)))
   REPRESENTATION_ITEM ('')
   SURFACE ()
);
#110 = CARTESIAN_POINT('', (-5., 3.7964050773568E-15, -57.));
#111 = CARTESIAN_POINT('', (-4.1, 7.95362455079826E-15, -68.));
#112 = CARTESIAN_POINT('', (-4.99999999999999, 5., -57.));
#113 = CARTESIAN_POINT('', (-4.09999999999999, 4.10000000000001, -68.));
#114 = CARTESIAN_POINT('', (6.70989014898291E-15, 5., -57.));
#115 = CARTESIAN_POINT('', (5.48212590772274E-15, 4.1, -68.));
#116 = CARTESIAN_POINT('', (5.00000000000001, 4.99999999999999, -57.));
#117 = CARTESIAN_POINT('', (4.1, 4.1, -68.));
#118 = CARTESIAN_POINT('', (5., -9.84541982553406E-15, -57.));
#119 = CARTESIAN_POINT('', (4.1, -3.23267186957225E-15, -68.));
#120 = CARTESIAN_POINT('', (4.99999999999999, -5.00000000000001, -57.));
#121 = CARTESIAN_POINT('', (4.09999999999999, -4.1, -68.));
#122 = CARTESIAN_POINT('', (-6.31961135433427E-15, -5., -57.));
#123 = CARTESIAN_POINT('', (-5.20206532499734E-15, -4.1, -68.));
#124 = CARTESIAN_POINT('', (-5.00000000000001, -5., -57.));
#125 = CARTESIAN_POINT('', (-4.1, -4.09999999999999, -68.));
#126 = CARTESIAN_POINT('', (-5., 3.7964050773568E-15, -57.));
#127 = CARTESIAN_POINT('', (-4.1, 7.95362455079826E-15, -68.));
#128 = ADVANCED_FACE('', (#129), #156, .T.);
#129 = FACE_OUTER_BOUND('', #130, .T.);
#130 = EDGE_LOOP('', (#131, #141, #148, #149));
#131 = ORIENTED_EDGE('', *, *, #132, .T.);
#132 = EDGE_CURVE('', #133, #135, #137, .T.);
#133 = VERTEX_POINT('', #134);
#134 = CARTESIAN_POINT('', (-5., 3.36777869765522E-16, -0.5));
#135 = VERTEX_POINT('', #136);
#136 = CARTESIAN_POINT('', (-4.5, 2.75545529808154E-16, 0.));
#137 = LINE('', #138, #139);
#138 = CARTESIAN_POINT('', (-5., 3.36777869765522E-16, -0.5));
#139 = VECTOR('', #140, 0.707106781186548);
#140 = DIRECTION('', (0.5, -6.1232339957368E-17, 0.5));
#141 = ORIENTED_EDGE('', *, *, #142, .T.);
#142 = EDGE_CURVE('', #135, #135, #143, .T.);
#143 = CIRCLE('', #144, 4.5);
#144 = AXIS2_PLACEMENT_3D('', #145, #146, #147);
#145 = CARTESIAN_POINT('', (4.16333634234434E-16, 1.99840144432528E-15, 1.60237371373018E-31));
#146 = DIRECTION('', (1.21650827372764E-32, 6.12323399573677E-17, -1.));
#147 = DIRECTION('', (-1., -6.27786229722166E-16, -5.06059025761781E-32));
#148 = ORIENTED_EDGE('', *, *, #132, .F.);
#149 = ORIENTED_EDGE('', *, *, #150, .F.);
#150 = EDGE_CURVE('', #133, #133, #151, .T.);
#151 = CIRCLE('', #152, 5.);
#152 = AXIS2_PLACEMENT_3D('', #153, #154, #155);
#153 = CARTESIAN_POINT('', (3.33066907387547E-16, -2.22044604925031E-15, -0.5));
#154 = DIRECTION('', (0., 0., -1.));
#155 = DIRECTION('', (-1., 2.66515423973696E-16, 0.));
#156 = (
   BOUNDED_SURFACE ()
   B_SPLINE_SURFACE (1, 2, ((#157, #158, #159, #160, #161, #162, #163, #164, #165), (#166, #167, #168, #169, #170, #171, #172, #173, #174)), .UNSPECIFIED., .F., .T., .U.)
   B_SPLINE_SURFACE_WITH_KNOTS ((2, 2), (3, 2, 2, 2, 3), (0., 1.), (0., 0.25, 0.5, 0.75, 1.), .UNSPECIFIED.)
   GEOMETRIC_REPRESENTATION_ITEM ()
   RATIONAL_B_SPLINE_SURFACE (((1., 0.707106781186548, 1., 0.707106781186548, 1., 0.707106781186548, 1., 0.707106781186548, 1.), (1., 0.707106781186548, 1., 0.707106781186548, 1., 0.707106781186548, 1., 0.707106781186548, 1.)))
   REPRESENTATION_ITEM ('')
   SURFACE ()
);
#157 = CARTESIAN_POINT('', (-5., -2.69144046670109E-15, -0.5));
#158 = CARTESIAN_POINT('', (-5., 5., -0.50000000000003));
#159 = CARTESIAN_POINT('', (2.28983498828938E-15, 5., -0.50000000000003));
#160 = CARTESIAN_POINT('', (5., 5., -0.50000000000003));
#161 = CARTESIAN_POINT('', (5., -2.69144046670108E-15, -0.5));
#162 = CARTESIAN_POINT('', (5., -5., -0.49999999999997));
#163 = CARTESIAN_POINT('', (2.90215838786306E-15, -5., -0.49999999999997));
#164 = CARTESIAN_POINT('', (-5., -5., -0.49999999999997));
#165 = CARTESIAN_POINT('', (-5., -2.69144046670109E-15, -0.5));
#166 = CARTESIAN_POINT('', (-4.5, 2.75545529808154E-16, -5.47382212626882E-48));
#167 = CARTESIAN_POINT('', (-4.5, 4.5, -2.69784194983913E-14));
#168 = CARTESIAN_POINT('', (2.28983498828938E-15, 4.5, -2.69784194983913E-14));
#169 = CARTESIAN_POINT('', (4.5, 4.5, -2.69784194983913E-14));
#170 = CARTESIAN_POINT('', (4.5, 2.75545529808155E-16, -3.34088136340818E-30));
#171 = CARTESIAN_POINT('', (4.5, -4.5, 2.69784194983913E-14));
#172 = CARTESIAN_POINT('', (2.8409260479057E-15, -4.5, 2.69784194983913E-14));
#173 = CARTESIAN_POINT('', (-4.5, -4.5, 2.69784194983913E-14));
#174 = CARTESIAN_POINT('', (-4.5, 2.75545529808154E-16, -5.47382212626882E-48));
#175 = ADVANCED_FACE('', (#176), #179, .T.);
#176 = FACE_OUTER_BOUND('', #177, .T.);
#177 = EDGE_LOOP('', (#178));
#178 = ORIENTED_EDGE('', *, *, #142, .F.);
#179 = B_SPLINE_SURFACE_WITH_KNOTS('', 1, 1, ((#180, #181), (#182, #183)), .UNSPECIFIED., .F., .F., .U., (2, 2), (2, 2), (2.50035713374682, 11.5003571337468), (2.50035713374682, 11.5003571337468), .UNSPECIFIED.);
#180 = CARTESIAN_POINT('', (4.5, -4.5, -2.75545529808149E-16));
#181 = CARTESIAN_POINT('', (-4.5, -4.5, -1.44864002450102E-14));
#182 = CARTESIAN_POINT('', (4.5, 4.5, 1.44864002450102E-14));
#183 = CARTESIAN_POINT('', (-4.5, 4.5, 2.75545529808176E-16));
#184 = ADVANCED_FACE('', (#185), #196, .T.);
#185 = FACE_OUTER_BOUND('', #186, .T.);
#186 = EDGE_LOOP('', (#187, #193, #194, #195));
#187 = ORIENTED_EDGE('', *, *, #188, .T.);
#188 = EDGE_CURVE('', #94, #133, #189, .T.);
#189 = LINE('', #190, #191);
#190 = CARTESIAN_POINT('', (-5., 3.7964050773568E-15, -57.));
#191 = VECTOR('', #192, 56.5);
#192 = DIRECTION('', (0., -3.45962720759128E-15, 56.5));
#193 = ORIENTED_EDGE('', *, *, #150, .T.);
#194 = ORIENTED_EDGE('', *, *, #188, .F.);
#195 = ORIENTED_EDGE('', *, *, #101, .F.);
#196 = (
   BOUNDED_SURFACE ()
   B_SPLINE_SURFACE (1, 2, ((#197, #198, #199, #200, #201, #202, #203, #204, #205), (#206, #207, #208, #209, #210, #211, #212, #213, #214)), .UNSPECIFIED., .F., .T., .U.)
   B_SPLINE_SURFACE_WITH_KNOTS ((2, 2), (3, 2, 2, 2, 3), (0., 1.), (0., 7.85398163397448, 15.707963267949, 23.5619449019234, 31.4159265358979), .UNSPECIFIED.)
   GEOMETRIC_REPRESENTATION_ITEM ()
   RATIONAL_B_SPLINE_SURFACE (((1., 0.707106781186548, 1., 0.707106781186548, 1., 0.707106781186548, 1., 0.707106781186548, 1.), (1., 0.707106781186548, 1., 0.707106781186548, 1., 0.707106781186548, 1., 0.707106781186548, 1.)))
   REPRESENTATION_ITEM ('')
   SURFACE ()
);
#197 = CARTESIAN_POINT('', (-5., 1.14733264840491E-16, -57.));
#198 = CARTESIAN_POINT('', (-5., 5., -57.));
#199 = CARTESIAN_POINT('', (2.91719603400409E-15, 5., -57.));
#200 = CARTESIAN_POINT('', (5., 5., -57.));
#201 = CARTESIAN_POINT('', (5., -3.94330196376744E-15, -57.));
#202 = CARTESIAN_POINT('', (5., -5., -57.));
#203 = CARTESIAN_POINT('', (-5.28515795030163E-16, -5., -57.));
#204 = CARTESIAN_POINT('', (-5., -5., -57.));
#205 = CARTESIAN_POINT('', (-5., 1.14733264840491E-16, -57.));
#206 = CARTESIAN_POINT('', (-5., 3.36777869765522E-16, -0.5));
#207 = CARTESIAN_POINT('', (-5., 5., -0.5));
#208 = CARTESIAN_POINT('', (2.91719603400409E-15, 5., -0.5));
#209 = CARTESIAN_POINT('', (5., 5., -0.5));
#210 = CARTESIAN_POINT('', (5., -3.72125735884241E-15, -0.5));
#211 = CARTESIAN_POINT('', (5., -5., -0.5));
#212 = CARTESIAN_POINT('', (-5.28515795030163E-16, -5., -0.5));
#213 = CARTESIAN_POINT('', (-5., -5., -0.5));
#214 = CARTESIAN_POINT('', (-5., 3.36777869765522E-16, -0.5));
#215 = ADVANCED_FACE('', (#216), #219, .T.);
#216 = FACE_OUTER_BOUND('', #217, .T.);
#217 = EDGE_LOOP('', (#218));
#218 = ORIENTED_EDGE('', *, *, #25, .T.);
#219 = B_SPLINE_SURFACE_WITH_KNOTS('', 1, 1, ((#220, #221), (#222, #223)), .UNSPECIFIED., .F., .F., .U., (2, 2), (2, 2), (99.895054639182, 109.895054639182), (92.0950516531816, 102.095051653182), .UNSPECIFIED.);
#220 = CARTESIAN_POINT('', (-5., 5.00000000000001, -89.));
#221 = CARTESIAN_POINT('', (-5., -5., -89.));
#222 = CARTESIAN_POINT('', (5., 5.00000000000001, -89.));
#223 = CARTESIAN_POINT('', (5., -5., -89.));
#224 = DRAUGHTING_MODEL('', (#232, #340, #380, #385, #390, #395, #400), #414);
#225 = PRESENTATION_STYLE_ASSIGNMENT((#226));
#226 = SURFACE_STYLE_USAGE(.POSITIVE., #227);
#227 = SURFACE_SIDE_STYLE('', (#228));
#228 = SURFACE_STYLE_FILL_AREA(#229);
#229 = FILL_AREA_STYLE('', (#230));
#230 = FILL_AREA_STYLE_COLOUR('', #231);
#231 = COLOUR_RGB('', 0.50196078431373, 0.50196078431373, 0.50196078431373);
#232 = STYLED_ITEM('', (#225), #1);
#233 = MANIFOLD_SOLID_BREP('CUT', #234);
#234 = CLOSED_SHELL('', (#235, #252, #291));
#235 = ADVANCED_FACE('', (#236), #247, .T.);
#236 = FACE_OUTER_BOUND('', #237, .T.);
#237 = EDGE_LOOP('', (#238));
#238 = ORIENTED_EDGE('', *, *, #239, .F.);
#239 = EDGE_CURVE('', #240, #240, #242, .T.);
#240 = VERTEX_POINT('', #241);
#241 = CARTESIAN_POINT('', (-5., 5.75583995599256E-15, -89.));
#242 = CIRCLE('', #243, 5.);
#243 = AXIS2_PLACEMENT_3D('', #244, #245, #246);
#244 = CARTESIAN_POINT('', (-1.48492329543615E-15, 4.44089209850063E-15, -89.));
#245 = DIRECTION('', (0., 0., -1.));
#246 = DIRECTION('', (-1., 2.62989571498387E-16, 0.));
#247 = B_SPLINE_SURFACE_WITH_KNOTS('', 1, 1, ((#248, #249), (#250, #251)), .UNSPECIFIED., .F., .F., .U., (2, 2), (2, 2), (92.0950516531816, 102.095051653182), (99.895054639182, 109.895054639182), .UNSPECIFIED.);
#248 = CARTESIAN_POINT('', (-5., 5.00000000000001, -89.));
#249 = CARTESIAN_POINT('', (5., 5.00000000000001, -89.));
#250 = CARTESIAN_POINT('', (-5., -5., -89.));
#251 = CARTESIAN_POINT('', (5., -5., -89.));
#252 = ADVANCED_FACE('', (#253), #272, .T.);
#253 = FACE_OUTER_BOUND('', #254, .T.);
#254 = EDGE_LOOP('', (#255, #263, #264, #265));
#255 = ORIENTED_EDGE('', *, *, #256, .F.);
#256 = EDGE_CURVE('', #240, #257, #259, .T.);
#257 = VERTEX_POINT('', #258);
#258 = CARTESIAN_POINT('', (-5., 6.12323399573677E-15, -95.));
#259 = LINE('', #260, #261);
#260 = CARTESIAN_POINT('', (-5., 5.75583995599256E-15, -89.));
#261 = VECTOR('', #262, 6.);
#262 = DIRECTION('', (0., 3.6739403974421E-16, -6.));
#263 = ORIENTED_EDGE('', *, *, #239, .T.);
#264 = ORIENTED_EDGE('', *, *, #256, .T.);
#265 = ORIENTED_EDGE('', *, *, #266, .F.);
#266 = EDGE_CURVE('', #257, #257, #267, .T.);
#267 = CIRCLE('', #268, 5.);
#268 = AXIS2_PLACEMENT_3D('', #269, #270, #271);
#269 = CARTESIAN_POINT('', (-1.92901250528621E-15, 7.54951656745106E-15, -95.));
#270 = DIRECTION('', (0., 0., -1.));
#271 = DIRECTION('', (-1., -2.85256514342859E-16, 0.));
#272 = (
   BOUNDED_SURFACE ()
   B_SPLINE_SURFACE (2, 1, ((#273, #274), (#275, #276), (#277, #278), (#279, #280), (#281, #282), (#283, #284), (#285, #286), (#287, #288), (#289, #290)), .UNSPECIFIED., .T., .F., .U.)
   B_SPLINE_SURFACE_WITH_KNOTS ((3, 2, 2, 2, 3), (2, 2), (0., 7.85398163397447, 15.707963267949, 23.5619449019234, 31.4159265358979), (0., 1.), .UNSPECIFIED.)
   GEOMETRIC_REPRESENTATION_ITEM ()
   RATIONAL_B_SPLINE_SURFACE (((1., 1.), (0.707106781186548, 0.707106781186548), (1., 1.), (0.707106781186548, 0.707106781186548), (1., 1.), (0.707106781186548, 0.707106781186548), (1., 1.), (0.707106781186548, 0.707106781186548), (1., 1.)))
   REPRESENTATION_ITEM ('')
   SURFACE ()
);
#273 = CARTESIAN_POINT('', (-5., 5.75583995599256E-15, -89.));
#274 = CARTESIAN_POINT('', (-5., 1.06408212643432E-14, -95.));
#275 = CARTESIAN_POINT('', (-4.99999999999999, 5.00000000000001, -89.));
#276 = CARTESIAN_POINT('', (-4.99999999999999, 5.00000000000001, -95.));
#277 = CARTESIAN_POINT('', (6.17132322221207E-15, 5., -89.));
#278 = CARTESIAN_POINT('', (6.17132322221208E-15, 5.00000000000001, -95.));
#279 = CARTESIAN_POINT('', (5.00000000000001, 5., -89.));
#280 = CARTESIAN_POINT('', (5.00000000000001, 5., -95.));
#281 = CARTESIAN_POINT('', (5., -3.58920432194366E-15, -89.));
#282 = CARTESIAN_POINT('', (5., 1.29577698640702E-15, -95.));
#283 = CARTESIAN_POINT('', (5., -5., -89.));
#284 = CARTESIAN_POINT('', (5., -5., -95.));
#285 = CARTESIAN_POINT('', (-2.56139765615047E-15, -5., -89.));
#286 = CARTESIAN_POINT('', (-2.56139765615047E-15, -4.99999999999999, -95.));
#287 = CARTESIAN_POINT('', (-5., -4.99999999999999, -89.));
#288 = CARTESIAN_POINT('', (-5., -4.99999999999999, -95.));
#289 = CARTESIAN_POINT('', (-5., 5.75583995599256E-15, -89.));
#290 = CARTESIAN_POINT('', (-5., 1.06408212643432E-14, -95.));
#291 = ADVANCED_FACE('', (#292), #305, .T.);
#292 = FACE_OUTER_BOUND('', #293, .T.);
#293 = EDGE_LOOP('', (#294, #303, #304));
#294 = ORIENTED_EDGE('', *, *, #295, .F.);
#295 = EDGE_CURVE('', #257, #296, #298, .T.);
#296 = VERTEX_POINT('', #297);
#297 = CARTESIAN_POINT('', (1.80666351906064E-15, 6.12323399573677E-15, -100.));
#298 = CIRCLE('', #299, 5.);
#299 = AXIS2_PLACEMENT_3D('', #300, #301, #302);
#300 = CARTESIAN_POINT('', (-1.33226762955019E-14, 5.81707229594994E-15, -95.));
#301 = DIRECTION('', (-6.1232339957366E-17, -1., -6.12323399573661E-17));
#302 = DIRECTION('', (-1., 6.12323399573662E-17, -2.84217094304041E-15));
#303 = ORIENTED_EDGE('', *, *, #266, .T.);
#304 = ORIENTED_EDGE('', *, *, #295, .T.);
#305 = (
   BOUNDED_SURFACE ()
   B_SPLINE_SURFACE (2, 2, ((#306, #307, #308), (#309, #310, #311), (#312, #313, #314), (#315, #316, #317), (#318, #319, #320), (#321, #322, #323), (#324, #325, #326), (#327, #328, #329), (#330, #331, #332)), .UNSPECIFIED., .T., .F., .U.)
   B_SPLINE_SURFACE_WITH_KNOTS ((3, 2, 2, 2, 3), (3, 3), (0., 0.25, 0.5, 0.75, 1.), (0., 1.), .UNSPECIFIED.)
   GEOMETRIC_REPRESENTATION_ITEM ()
   RATIONAL_B_SPLINE_SURFACE (((1., 0.707106781186548, 1.), (0.707106781186548, 0.5, 0.707106781186548), (1., 0.707106781186548, 1.), (0.707106781186548, 0.5, 0.707106781186548), (1., 0.707106781186548, 1.), (0.707106781186548, 0.5, 0.707106781186548), (1., 0.707106781186548, 1.), (0.707106781186548, 0.5, 0.707106781186548), (1., 0.707106781186548, 1.)))
   REPRESENTATION_ITEM ('')
   SURFACE ()
);
#306 = CARTESIAN_POINT('', (-5., 6.12323399573677E-15, -95.));
#307 = CARTESIAN_POINT('', (-5., 6.4293956955236E-15, -100.));
#308 = CARTESIAN_POINT('', (1.80666351906064E-15, 6.12323399573677E-15, -100.));
#309 = CARTESIAN_POINT('', (-5., 4.99999999999996, -95.));
#310 = CARTESIAN_POINT('', (-5., 4.99999999999996, -100.));
#311 = CARTESIAN_POINT('', (1.80666351906064E-15, 6.12323399573677E-15, -100.));
#312 = CARTESIAN_POINT('', (-4.9737991503207E-14, 4.99999999999996, -95.));
#313 = CARTESIAN_POINT('', (-4.94318298034202E-14, 4.99999999999996, -100.));
#314 = CARTESIAN_POINT('', (1.80666351906064E-15, 6.12323399573677E-15, -100.));
#315 = CARTESIAN_POINT('', (4.9999999999999, 4.99999999999996, -95.));
#316 = CARTESIAN_POINT('', (4.9999999999999, 4.99999999999996, -100.));
#317 = CARTESIAN_POINT('', (1.80666351906064E-15, 6.12323399573677E-15, -100.));
#318 = CARTESIAN_POINT('', (4.9999999999999, 6.12323399573679E-15, -95.));
#319 = CARTESIAN_POINT('', (4.9999999999999, 5.81707229594997E-15, -100.));
#320 = CARTESIAN_POINT('', (1.80666351906064E-15, 6.12323399573677E-15, -100.));
#321 = CARTESIAN_POINT('', (4.9999999999999, -4.99999999999994, -95.));
#322 = CARTESIAN_POINT('', (4.9999999999999, -4.99999999999994, -100.));
#323 = CARTESIAN_POINT('', (1.80666351906064E-15, 6.12323399573677E-15, -100.));
#324 = CARTESIAN_POINT('', (-4.91256681036333E-14, -4.99999999999994, -95.));
#325 = CARTESIAN_POINT('', (-4.94318298034202E-14, -4.99999999999994, -100.));
#326 = CARTESIAN_POINT('', (1.80666351906064E-15, 6.12323399573677E-15, -100.));
#327 = CARTESIAN_POINT('', (-5., -4.99999999999994, -95.));
#328 = CARTESIAN_POINT('', (-5., -4.99999999999994, -100.));
#329 = CARTESIAN_POINT('', (1.80666351906064E-15, 6.12323399573677E-15, -100.));
#330 = CARTESIAN_POINT('', (-5., 6.12323399573677E-15, -95.));
#331 = CARTESIAN_POINT('', (-5., 6.4293956955236E-15, -100.));
#332 = CARTESIAN_POINT('', (1.80666351906064E-15, 6.12323399573677E-15, -100.));
#333 = PRESENTATION_STYLE_ASSIGNMENT((#334));
#334 = SURFACE_STYLE_USAGE(.POSITIVE., #335);
#335 = SURFACE_SIDE_STYLE('', (#336));
#336 = SURFACE_STYLE_FILL_AREA(#337);
#337 = FILL_AREA_STYLE('', (#338));
#338 = FILL_AREA_STYLE_COLOUR('', #339);
#339 = COLOUR_RGB('', 0.8, 0.8, 0.8);
#340 = STYLED_ITEM('', (#333), #233);
#341 = TRIMMED_CURVE('cutting part line', #342, (#346), (#347), .T., .CARTESIAN.);
#342 = LINE('', #343, #344);
#343 = CARTESIAN_POINT('', (-1.00108965492679E-30, -5.44967825620572E-15, -89.));
#344 = VECTOR('', #345, 5.);
#345 = DIRECTION('', (5., -9.18485099360517E-16, 0.));
#346 = CARTESIAN_POINT('', (-1.00108965492679E-30, -5.44967825620572E-15, -89.));
#347 = CARTESIAN_POINT('', (5., -6.36816335556624E-15, -89.));
#348 = TRIMMED_CURVE('cutting part line', #349, (#353), (#354), .T., .CARTESIAN.);
#349 = LINE('', #350, #351);
#350 = CARTESIAN_POINT('', (5., -6.36816335556624E-15, -89.));
#351 = VECTOR('', #352, 6.);
#352 = DIRECTION('', (0., -3.6739403974421E-16, -6.));
#353 = CARTESIAN_POINT('', (5., -6.36816335556624E-15, -89.));
#354 = CARTESIAN_POINT('', (5., -6.73555739531045E-15, -95.));
#355 = TRIMMED_CURVE('cutting part line', #356, (#361), (#362), .T., .CARTESIAN.);
#356 = CIRCLE('', #357, 4.99999999999998);
#357 = AXIS2_PLACEMENT_3D('', #358, #359, #360);
#358 = CARTESIAN_POINT('', (1.50990331349021E-14, -5.81707229594994E-15, -95.));
#359 = DIRECTION('', (1.83697019872103E-16, 1., -6.12323399573677E-17));
#360 = DIRECTION('', (1., -1.83697019872103E-16, 2.84217094304041E-15));
#361 = CARTESIAN_POINT('', (5., -6.73555739531045E-15, -95.));
#362 = CARTESIAN_POINT('', (-3.69064118886361E-15, -6.12323399573677E-15, -100.));
#363 = TRIMMED_CURVE('cutting part line', #364, (#368), (#369), .T., .CARTESIAN.);
#364 = LINE('', #365, #366);
#365 = CARTESIAN_POINT('', (-1.12481983699639E-30, -6.12323399573677E-15, -100.));
#366 = VECTOR('', #367, 11.);
#367 = DIRECTION('', (1.23730182069604E-31, 6.7355573953105E-16, 11.));
#368 = CARTESIAN_POINT('', (-1.12481983699639E-30, -6.12323399573677E-15, -100.));
#369 = CARTESIAN_POINT('', (-1.00108965492679E-30, -5.44967825620572E-15, -89.));
#370 = COMPOSITE_CURVE('cutting part line', (#371, #372, #373, #374), .U.);
#371 = COMPOSITE_CURVE_SEGMENT(.CONTINUOUS., .T., #341);
#372 = COMPOSITE_CURVE_SEGMENT(.CONTINUOUS., .T., #348);
#373 = COMPOSITE_CURVE_SEGMENT(.CONTINUOUS., .T., #355);
#374 = COMPOSITE_CURVE_SEGMENT(.CONTINUOUS., .T., #363);
#375 = GEOMETRIC_SET('', (#370, #413));
#376 = PRESENTATION_STYLE_ASSIGNMENT((#377));
#377 = CURVE_STYLE('', #379, POSITIVE_LENGTH_MEASURE(1.E-6), #378);
#378 = COLOUR_RGB('', 0., 0., 1.);
#379 = DRAUGHTING_PRE_DEFINED_CURVE_FONT('continuous');
#380 = STYLED_ITEM('', (#376), #370);
#381 = PRESENTATION_STYLE_ASSIGNMENT((#382));
#382 = CURVE_STYLE('', #384, POSITIVE_LENGTH_MEASURE(1.E-6), #383);
#383 = COLOUR_RGB('', 0., 0., 1.);
#384 = DRAUGHTING_PRE_DEFINED_CURVE_FONT('continuous');
#385 = OVER_RIDING_STYLED_ITEM('', (#381), #341, #380);
#386 = PRESENTATION_STYLE_ASSIGNMENT((#387));
#387 = CURVE_STYLE('', #389, POSITIVE_LENGTH_MEASURE(1.E-6), #388);
#388 = COLOUR_RGB('', 0., 0., 1.);
#389 = DRAUGHTING_PRE_DEFINED_CURVE_FONT('continuous');
#390 = OVER_RIDING_STYLED_ITEM('', (#386), #348, #380);
#391 = PRESENTATION_STYLE_ASSIGNMENT((#392));
#392 = CURVE_STYLE('', #394, POSITIVE_LENGTH_MEASURE(1.E-6), #393);
#393 = COLOUR_RGB('', 0., 0., 1.);
#394 = DRAUGHTING_PRE_DEFINED_CURVE_FONT('continuous');
#395 = OVER_RIDING_STYLED_ITEM('', (#391), #355, #380);
#396 = PRESENTATION_STYLE_ASSIGNMENT((#397));
#397 = CURVE_STYLE('', #399, POSITIVE_LENGTH_MEASURE(1.E-6), #398);
#398 = COLOUR_RGB('', 0., 0., 1.);
#399 = DRAUGHTING_PRE_DEFINED_CURVE_FONT('continuous');
#400 = OVER_RIDING_STYLED_ITEM('', (#396), #363, #380);
#401 = AXIS2_PLACEMENT_3D('CIP', #402, #403, #404);
#402 = CARTESIAN_POINT('', (3.74939945665464E-31, 6.12323399573677E-15, -100.));
#403 = DIRECTION('', (-3.74939945665465E-33, -6.12323399573677E-17, 1.));
#404 = DIRECTION('', (1., -6.12323399573677E-17, 0.));
#405 = AXIS2_PLACEMENT_3D('MCS', #406, #407, #408);
#406 = CARTESIAN_POINT('', (1.49975978266186E-31, 2.44929359829471E-15, -40.));
#407 = DIRECTION('', (-3.74939945665465E-33, -6.12323399573677E-17, 1.));
#408 = DIRECTION('', (1., -6.12323399573677E-17, 0.));
#409 = AXIS2_PLACEMENT_3D('PCS', #410, #411, #412);
#410 = CARTESIAN_POINT('', (0., 0., 0.));
#411 = DIRECTION('', (0., 0., 1.));
#412 = DIRECTION('', (1., 0., 0.));
#413 = CARTESIAN_POINT('CRP', (5., 0., -100.));
#414 = (
   GEOMETRIC_REPRESENTATION_CONTEXT (3)
   GLOBAL_UNCERTAINTY_ASSIGNED_CONTEXT ((#416))
   GLOBAL_UNIT_ASSIGNED_CONTEXT ((#415, #417, #418))
   REPRESENTATION_CONTEXT ('', '3D')
);
#415 = (
   LENGTH_UNIT ()
   NAMED_UNIT (*)
   SI_UNIT (.MILLI., .METRE.)
);
#416 = UNCERTAINTY_MEASURE_WITH_UNIT(LENGTH_MEASURE(1.E-6), #415, 'DISTANCE_ACCURACY_VALUE', '');
#417 = (
   NAMED_UNIT (*)
   SI_UNIT ($, .STERADIAN.)
   SOLID_ANGLE_UNIT ()
);
#418 = (
   NAMED_UNIT (*)
   PLANE_ANGLE_UNIT ()
   SI_UNIT ($, .RADIAN.)
);
#419 = SHAPE_REPRESENTATION('', (), #414);
#420 = PRODUCT_DEFINITION_SHAPE('', '', #421);
#421 = PRODUCT_DEFINITION('', '', #424, #428);
#422 = APPLICATION_CONTEXT('configuration controlled 3D designs of mechanical parts and assemblies');
#423 = APPLICATION_PROTOCOL_DEFINITION('International Standard', 'automotive_design', 2002, #422);
#424 = PRODUCT_DEFINITION_FORMATION_WITH_SPECIFIED_SOURCE('', '', #425, .NOT_KNOWN.);
#425 = PRODUCT('EmptyName', 'EmptyName', '', (#426));
#426 = PRODUCT_CONTEXT('', #422, 'mechanical');
#427 = PRODUCT_RELATED_PRODUCT_CATEGORY('detail', '', (#425));
#428 = PRODUCT_DEFINITION_CONTEXT('part definition', #422, 'design');
#429 = SHAPE_DEFINITION_REPRESENTATION(#420, #419);
#430 = CONSTRUCTIVE_GEOMETRY_REPRESENTATION('supplemental geometry', (#401, #405, #409), #414);
#431 = CONSTRUCTIVE_GEOMETRY_REPRESENTATION_RELATIONSHIP('', '', #419, #430);
#432 = SHAPE_REPRESENTATION_RELATIONSHIP('', '', #419, #433);
#433 = SHAPE_REPRESENTATION('', (#375), #414);
#434 = SHAPE_REPRESENTATION_RELATIONSHIP('', '', #419, #435);
#435 = ADVANCED_BREP_SHAPE_REPRESENTATION('', (#1, #233), #414);
ENDSEC;
END-ISO-10303-21;
