ISO-10303-21;
HEADER;
FILE_DESCRIPTION(('STEP'), '1');
FILE_NAME('C:\\Users\\ds2002\\OneDrive - Sandvik\\HomeShare\\Documents\\Batchrepair\\CorSRT2\\NEW_MILBN_SLD\\Output2\\MOD000000000000000020084650400000.stp', '2018-11-23T12:39:17', (''), (''), 'Express v3.0.0.0', 'Express Tool', 'Unknown');
FILE_SCHEMA(('AUTOMOTIVE_DESIGN'));
ENDSEC;

DATA;
#1 = MANIFOLD_SOLID_BREP('NOCUT', #2);
#2 = CLOSED_SHELL('', (#3, #50, #59, #98));
#3 = ADVANCED_FACE('', (#4), #31, .T.);
#4 = FACE_OUTER_BOUND('', #5, .T.);
#5 = EDGE_LOOP('', (#6, #16, #23, #24));
#6 = ORIENTED_EDGE('', *, *, #7, .T.);
#7 = EDGE_CURVE('', #8, #10, #12, .T.);
#8 = VERTEX_POINT('', #9);
#9 = CARTESIAN_POINT('', (-6., 4.04133443718626E-16, -0.600000000000001));
#10 = VERTEX_POINT('', #11);
#11 = CARTESIAN_POINT('', (-5.4, 3.30654635769785E-16, 0.));
#12 = LINE('', #13, #14);
#13 = CARTESIAN_POINT('', (-6., 4.04133443718626E-16, -0.600000000000001));
#14 = VECTOR('', #15, 0.848528137423857);
#15 = DIRECTION('', (0.6, -7.3478807948841E-17, 0.600000000000001));
#16 = ORIENTED_EDGE('', *, *, #17, .T.);
#17 = EDGE_CURVE('', #10, #10, #18, .T.);
#18 = CIRCLE('', #19, 5.4);
#19 = AXIS2_PLACEMENT_3D('', #20, #21, #22);
#20 = CARTESIAN_POINT('', (1.2490009027033E-16, -3.77475828372553E-15, -3.26637718568075E-31));
#21 = DIRECTION('', (-1.39358664844757E-32, 6.12323399573677E-17, -1.));
#22 = DIRECTION('', (-1., 7.60261651758392E-16, 6.04884664014954E-32));
#23 = ORIENTED_EDGE('', *, *, #7, .F.);
#24 = ORIENTED_EDGE('', *, *, #25, .F.);
#25 = EDGE_CURVE('', #8, #8, #26, .T.);
#26 = CIRCLE('', #27, 6.);
#27 = AXIS2_PLACEMENT_3D('', #28, #29, #30);
#28 = CARTESIAN_POINT('', (-1.22124532708767E-15, -2.1094237467878E-15, -0.600000000000001));
#29 = DIRECTION('', (-1.85037170770859E-17, 1.2317654765601E-16, -1.));
#30 = DIRECTION('', (-1., 1.73996838588266E-16, 1.85037170770859E-17));
#31 = (
   BOUNDED_SURFACE ()
   B_SPLINE_SURFACE (1, 2, ((#32, #33, #34, #35, #36, #37, #38, #39, #40), (#41, #42, #43, #44, #45, #46, #47, #48, #49)), .UNSPECIFIED., .F., .T., .U.)
   B_SPLINE_SURFACE_WITH_KNOTS ((2, 2), (3, 2, 2, 2, 3), (0., 1.), (0., 0.25, 0.5, 0.75, 1.), .UNSPECIFIED.)
   GEOMETRIC_REPRESENTATION_ITEM ()
   RATIONAL_B_SPLINE_SURFACE (((1., 0.707106781186548, 1., 0.707106781186548, 1., 0.707106781186548, 1., 0.707106781186548, 1.), (1., 0.707106781186548, 1., 0.707106781186548, 1., 0.707106781186548, 1., 0.707106781186548, 1.)))
   REPRESENTATION_ITEM ('')
   SURFACE ()
);
#32 = CARTESIAN_POINT('', (-6., 2.98258605330568E-15, -0.600000000000001));
#33 = CARTESIAN_POINT('', (-6., 6., -0.599999999999978));
#34 = CARTESIAN_POINT('', (4.68298239692583E-15, 6., -0.599999999999978));
#35 = CARTESIAN_POINT('', (6., 6., -0.599999999999978));
#36 = CARTESIAN_POINT('', (6., -2.69188718366733E-15, -0.600000000000001));
#37 = CARTESIAN_POINT('', (6., -6., -0.600000000000024));
#38 = CARTESIAN_POINT('', (-2.56702760558774E-16, -6., -0.600000000000024));
#39 = CARTESIAN_POINT('', (-6., -6., -0.600000000000024));
#40 = CARTESIAN_POINT('', (-6., 2.98258605330568E-15, -0.600000000000001));
#41 = CARTESIAN_POINT('', (-5.4, 3.30654635769784E-16, -6.56858655152258E-47));
#42 = CARTESIAN_POINT('', (-5.4, 5.4, 2.09832151654154E-14));
#43 = CARTESIAN_POINT('', (4.39925873507718E-15, 5.4, 2.09832151654154E-14));
#44 = CARTESIAN_POINT('', (5.4, 5.4, 2.09832151654154E-14));
#45 = CARTESIAN_POINT('', (5.4, -4.77637127750593E-15, 2.27387988935674E-30));
#46 = CARTESIAN_POINT('', (5.4, -5.40000000000001, -2.09832151654154E-14));
#47 = CARTESIAN_POINT('', (-4.64579066589654E-17, -5.4, -2.09832151654154E-14));
#48 = CARTESIAN_POINT('', (-5.4, -5.4, -2.09832151654154E-14));
#49 = CARTESIAN_POINT('', (-5.4, 3.30654635769784E-16, -6.56858655152258E-47));
#50 = ADVANCED_FACE('', (#51), #54, .T.);
#51 = FACE_OUTER_BOUND('', #52, .T.);
#52 = EDGE_LOOP('', (#53));
#53 = ORIENTED_EDGE('', *, *, #17, .F.);
#54 = B_SPLINE_SURFACE_WITH_KNOTS('', 1, 1, ((#55, #56), (#57, #58)), .UNSPECIFIED., .F., .F., .U., (2, 2), (2, 2), (3.00042856049619, 13.8004285604962), (3.00042856049619, 13.8004285604962), .UNSPECIFIED.);
#55 = CARTESIAN_POINT('', (5.4, -5.4, 6.77477272183123E-15));
#56 = CARTESIAN_POINT('', (-5.4, -5.4, 6.77477272183123E-15));
#57 = CARTESIAN_POINT('', (5.4, 5.4, -6.77477272183114E-15));
#58 = CARTESIAN_POINT('', (-5.4, 5.4, -6.77477272183114E-15));
#59 = ADVANCED_FACE('', (#60), #79, .T.);
#60 = FACE_OUTER_BOUND('', #61, .T.);
#61 = EDGE_LOOP('', (#62, #71, #77, #78));
#62 = ORIENTED_EDGE('', *, *, #63, .F.);
#63 = EDGE_CURVE('', #64, #64, #66, .T.);
#64 = VERTEX_POINT('', #65);
#65 = CARTESIAN_POINT('', (-6., 4.3474961369731E-15, -65.));
#66 = CIRCLE('', #67, 6.);
#67 = AXIS2_PLACEMENT_3D('', #68, #69, #70);
#68 = CARTESIAN_POINT('', (1.38777878078145E-15, 3.10862446895044E-15, -65.));
#69 = DIRECTION('', (2.368475785867E-15, -7.70540152533538E-15, -1.));
#70 = DIRECTION('', (-1., 2.0647861133711E-16, -2.368475785867E-15));
#71 = ORIENTED_EDGE('', *, *, #72, .T.);
#72 = EDGE_CURVE('', #64, #8, #73, .T.);
#73 = LINE('', #74, #75);
#74 = CARTESIAN_POINT('', (-6., 4.3474961369731E-15, -65.));
#75 = VECTOR('', #76, 64.4);
#76 = DIRECTION('', (0., -3.94336269325447E-15, 64.4));
#77 = ORIENTED_EDGE('', *, *, #25, .T.);
#78 = ORIENTED_EDGE('', *, *, #72, .F.);
#79 = (
   BOUNDED_SURFACE ()
   B_SPLINE_SURFACE (1, 2, ((#80, #81, #82, #83, #84, #85, #86, #87, #88), (#89, #90, #91, #92, #93, #94, #95, #96, #97)), .UNSPECIFIED., .F., .T., .U.)
   B_SPLINE_SURFACE_WITH_KNOTS ((2, 2), (3, 2, 2, 2, 3), (-0.418502202643172, 1.), (0., 0.25, 0.5, 0.75, 1.), .UNSPECIFIED.)
   GEOMETRIC_REPRESENTATION_ITEM ()
   RATIONAL_B_SPLINE_SURFACE (((1., 0.707106781186548, 1., 0.707106781186548, 1., 0.707106781186548, 1., 0.707106781186548, 1.), (1., 0.707106781186548, 1., 0.707106781186548, 1., 0.707106781186548, 1., 0.707106781186548, 1.)))
   REPRESENTATION_ITEM ('')
   SURFACE ()
);
#80 = CARTESIAN_POINT('', (-6., 1.40333416588127E-15, -65.));
#81 = CARTESIAN_POINT('', (-6., 6., -65.));
#82 = CARTESIAN_POINT('', (1.01003492222914E-15, 6., -65.));
#83 = CARTESIAN_POINT('', (6., 6., -65.));
#84 = CARTESIAN_POINT('', (6., -2.44490292579311E-15, -65.));
#85 = CARTESIAN_POINT('', (6., -6., -65.));
#86 = CARTESIAN_POINT('', (-2.10341408995682E-15, -6., -65.));
#87 = CARTESIAN_POINT('', (-6., -6., -65.));
#88 = CARTESIAN_POINT('', (-6., 1.40333416588127E-15, -65.));
#89 = CARTESIAN_POINT('', (-6., 4.04133443718626E-16, -0.600000000000001));
#90 = CARTESIAN_POINT('', (-6., 6., -0.600000000000001));
#91 = CARTESIAN_POINT('', (2.20167430199348E-15, 6., -0.600000000000001));
#92 = CARTESIAN_POINT('', (6., 6., -0.600000000000001));
#93 = CARTESIAN_POINT('', (6., -3.44410364795575E-15, -0.600000000000001));
#94 = CARTESIAN_POINT('', (6., -6., -0.600000000000001));
#95 = CARTESIAN_POINT('', (-9.11774710192485E-16, -6., -0.600000000000001));
#96 = CARTESIAN_POINT('', (-6., -6., -0.600000000000001));
#97 = CARTESIAN_POINT('', (-6., 4.04133443718626E-16, -0.600000000000001));
#98 = ADVANCED_FACE('', (#99), #102, .T.);
#99 = FACE_OUTER_BOUND('', #100, .T.);
#100 = EDGE_LOOP('', (#101));
#101 = ORIENTED_EDGE('', *, *, #63, .T.);
#102 = B_SPLINE_SURFACE_WITH_KNOTS('', 1, 1, ((#103, #104), (#105, #106)), .UNSPECIFIED., .F., .F., .U., (2, 2), (2, 2), (82.1147720504664, 94.1147720504664), (75.3195891635452, 87.3195891635452), .UNSPECIFIED.);
#103 = CARTESIAN_POINT('', (-5.99999999999999, 6.00000000000001, -65.));
#104 = CARTESIAN_POINT('', (-6., -6., -65.));
#105 = CARTESIAN_POINT('', (6.00000000000001, 6.00000000000001, -65.));
#106 = CARTESIAN_POINT('', (6., -6., -65.));
#107 = DRAUGHTING_MODEL('', (#115, #223, #263, #268, #273, #278, #283), #297);
#108 = PRESENTATION_STYLE_ASSIGNMENT((#109));
#109 = SURFACE_STYLE_USAGE(.POSITIVE., #110);
#110 = SURFACE_SIDE_STYLE('', (#111));
#111 = SURFACE_STYLE_FILL_AREA(#112);
#112 = FILL_AREA_STYLE('', (#113));
#113 = FILL_AREA_STYLE_COLOUR('', #114);
#114 = COLOUR_RGB('', 0.50196078431373, 0.50196078431373, 0.50196078431373);
#115 = STYLED_ITEM('', (#108), #1);
#116 = MANIFOLD_SOLID_BREP('CUT', #117);
#117 = CLOSED_SHELL('', (#118, #135, #174));
#118 = ADVANCED_FACE('', (#119), #130, .T.);
#119 = FACE_OUTER_BOUND('', #120, .T.);
#120 = EDGE_LOOP('', (#121));
#121 = ORIENTED_EDGE('', *, *, #122, .F.);
#122 = EDGE_CURVE('', #123, #123, #125, .T.);
#123 = VERTEX_POINT('', #124);
#124 = CARTESIAN_POINT('', (-6., 4.3474961369731E-15, -65.));
#125 = CIRCLE('', #126, 6.);
#126 = AXIS2_PLACEMENT_3D('', #127, #128, #129);
#127 = CARTESIAN_POINT('', (1.38777878078145E-15, 3.10862446895044E-15, -65.));
#128 = DIRECTION('', (2.368475785867E-15, -7.70540152533538E-15, -1.));
#129 = DIRECTION('', (-1., 2.0647861133711E-16, -2.368475785867E-15));
#130 = B_SPLINE_SURFACE_WITH_KNOTS('', 1, 1, ((#131, #132), (#133, #134)), .UNSPECIFIED., .F., .F., .U., (2, 2), (2, 2), (75.3195891635452, 87.3195891635452), (82.1147720504664, 94.1147720504664), .UNSPECIFIED.);
#131 = CARTESIAN_POINT('', (-6., 6.00000000000001, -65.));
#132 = CARTESIAN_POINT('', (6., 6.00000000000001, -65.));
#133 = CARTESIAN_POINT('', (-6., -6., -65.));
#134 = CARTESIAN_POINT('', (6., -6., -65.));
#135 = ADVANCED_FACE('', (#136), #155, .T.);
#136 = FACE_OUTER_BOUND('', #137, .T.);
#137 = EDGE_LOOP('', (#138, #139, #147, #154));
#138 = ORIENTED_EDGE('', *, *, #122, .T.);
#139 = ORIENTED_EDGE('', *, *, #140, .F.);
#140 = EDGE_CURVE('', #141, #123, #143, .T.);
#141 = VERTEX_POINT('', #142);
#142 = CARTESIAN_POINT('', (-6., 5.08228421646152E-15, -77.));
#143 = LINE('', #144, #145);
#144 = CARTESIAN_POINT('', (-6., 5.08228421646152E-15, -77.));
#145 = VECTOR('', #146, 12.);
#146 = DIRECTION('', (0., -7.3478807948842E-16, 12.));
#147 = ORIENTED_EDGE('', *, *, #148, .F.);
#148 = EDGE_CURVE('', #141, #141, #149, .T.);
#149 = CIRCLE('', #150, 6.);
#150 = AXIS2_PLACEMENT_3D('', #151, #152, #153);
#151 = CARTESIAN_POINT('', (-1.41553435639707E-15, 1.99840144432528E-15, -77.));
#152 = DIRECTION('', (0., 0., -1.));
#153 = DIRECTION('', (-1., 5.13980462022706E-16, 0.));
#154 = ORIENTED_EDGE('', *, *, #140, .T.);
#155 = (
   BOUNDED_SURFACE ()
   B_SPLINE_SURFACE (1, 2, ((#156, #157, #158, #159, #160, #161, #162, #163, #164), (#165, #166, #167, #168, #169, #170, #171, #172, #173)), .UNSPECIFIED., .F., .T., .U.)
   B_SPLINE_SURFACE_WITH_KNOTS ((2, 2), (3, 2, 2, 2, 3), (-0.682819383259912, -0.418502202643172), (0., 0.25, 0.5, 0.75, 1.), .UNSPECIFIED.)
   GEOMETRIC_REPRESENTATION_ITEM ()
   RATIONAL_B_SPLINE_SURFACE (((1., 0.707106781186548, 1., 0.707106781186548, 1., 0.707106781186548, 1., 0.707106781186548, 1.), (1., 0.707106781186548, 1., 0.707106781186548, 1., 0.707106781186548, 1., 0.707106781186548, 1.)))
   REPRESENTATION_ITEM ('')
   SURFACE ()
);
#156 = CARTESIAN_POINT('', (-6., 1.46091627294769E-15, -77.));
#157 = CARTESIAN_POINT('', (-6., 6., -77.));
#158 = CARTESIAN_POINT('', (-1.670079142167E-17, 6., -77.));
#159 = CARTESIAN_POINT('', (6., 6., -77.));
#160 = CARTESIAN_POINT('', (6., -7.26128193459281E-16, -77.));
#161 = CARTESIAN_POINT('', (6., -6., -77.));
#162 = CARTESIAN_POINT('', (-1.46895717834023E-15, -6., -77.));
#163 = CARTESIAN_POINT('', (-6., -6., -77.));
#164 = CARTESIAN_POINT('', (-6., 1.46091627294769E-15, -77.));
#165 = CARTESIAN_POINT('', (-6., 4.3474961369731E-15, -65.));
#166 = CARTESIAN_POINT('', (-6., 6., -65.));
#167 = CARTESIAN_POINT('', (-1.67007914216693E-17, 6., -65.));
#168 = CARTESIAN_POINT('', (6., 6., -65.));
#169 = CARTESIAN_POINT('', (6., 2.16045167056613E-15, -65.));
#170 = CARTESIAN_POINT('', (6., -6., -65.));
#171 = CARTESIAN_POINT('', (-1.46895717834023E-15, -6., -65.));
#172 = CARTESIAN_POINT('', (-6., -6., -65.));
#173 = CARTESIAN_POINT('', (-6., 4.3474961369731E-15, -65.));
#174 = ADVANCED_FACE('', (#175), #188, .T.);
#175 = FACE_OUTER_BOUND('', #176, .T.);
#176 = EDGE_LOOP('', (#177, #186, #187));
#177 = ORIENTED_EDGE('', *, *, #178, .F.);
#178 = EDGE_CURVE('', #141, #179, #181, .T.);
#179 = VERTEX_POINT('', #180);
#180 = CARTESIAN_POINT('', (1.10218211923262E-15, 5.08228421646152E-15, -83.));
#181 = CIRCLE('', #182, 5.99999999999998);
#182 = AXIS2_PLACEMENT_3D('', #183, #184, #185);
#183 = CARTESIAN_POINT('', (-1.4210854715202E-14, 4.71489017671732E-15, -77.));
#184 = DIRECTION('', (-6.12323399573666E-17, -1., -6.12323399573665E-17));
#185 = DIRECTION('', (-1., 6.12323399573665E-17, 2.36847578586701E-15));
#186 = ORIENTED_EDGE('', *, *, #148, .T.);
#187 = ORIENTED_EDGE('', *, *, #178, .T.);
#188 = (
   BOUNDED_SURFACE ()
   B_SPLINE_SURFACE (2, 2, ((#189, #190, #191), (#192, #193, #194), (#195, #196, #197), (#198, #199, #200), (#201, #202, #203), (#204, #205, #206), (#207, #208, #209), (#210, #211, #212), (#213, #214, #215)), .UNSPECIFIED., .T., .F., .U.)
   B_SPLINE_SURFACE_WITH_KNOTS ((3, 2, 2, 2, 3), (3, 3), (0., 0.25, 0.5, 0.75, 1.), (0., 1.), .UNSPECIFIED.)
   GEOMETRIC_REPRESENTATION_ITEM ()
   RATIONAL_B_SPLINE_SURFACE (((1., 0.707106781186548, 1.), (0.707106781186548, 0.5, 0.707106781186548), (1., 0.707106781186548, 1.), (0.707106781186548, 0.5, 0.707106781186548), (1., 0.707106781186548, 1.), (0.707106781186548, 0.5, 0.707106781186548), (1., 0.707106781186548, 1.), (0.707106781186548, 0.5, 0.707106781186548), (1., 0.707106781186548, 1.)))
   REPRESENTATION_ITEM ('')
   SURFACE ()
);
#189 = CARTESIAN_POINT('', (-6., 5.08228421646152E-15, -77.));
#190 = CARTESIAN_POINT('', (-6., 5.44967825620572E-15, -83.));
#191 = CARTESIAN_POINT('', (1.10218211923262E-15, 5.08228421646152E-15, -83.));
#192 = CARTESIAN_POINT('', (-6., 5.99999999999994, -77.));
#193 = CARTESIAN_POINT('', (-6.00000000000005, 5.99999999999994, -83.));
#194 = CARTESIAN_POINT('', (1.10218211923262E-15, 5.08228421646152E-15, -83.));
#195 = CARTESIAN_POINT('', (-6.66133814775091E-14, 5.99999999999994, -77.));
#196 = CARTESIAN_POINT('', (-1.14613166885564E-13, 5.99999999999999, -83.));
#197 = CARTESIAN_POINT('', (1.10218211923262E-15, 5.08228421646152E-15, -83.));
#198 = CARTESIAN_POINT('', (5.99999999999987, 5.99999999999994, -77.));
#199 = CARTESIAN_POINT('', (5.99999999999982, 6.00000000000003, -83.));
#200 = CARTESIAN_POINT('', (1.10218211923262E-15, 5.08228421646152E-15, -83.));
#201 = CARTESIAN_POINT('', (5.99999999999987, 5.08228421646086E-15, -77.));
#202 = CARTESIAN_POINT('', (5.99999999999987, 1.01449249072315E-13, -83.));
#203 = CARTESIAN_POINT('', (1.10218211923262E-15, 5.08228421646152E-15, -83.));
#204 = CARTESIAN_POINT('', (5.99999999999987, -5.99999999999993, -77.));
#205 = CARTESIAN_POINT('', (5.99999999999991, -5.99999999999983, -83.));
#206 = CARTESIAN_POINT('', (1.10218211923262E-15, 5.08228421646152E-15, -83.));
#207 = CARTESIAN_POINT('', (-6.58785933980213E-14, -5.99999999999993, -77.));
#208 = CARTESIAN_POINT('', (-1.78788079899662E-14, -5.99999999999988, -83.));
#209 = CARTESIAN_POINT('', (1.10218211923262E-15, 5.08228421646152E-15, -83.));
#210 = CARTESIAN_POINT('', (-6., -5.99999999999993, -77.));
#211 = CARTESIAN_POINT('', (-5.99999999999995, -5.99999999999993, -83.));
#212 = CARTESIAN_POINT('', (1.10218211923262E-15, 5.08228421646152E-15, -83.));
#213 = CARTESIAN_POINT('', (-6., 5.08228421646152E-15, -77.));
#214 = CARTESIAN_POINT('', (-6., 5.44967825620572E-15, -83.));
#215 = CARTESIAN_POINT('', (1.10218211923262E-15, 5.08228421646152E-15, -83.));
#216 = PRESENTATION_STYLE_ASSIGNMENT((#217));
#217 = SURFACE_STYLE_USAGE(.POSITIVE., #218);
#218 = SURFACE_SIDE_STYLE('', (#219));
#219 = SURFACE_STYLE_FILL_AREA(#220);
#220 = FILL_AREA_STYLE('', (#221));
#221 = FILL_AREA_STYLE_COLOUR('', #222);
#222 = COLOUR_RGB('', 0.8, 0.8, 0.8);
#223 = STYLED_ITEM('', (#216), #116);
#224 = TRIMMED_CURVE('cutting part line', #225, (#229), (#230), .T., .CARTESIAN.);
#225 = LINE('', #226, #227);
#226 = CARTESIAN_POINT('', (-7.31132894047656E-31, -3.9801020972289E-15, -65.));
#227 = VECTOR('', #228, 6.);
#228 = DIRECTION('', (6., -1.10218211923261E-15, 0.));
#229 = CARTESIAN_POINT('', (-7.31132894047656E-31, -3.9801020972289E-15, -65.));
#230 = CARTESIAN_POINT('', (6., -5.08228421646151E-15, -65.));
#231 = TRIMMED_CURVE('cutting part line', #232, (#236), (#237), .T., .CARTESIAN.);
#232 = LINE('', #233, #234);
#233 = CARTESIAN_POINT('', (6., -5.08228421646151E-15, -65.));
#234 = VECTOR('', #235, 12.);
#235 = DIRECTION('', (0., -7.3478807948842E-16, -12.));
#236 = CARTESIAN_POINT('', (6., -5.08228421646151E-15, -65.));
#237 = CARTESIAN_POINT('', (6., -5.81707229594993E-15, -77.));
#238 = TRIMMED_CURVE('cutting part line', #239, (#244), (#245), .T., .CARTESIAN.);
#239 = CIRCLE('', #240, 5.99999999999999);
#240 = AXIS2_PLACEMENT_3D('', #241, #242, #243);
#241 = CARTESIAN_POINT('', (4.44089209850063E-15, -4.71489017671732E-15, -77.));
#242 = DIRECTION('', (1.83697019872102E-16, 1., -6.12323399573664E-17));
#243 = DIRECTION('', (1., -1.83697019872102E-16, 2.368475785867E-15));
#244 = CARTESIAN_POINT('', (5.99999999999999, -5.81707229594993E-15, -77.));
#245 = CARTESIAN_POINT('', (-2.29714121935614E-15, -5.08228421646152E-15, -83.));
#246 = TRIMMED_CURVE('cutting part line', #247, (#251), (#252), .T., .CARTESIAN.);
#247 = LINE('', #248, #249);
#248 = CARTESIAN_POINT('', (-9.33600464707006E-31, -5.08228421646152E-15, -83.));
#249 = VECTOR('', #250, 18.);
#250 = DIRECTION('', (2.0246757065935E-31, 1.10218211923262E-15, 18.));
#251 = CARTESIAN_POINT('', (-9.33600464707006E-31, -5.08228421646152E-15, -83.));
#252 = CARTESIAN_POINT('', (-7.31132894047656E-31, -3.9801020972289E-15, -65.));
#253 = COMPOSITE_CURVE('cutting part line', (#254, #255, #256, #257), .U.);
#254 = COMPOSITE_CURVE_SEGMENT(.CONTINUOUS., .T., #224);
#255 = COMPOSITE_CURVE_SEGMENT(.CONTINUOUS., .T., #231);
#256 = COMPOSITE_CURVE_SEGMENT(.CONTINUOUS., .T., #238);
#257 = COMPOSITE_CURVE_SEGMENT(.CONTINUOUS., .T., #246);
#258 = GEOMETRIC_SET('', (#253, #296));
#259 = PRESENTATION_STYLE_ASSIGNMENT((#260));
#260 = CURVE_STYLE('', #262, POSITIVE_LENGTH_MEASURE(1.E-6), #261);
#261 = COLOUR_RGB('', 0., 0., 1.);
#262 = DRAUGHTING_PRE_DEFINED_CURVE_FONT('continuous');
#263 = STYLED_ITEM('', (#259), #253);
#264 = PRESENTATION_STYLE_ASSIGNMENT((#265));
#265 = CURVE_STYLE('', #267, POSITIVE_LENGTH_MEASURE(1.E-6), #266);
#266 = COLOUR_RGB('', 0., 0., 1.);
#267 = DRAUGHTING_PRE_DEFINED_CURVE_FONT('continuous');
#268 = OVER_RIDING_STYLED_ITEM('', (#264), #224, #263);
#269 = PRESENTATION_STYLE_ASSIGNMENT((#270));
#270 = CURVE_STYLE('', #272, POSITIVE_LENGTH_MEASURE(1.E-6), #271);
#271 = COLOUR_RGB('', 0., 0., 1.);
#272 = DRAUGHTING_PRE_DEFINED_CURVE_FONT('continuous');
#273 = OVER_RIDING_STYLED_ITEM('', (#269), #231, #263);
#274 = PRESENTATION_STYLE_ASSIGNMENT((#275));
#275 = CURVE_STYLE('', #277, POSITIVE_LENGTH_MEASURE(1.E-6), #276);
#276 = COLOUR_RGB('', 0., 0., 1.);
#277 = DRAUGHTING_PRE_DEFINED_CURVE_FONT('continuous');
#278 = OVER_RIDING_STYLED_ITEM('', (#274), #238, #263);
#279 = PRESENTATION_STYLE_ASSIGNMENT((#280));
#280 = CURVE_STYLE('', #282, POSITIVE_LENGTH_MEASURE(1.E-6), #281);
#281 = COLOUR_RGB('', 0., 0., 1.);
#282 = DRAUGHTING_PRE_DEFINED_CURVE_FONT('continuous');
#283 = OVER_RIDING_STYLED_ITEM('', (#279), #246, #263);
#284 = AXIS2_PLACEMENT_3D('CIP', #285, #286, #287);
#285 = CARTESIAN_POINT('', (3.11200154902335E-31, 5.08228421646152E-15, -83.));
#286 = DIRECTION('', (-3.74939945665465E-33, -6.12323399573677E-17, 1.));
#287 = DIRECTION('', (1., -6.12323399573677E-17, 0.));
#288 = AXIS2_PLACEMENT_3D('MCS', #289, #290, #291);
#289 = CARTESIAN_POINT('', (1.72472375006114E-31, 2.81668763803891E-15, -46.));
#290 = DIRECTION('', (-3.74939945665465E-33, -6.12323399573677E-17, 1.));
#291 = DIRECTION('', (1., -6.12323399573677E-17, 0.));
#292 = AXIS2_PLACEMENT_3D('PCS', #293, #294, #295);
#293 = CARTESIAN_POINT('', (0., 0., 0.));
#294 = DIRECTION('', (0., 0., 1.));
#295 = DIRECTION('', (1., 0., 0.));
#296 = CARTESIAN_POINT('CRP', (6., 0., -83.));
#297 = (
   GEOMETRIC_REPRESENTATION_CONTEXT (3)
   GLOBAL_UNCERTAINTY_ASSIGNED_CONTEXT ((#299))
   GLOBAL_UNIT_ASSIGNED_CONTEXT ((#298, #300, #301))
   REPRESENTATION_CONTEXT ('', '3D')
);
#298 = (
   LENGTH_UNIT ()
   NAMED_UNIT (*)
   SI_UNIT (.MILLI., .METRE.)
);
#299 = UNCERTAINTY_MEASURE_WITH_UNIT(LENGTH_MEASURE(1.E-6), #298, 'DISTANCE_ACCURACY_VALUE', '');
#300 = (
   NAMED_UNIT (*)
   SI_UNIT ($, .STERADIAN.)
   SOLID_ANGLE_UNIT ()
);
#301 = (
   NAMED_UNIT (*)
   PLANE_ANGLE_UNIT ()
   SI_UNIT ($, .RADIAN.)
);
#302 = SHAPE_REPRESENTATION('', (), #297);
#303 = PRODUCT_DEFINITION_SHAPE('', '', #304);
#304 = PRODUCT_DEFINITION('', '', #307, #311);
#305 = APPLICATION_CONTEXT('configuration controlled 3D designs of mechanical parts and assemblies');
#306 = APPLICATION_PROTOCOL_DEFINITION('International Standard', 'automotive_design', 2002, #305);
#307 = PRODUCT_DEFINITION_FORMATION_WITH_SPECIFIED_SOURCE('', '', #308, .NOT_KNOWN.);
#308 = PRODUCT('NONE', 'R216.42-12030-AS18G 1700', '', (#309));
#309 = PRODUCT_CONTEXT('', #305, 'mechanical');
#310 = PRODUCT_RELATED_PRODUCT_CATEGORY('detail', '', (#308));
#311 = PRODUCT_DEFINITION_CONTEXT('part definition', #305, 'design');
#312 = SHAPE_DEFINITION_REPRESENTATION(#303, #302);
#313 = CONSTRUCTIVE_GEOMETRY_REPRESENTATION('supplemental geometry', (#284, #288, #292), #297);
#314 = CONSTRUCTIVE_GEOMETRY_REPRESENTATION_RELATIONSHIP('', '', #302, #313);
#315 = SHAPE_REPRESENTATION_RELATIONSHIP('', '', #302, #316);
#316 = SHAPE_REPRESENTATION('', (#258), #297);
#317 = SHAPE_REPRESENTATION_RELATIONSHIP('', '', #302, #318);
#318 = ADVANCED_BREP_SHAPE_REPRESENTATION('', (#1, #116), #297);
ENDSEC;
END-ISO-10303-21;
