ISO-10303-21;
HEADER;
FILE_DESCRIPTION(('STEP'), '1');
FILE_NAME('C:\\Users\\ds2002\\OneDrive - Sandvik\\HomeShare\\Documents\\Batchrepair\\CorSRT2\\NEW_MILBN_SLD\\Output2\\MOD000000000000000020084645800000.stp', '2018-11-23T12:39:05', (''), (''), 'Express v3.0.0.0', 'Express Tool', 'Unknown');
FILE_SCHEMA(('AUTOMOTIVE_DESIGN'));
ENDSEC;

DATA;
#1 = MANIFOLD_SOLID_BREP('NOCUT', #2);
#2 = CLOSED_SHELL('', (#3, #50, #97, #106, #137, #176));
#3 = ADVANCED_FACE('', (#4), #31, .T.);
#4 = FACE_OUTER_BOUND('', #5, .T.);
#5 = EDGE_LOOP('', (#6, #16, #23, #24));
#6 = ORIENTED_EDGE('', *, *, #7, .F.);
#7 = EDGE_CURVE('', #8, #10, #12, .T.);
#8 = VERTEX_POINT('', #9);
#9 = CARTESIAN_POINT('', (-3., 4.30463349900295E-15, -67.3));
#10 = VERTEX_POINT('', #11);
#11 = CARTESIAN_POINT('', (-2.5, 4.43934464690916E-15, -70.));
#12 = LINE('', #13, #14);
#13 = CARTESIAN_POINT('', (-3., 4.30463349900295E-15, -67.3));
#14 = VECTOR('', #15, 2.7459060435492);
#15 = DIRECTION('', (0.5, 1.3471114790621E-16, -2.7));
#16 = ORIENTED_EDGE('', *, *, #17, .T.);
#17 = EDGE_CURVE('', #8, #8, #18, .T.);
#18 = CIRCLE('', #19, 3.);
#19 = AXIS2_PLACEMENT_3D('', #20, #21, #22);
#20 = CARTESIAN_POINT('', (-1.04083408558608E-15, 1.4432899320127E-15, -67.3));
#21 = DIRECTION('', (0., 0., -1.));
#22 = DIRECTION('', (-1., 9.53781188996749E-16, 0.));
#23 = ORIENTED_EDGE('', *, *, #7, .T.);
#24 = ORIENTED_EDGE('', *, *, #25, .F.);
#25 = EDGE_CURVE('', #10, #10, #26, .T.);
#26 = CIRCLE('', #27, 2.5);
#27 = AXIS2_PLACEMENT_3D('', #28, #29, #30);
#28 = CARTESIAN_POINT('', (7.63278329429795E-17, 2.4980018054066E-15, -70.));
#29 = DIRECTION('', (0., 0., -1.));
#30 = DIRECTION('', (-1., 7.76537136601023E-16, 0.));
#31 = (
   BOUNDED_SURFACE ()
   B_SPLINE_SURFACE (2, 1, ((#32, #33), (#34, #35), (#36, #37), (#38, #39), (#40, #41), (#42, #43), (#44, #45), (#46, #47), (#48, #49)), .UNSPECIFIED., .T., .F., .U.)
   B_SPLINE_SURFACE_WITH_KNOTS ((3, 2, 2, 2, 3), (2, 2), (0., 0.25, 0.5, 0.75, 1.), (0., 1.), .UNSPECIFIED.)
   GEOMETRIC_REPRESENTATION_ITEM ()
   RATIONAL_B_SPLINE_SURFACE (((1., 1.), (0.707106781186548, 0.707106781186548), (1., 1.), (0.707106781186548, 0.707106781186548), (1., 1.), (0.707106781186548, 0.707106781186548), (1., 1.), (0.707106781186548, 0.707106781186548), (1., 1.)))
   REPRESENTATION_ITEM ('')
   SURFACE ()
);
#32 = CARTESIAN_POINT('', (-3., 4.30463349900295E-15, -67.3));
#33 = CARTESIAN_POINT('', (-2.5, 2.45846784080021E-15, -70.));
#34 = CARTESIAN_POINT('', (-3., 3., -67.3));
#35 = CARTESIAN_POINT('', (-2.5, 2.5, -70.));
#36 = CARTESIAN_POINT('', (3.45480266435575E-15, 3., -67.3));
#37 = CARTESIAN_POINT('', (2.97152080568189E-15, 2.5, -70.));
#38 = CARTESIAN_POINT('', (3., 3., -67.3));
#39 = CARTESIAN_POINT('', (2.5, 2.5, -70.));
#40 = CARTESIAN_POINT('', (3., -1.4947488050834E-15, -67.3));
#41 = CARTESIAN_POINT('', (2.5, -2.37435074593841E-15, -70.));
#42 = CARTESIAN_POINT('', (3., -3., -67.3));
#43 = CARTESIAN_POINT('', (2.5, -2.5, -70.));
#44 = CARTESIAN_POINT('', (-1.97718559998639E-15, -3., -67.3));
#45 = CARTESIAN_POINT('', (-1.5551360812699E-15, -2.5, -70.));
#46 = CARTESIAN_POINT('', (-3., -3., -67.3));
#47 = CARTESIAN_POINT('', (-2.5, -2.5, -70.));
#48 = CARTESIAN_POINT('', (-3., 4.30463349900295E-15, -67.3));
#49 = CARTESIAN_POINT('', (-2.5, 2.45846784080021E-15, -70.));
#50 = ADVANCED_FACE('', (#51), #78, .T.);
#51 = FACE_OUTER_BOUND('', #52, .T.);
#52 = EDGE_LOOP('', (#53, #63, #70, #71));
#53 = ORIENTED_EDGE('', *, *, #54, .T.);
#54 = EDGE_CURVE('', #55, #57, #59, .T.);
#55 = VERTEX_POINT('', #56);
#56 = CARTESIAN_POINT('', (-3., 2.02066721859313E-16, -0.299999999999997));
#57 = VERTEX_POINT('', #58);
#58 = CARTESIAN_POINT('', (-2.7, 1.65327317884893E-16, 0.));
#59 = LINE('', #60, #61);
#60 = CARTESIAN_POINT('', (-3., 2.02066721859313E-16, -0.299999999999997));
#61 = VECTOR('', #62, 0.424264068711926);
#62 = DIRECTION('', (0.3, -3.673940397442E-17, 0.299999999999997));
#63 = ORIENTED_EDGE('', *, *, #64, .T.);
#64 = EDGE_CURVE('', #57, #57, #65, .T.);
#65 = CIRCLE('', #66, 2.7);
#66 = AXIS2_PLACEMENT_3D('', #67, #68, #69);
#67 = CARTESIAN_POINT('', (6.24500451351651E-17, -1.88737914186277E-15, -1.07852076885685E-31));
#68 = DIRECTION('', (6.60738625565492E-33, 6.12323399573678E-17, -1.));
#69 = DIRECTION('', (-1., 7.60261651758392E-16, 3.99452136613649E-32));
#70 = ORIENTED_EDGE('', *, *, #54, .F.);
#71 = ORIENTED_EDGE('', *, *, #72, .F.);
#72 = EDGE_CURVE('', #55, #55, #73, .T.);
#73 = CIRCLE('', #74, 3.);
#74 = AXIS2_PLACEMENT_3D('', #75, #76, #77);
#75 = CARTESIAN_POINT('', (-8.32667268468867E-16, 1.66533453693773E-16, -0.299999999999997));
#76 = DIRECTION('', (7.45939217764516E-34, 6.29780982393227E-17, -1.));
#77 = DIRECTION('', (-1., 1.18444227218465E-17, 0.));
#78 = (
   BOUNDED_SURFACE ()
   B_SPLINE_SURFACE (1, 2, ((#79, #80, #81, #82, #83, #84, #85, #86, #87), (#88, #89, #90, #91, #92, #93, #94, #95, #96)), .UNSPECIFIED., .F., .T., .U.)
   B_SPLINE_SURFACE_WITH_KNOTS ((2, 2), (3, 2, 2, 2, 3), (0., 1.), (0., 0.25, 0.5, 0.75, 1.), .UNSPECIFIED.)
   GEOMETRIC_REPRESENTATION_ITEM ()
   RATIONAL_B_SPLINE_SURFACE (((1., 0.707106781186548, 1., 0.707106781186548, 1., 0.707106781186548, 1., 0.707106781186548, 1.), (1., 0.707106781186548, 1., 0.707106781186548, 1., 0.707106781186548, 1., 0.707106781186548, 1.)))
   REPRESENTATION_ITEM ('')
   SURFACE ()
);
#79 = CARTESIAN_POINT('', (-3., 1.49129302665284E-15, -0.299999999999997));
#80 = CARTESIAN_POINT('', (-3., 3., -0.299999999999985));
#81 = CARTESIAN_POINT('', (2.34149119846292E-15, 3., -0.299999999999985));
#82 = CARTESIAN_POINT('', (3., 3., -0.299999999999985));
#83 = CARTESIAN_POINT('', (3., -1.34594359183367E-15, -0.299999999999997));
#84 = CARTESIAN_POINT('', (3., -3., -0.300000000000009));
#85 = CARTESIAN_POINT('', (-1.28351380279387E-16, -3., -0.300000000000009));
#86 = CARTESIAN_POINT('', (-3., -3., -0.300000000000009));
#87 = CARTESIAN_POINT('', (-3., 1.49129302665284E-15, -0.299999999999997));
#88 = CARTESIAN_POINT('', (-2.7, 1.65327317884893E-16, -2.18952885050753E-47));
#89 = CARTESIAN_POINT('', (-2.7, 2.7, 1.04916075827078E-14));
#90 = CARTESIAN_POINT('', (2.19962936753859E-15, 2.7, 1.04916075827078E-14));
#91 = CARTESIAN_POINT('', (2.7, 2.7, 1.04916075827078E-14));
#92 = CARTESIAN_POINT('', (2.7, -2.38818563875297E-15, 1.12461399303431E-30));
#93 = CARTESIAN_POINT('', (2.7, -2.7, -1.04916075827078E-14));
#94 = CARTESIAN_POINT('', (-2.32289533294833E-17, -2.7, -1.04916075827078E-14));
#95 = CARTESIAN_POINT('', (-2.7, -2.7, -1.04916075827078E-14));
#96 = CARTESIAN_POINT('', (-2.7, 1.65327317884893E-16, -2.18952885050753E-47));
#97 = ADVANCED_FACE('', (#98), #101, .T.);
#98 = FACE_OUTER_BOUND('', #99, .T.);
#99 = EDGE_LOOP('', (#100));
#100 = ORIENTED_EDGE('', *, *, #64, .F.);
#101 = B_SPLINE_SURFACE_WITH_KNOTS('', 1, 1, ((#102, #103), (#104, #105)), .UNSPECIFIED., .F., .F., .U., (2, 2), (2, 2), (1.50021428024809, 6.90021428024809), (1.50021428024809, 6.90021428024809), .UNSPECIFIED.);
#102 = CARTESIAN_POINT('', (2.7, -2.7, 6.94010003971609E-15));
#103 = CARTESIAN_POINT('', (-2.7, -2.7, -7.27075467548589E-15));
#104 = CARTESIAN_POINT('', (2.7, 2.7, 7.27075467548587E-15));
#105 = CARTESIAN_POINT('', (-2.7, 2.7, -6.9401000397161E-15));
#106 = ADVANCED_FACE('', (#107), #118, .T.);
#107 = FACE_OUTER_BOUND('', #108, .T.);
#108 = EDGE_LOOP('', (#109, #115, #116, #117));
#109 = ORIENTED_EDGE('', *, *, #110, .T.);
#110 = EDGE_CURVE('', #8, #55, #111, .T.);
#111 = LINE('', #112, #113);
#112 = CARTESIAN_POINT('', (-3., 4.30463349900295E-15, -67.3));
#113 = VECTOR('', #114, 67.);
#114 = DIRECTION('', (0., -4.10256677714364E-15, 67.));
#115 = ORIENTED_EDGE('', *, *, #72, .T.);
#116 = ORIENTED_EDGE('', *, *, #110, .F.);
#117 = ORIENTED_EDGE('', *, *, #17, .F.);
#118 = (
   BOUNDED_SURFACE ()
   B_SPLINE_SURFACE (1, 2, ((#119, #120, #121, #122, #123, #124, #125, #126, #127), (#128, #129, #130, #131, #132, #133, #134, #135, #136)), .UNSPECIFIED., .F., .T., .U.)
   B_SPLINE_SURFACE_WITH_KNOTS ((2, 2), (3, 2, 2, 2, 3), (0., 1.), (0., 4.7123889803847, 9.4247779607694, 14.1371669411541, 18.8495559215388), .UNSPECIFIED.)
   GEOMETRIC_REPRESENTATION_ITEM ()
   RATIONAL_B_SPLINE_SURFACE (((1., 0.707106781186548, 1., 0.707106781186548, 1., 0.707106781186548, 1., 0.707106781186548, 1.), (1., 0.707106781186548, 1., 0.707106781186548, 1., 0.707106781186548, 1., 0.707106781186548, 1.)))
   REPRESENTATION_ITEM ('')
   SURFACE ()
);
#119 = CARTESIAN_POINT('', (-3., 2.5890462248034E-15, -67.3));
#120 = CARTESIAN_POINT('', (-3., 3., -67.3));
#121 = CARTESIAN_POINT('', (2.01214521704322E-15, 3., -67.3));
#122 = CARTESIAN_POINT('', (3., 3., -67.3));
#123 = CARTESIAN_POINT('', (3., -1.22245146289655E-15, -67.3));
#124 = CARTESIAN_POINT('', (3., -3., -67.3));
#125 = CARTESIAN_POINT('', (-1.43195843091252E-15, -3., -67.3));
#126 = CARTESIAN_POINT('', (-3., -3., -67.3));
#127 = CARTESIAN_POINT('', (-3., 2.5890462248034E-15, -67.3));
#128 = CARTESIAN_POINT('', (-3., 2.02066721859312E-16, -0.299999999999997));
#129 = CARTESIAN_POINT('', (-3., 3., -0.299999999999997));
#130 = CARTESIAN_POINT('', (3.25189426120798E-15, 3., -0.299999999999997));
#131 = CARTESIAN_POINT('', (3., 3., -0.299999999999997));
#132 = CARTESIAN_POINT('', (3., -3.60943096584064E-15, -0.299999999999997));
#133 = CARTESIAN_POINT('', (3., -3., -0.299999999999997));
#134 = CARTESIAN_POINT('', (-1.92209386747767E-16, -3., -0.299999999999997));
#135 = CARTESIAN_POINT('', (-3., -3., -0.299999999999997));
#136 = CARTESIAN_POINT('', (-3., 2.02066721859312E-16, -0.299999999999997));
#137 = ADVANCED_FACE('', (#138), #157, .T.);
#138 = FACE_OUTER_BOUND('', #139, .T.);
#139 = EDGE_LOOP('', (#140, #149, #155, #156));
#140 = ORIENTED_EDGE('', *, *, #141, .F.);
#141 = EDGE_CURVE('', #142, #142, #144, .T.);
#142 = VERTEX_POINT('', #143);
#143 = CARTESIAN_POINT('', (-2.5, 4.68427400673863E-15, -74.));
#144 = CIRCLE('', #145, 2.5);
#145 = AXIS2_PLACEMENT_3D('', #146, #147, #148);
#146 = CARTESIAN_POINT('', (-3.67761376907083E-16, 2.66453525910038E-15, -74.));
#147 = DIRECTION('', (0., 0., -1.));
#148 = DIRECTION('', (-1., 8.07895499055302E-16, 0.));
#149 = ORIENTED_EDGE('', *, *, #150, .F.);
#150 = EDGE_CURVE('', #10, #142, #151, .T.);
#151 = LINE('', #152, #153);
#152 = CARTESIAN_POINT('', (-2.5, 4.43934464690916E-15, -70.));
#153 = VECTOR('', #154, 4.);
#154 = DIRECTION('', (0., 2.4492935982947E-16, -4.));
#155 = ORIENTED_EDGE('', *, *, #25, .T.);
#156 = ORIENTED_EDGE('', *, *, #150, .T.);
#157 = (
   BOUNDED_SURFACE ()
   B_SPLINE_SURFACE (2, 1, ((#158, #159), (#160, #161), (#162, #163), (#164, #165), (#166, #167), (#168, #169), (#170, #171), (#172, #173), (#174, #175)), .UNSPECIFIED., .T., .F., .U.)
   B_SPLINE_SURFACE_WITH_KNOTS ((3, 2, 2, 2, 3), (2, 2), (0., 3.92699081698725, 7.8539816339745, 11.7809724509617, 15.707963267949), (0., 0.533333333333333), .UNSPECIFIED.)
   GEOMETRIC_REPRESENTATION_ITEM ()
   RATIONAL_B_SPLINE_SURFACE (((1., 1.), (0.707106781186548, 0.707106781186548), (1., 1.), (0.707106781186548, 0.707106781186548), (1., 1.), (0.707106781186548, 0.707106781186548), (1., 1.), (0.707106781186548, 0.707106781186548), (1., 1.)))
   REPRESENTATION_ITEM ('')
   SURFACE ()
);
#158 = CARTESIAN_POINT('', (-2.5, 4.43934464690916E-15, -70.));
#159 = CARTESIAN_POINT('', (-2.50000000000002, 4.60587810060297E-15, -74.));
#160 = CARTESIAN_POINT('', (-2.5, 2.5, -70.));
#161 = CARTESIAN_POINT('', (-2.50000000000002, 2.50000000000001, -74.));
#162 = CARTESIAN_POINT('', (5.09117548986898E-15, 2.5, -70.));
#163 = CARTESIAN_POINT('', (-1.76461920544541E-14, 2.5, -74.));
#164 = CARTESIAN_POINT('', (2.50000000000001, 2.5, -70.));
#165 = CARTESIAN_POINT('', (2.49999999999998, 2.5, -74.));
#166 = CARTESIAN_POINT('', (2.5, -3.02295992249716E-15, -70.));
#167 = CARTESIAN_POINT('', (2.49999999999998, -2.85642646880336E-15, -74.));
#168 = CARTESIAN_POINT('', (2.5, -2.5, -70.));
#169 = CARTESIAN_POINT('', (2.49999999999998, -2.5, -74.));
#170 = CARTESIAN_POINT('', (-2.06496737975051E-15, -2.5, -70.));
#171 = CARTESIAN_POINT('', (-2.48023349240736E-14, -2.5, -74.));
#172 = CARTESIAN_POINT('', (-2.5, -2.5, -70.));
#173 = CARTESIAN_POINT('', (-2.50000000000002, -2.5, -74.));
#174 = CARTESIAN_POINT('', (-2.5, 4.43934464690916E-15, -70.));
#175 = CARTESIAN_POINT('', (-2.50000000000002, 4.60587810060297E-15, -74.));
#176 = ADVANCED_FACE('', (#177), #180, .T.);
#177 = FACE_OUTER_BOUND('', #178, .T.);
#178 = EDGE_LOOP('', (#179));
#179 = ORIENTED_EDGE('', *, *, #141, .T.);
#180 = B_SPLINE_SURFACE_WITH_KNOTS('', 1, 1, ((#181, #182), (#183, #184)), .UNSPECIFIED., .F., .F., .U., (2, 2), (2, 2), (80.4987466662695, 85.4987466662695), (75.3987433825196, 80.3987433825196), .UNSPECIFIED.);
#181 = CARTESIAN_POINT('', (-2.5, 2.5, -74.));
#182 = CARTESIAN_POINT('', (-2.5, -2.5, -74.));
#183 = CARTESIAN_POINT('', (2.5, 2.5, -74.));
#184 = CARTESIAN_POINT('', (2.5, -2.5, -74.));
#185 = DRAUGHTING_MODEL('', (#193, #301, #341, #346, #351, #356, #361), #375);
#186 = PRESENTATION_STYLE_ASSIGNMENT((#187));
#187 = SURFACE_STYLE_USAGE(.POSITIVE., #188);
#188 = SURFACE_SIDE_STYLE('', (#189));
#189 = SURFACE_STYLE_FILL_AREA(#190);
#190 = FILL_AREA_STYLE('', (#191));
#191 = FILL_AREA_STYLE_COLOUR('', #192);
#192 = COLOUR_RGB('', 0.50196078431373, 0.50196078431373, 0.50196078431373);
#193 = STYLED_ITEM('', (#186), #1);
#194 = MANIFOLD_SOLID_BREP('CUT', #195);
#195 = CLOSED_SHELL('', (#196, #213, #252));
#196 = ADVANCED_FACE('', (#197), #208, .T.);
#197 = FACE_OUTER_BOUND('', #198, .T.);
#198 = EDGE_LOOP('', (#199));
#199 = ORIENTED_EDGE('', *, *, #200, .F.);
#200 = EDGE_CURVE('', #201, #201, #203, .T.);
#201 = VERTEX_POINT('', #202);
#202 = CARTESIAN_POINT('', (-2.5, 4.68427400673863E-15, -74.));
#203 = CIRCLE('', #204, 2.5);
#204 = AXIS2_PLACEMENT_3D('', #205, #206, #207);
#205 = CARTESIAN_POINT('', (-3.67761376907083E-16, 2.66453525910038E-15, -74.));
#206 = DIRECTION('', (0., 0., -1.));
#207 = DIRECTION('', (-1., 8.07895499055302E-16, 0.));
#208 = B_SPLINE_SURFACE_WITH_KNOTS('', 1, 1, ((#209, #210), (#211, #212)), .UNSPECIFIED., .F., .F., .U., (2, 2), (2, 2), (75.3987433825195, 80.3987433825195), (80.4987466662695, 85.4987466662695), .UNSPECIFIED.);
#209 = CARTESIAN_POINT('', (-2.5, 2.5, -74.));
#210 = CARTESIAN_POINT('', (2.5, 2.5, -74.));
#211 = CARTESIAN_POINT('', (-2.5, -2.5, -74.));
#212 = CARTESIAN_POINT('', (2.5, -2.5, -74.));
#213 = ADVANCED_FACE('', (#214), #233, .T.);
#214 = FACE_OUTER_BOUND('', #215, .T.);
#215 = EDGE_LOOP('', (#216, #217, #225, #232));
#216 = ORIENTED_EDGE('', *, *, #200, .T.);
#217 = ORIENTED_EDGE('', *, *, #218, .T.);
#218 = EDGE_CURVE('', #201, #219, #221, .T.);
#219 = VERTEX_POINT('', #220);
#220 = CARTESIAN_POINT('', (-2.5, 4.89858719658941E-15, -77.5));
#221 = LINE('', #222, #223);
#222 = CARTESIAN_POINT('', (-2.5, 4.68427400673863E-15, -74.));
#223 = VECTOR('', #224, 3.5);
#224 = DIRECTION('', (0., 2.1431318985078E-16, -3.5));
#225 = ORIENTED_EDGE('', *, *, #226, .F.);
#226 = EDGE_CURVE('', #219, #219, #227, .T.);
#227 = CIRCLE('', #228, 2.5);
#228 = AXIS2_PLACEMENT_3D('', #229, #230, #231);
#229 = CARTESIAN_POINT('', (-2.22044604925031E-16, 1.94289029309402E-15, -77.5));
#230 = DIRECTION('', (0., 0., -1.));
#231 = DIRECTION('', (-1., 1.18227876139815E-15, 0.));
#232 = ORIENTED_EDGE('', *, *, #218, .F.);
#233 = (
   BOUNDED_SURFACE ()
   B_SPLINE_SURFACE (2, 1, ((#234, #235), (#236, #237), (#238, #239), (#240, #241), (#242, #243), (#244, #245), (#246, #247), (#248, #249), (#250, #251)), .UNSPECIFIED., .T., .F., .U.)
   B_SPLINE_SURFACE_WITH_KNOTS ((3, 2, 2, 2, 3), (2, 2), (0., 3.92699081698725, 7.8539816339745, 11.7809724509618, 15.707963267949), (0.533333333333333, 1.), .UNSPECIFIED.)
   GEOMETRIC_REPRESENTATION_ITEM ()
   RATIONAL_B_SPLINE_SURFACE (((1., 1.), (0.707106781186548, 0.707106781186548), (1., 1.), (0.707106781186548, 0.707106781186548), (1., 1.), (0.707106781186548, 0.707106781186548), (1., 1.), (0.707106781186548, 0.707106781186548), (1., 1.)))
   REPRESENTATION_ITEM ('')
   SURFACE ()
);
#234 = CARTESIAN_POINT('', (-2.5, 4.68427400673863E-15, -74.));
#235 = CARTESIAN_POINT('', (-2.5, 5.01734091412618E-15, -77.5));
#236 = CARTESIAN_POINT('', (-2.5, 2.50000000000001, -74.));
#237 = CARTESIAN_POINT('', (-2.5, 2.50000000000001, -77.5));
#238 = CARTESIAN_POINT('', (4.72548218615461E-15, 2.5, -74.));
#239 = CARTESIAN_POINT('', (4.72548218615461E-15, 2.5, -77.5));
#240 = CARTESIAN_POINT('', (2.50000000000001, 2.5, -74.));
#241 = CARTESIAN_POINT('', (2.50000000000001, 2.5, -77.5));
#242 = CARTESIAN_POINT('', (2.5, -2.93482237493909E-15, -74.));
#243 = CARTESIAN_POINT('', (2.5, -2.60175546755154E-15, -77.5));
#244 = CARTESIAN_POINT('', (2.5, -2.5, -74.));
#245 = CARTESIAN_POINT('', (2.5, -2.5, -77.5));
#246 = CARTESIAN_POINT('', (-2.58745249573627E-15, -2.5, -74.));
#247 = CARTESIAN_POINT('', (-2.58745249573627E-15, -2.5, -77.5));
#248 = CARTESIAN_POINT('', (-2.5, -2.5, -74.));
#249 = CARTESIAN_POINT('', (-2.5, -2.5, -77.5));
#250 = CARTESIAN_POINT('', (-2.5, 4.68427400673863E-15, -74.));
#251 = CARTESIAN_POINT('', (-2.5, 5.01734091412618E-15, -77.5));
#252 = ADVANCED_FACE('', (#253), #266, .T.);
#253 = FACE_OUTER_BOUND('', #254, .T.);
#254 = EDGE_LOOP('', (#255, #264, #265));
#255 = ORIENTED_EDGE('', *, *, #256, .F.);
#256 = EDGE_CURVE('', #219, #257, #259, .T.);
#257 = VERTEX_POINT('', #258);
#258 = CARTESIAN_POINT('', (9.03331759530321E-16, 4.89858719658941E-15, -80.));
#259 = CIRCLE('', #260, 2.50000000000002);
#260 = AXIS2_PLACEMENT_3D('', #261, #262, #263);
#261 = CARTESIAN_POINT('', (4.04121180963557E-14, 4.74550634669598E-15, -77.5));
#262 = DIRECTION('', (-6.12323399573694E-17, -1., -6.12323399573683E-17));
#263 = DIRECTION('', (-1., 6.12323399573694E-17, 0.));
#264 = ORIENTED_EDGE('', *, *, #226, .T.);
#265 = ORIENTED_EDGE('', *, *, #256, .T.);
#266 = (
   BOUNDED_SURFACE ()
   B_SPLINE_SURFACE (2, 2, ((#267, #268, #269), (#270, #271, #272), (#273, #274, #275), (#276, #277, #278), (#279, #280, #281), (#282, #283, #284), (#285, #286, #287), (#288, #289, #290), (#291, #292, #293)), .UNSPECIFIED., .T., .F., .U.)
   B_SPLINE_SURFACE_WITH_KNOTS ((3, 2, 2, 2, 3), (3, 3), (0., 0.25, 0.5, 0.75, 1.), (0., 1.), .UNSPECIFIED.)
   GEOMETRIC_REPRESENTATION_ITEM ()
   RATIONAL_B_SPLINE_SURFACE (((1., 0.707106781186548, 1.), (0.707106781186548, 0.5, 0.707106781186548), (1., 0.707106781186548, 1.), (0.707106781186548, 0.5, 0.707106781186548), (1., 0.707106781186548, 1.), (0.707106781186548, 0.5, 0.707106781186548), (1., 0.707106781186548, 1.), (0.707106781186548, 0.5, 0.707106781186548), (1., 0.707106781186548, 1.)))
   REPRESENTATION_ITEM ('')
   SURFACE ()
);
#267 = CARTESIAN_POINT('', (-2.5, 4.89858719658941E-15, -77.5));
#268 = CARTESIAN_POINT('', (-2.5, 5.05166804648283E-15, -80.));
#269 = CARTESIAN_POINT('', (9.03331759530321E-16, 4.89858719658941E-15, -80.));
#270 = CARTESIAN_POINT('', (-2.5, 2.49999999999998, -77.5));
#271 = CARTESIAN_POINT('', (-2.50000000000005, 2.49999999999998, -80.));
#272 = CARTESIAN_POINT('', (9.03331759530321E-16, 4.89858719658941E-15, -80.));
#273 = CARTESIAN_POINT('', (-2.48689957516032E-14, 2.49999999999998, -77.5));
#274 = CARTESIAN_POINT('', (-7.30830943495085E-14, 2.50000000000003, -80.));
#275 = CARTESIAN_POINT('', (9.03331759530321E-16, 4.89858719658941E-15, -80.));
#276 = CARTESIAN_POINT('', (2.49999999999995, 2.49999999999998, -77.5));
#277 = CARTESIAN_POINT('', (2.4999999999999, 2.50000000000008, -80.));
#278 = CARTESIAN_POINT('', (9.03331759530321E-16, 4.89858719658941E-15, -80.));
#279 = CARTESIAN_POINT('', (2.49999999999995, 4.89858719658886E-15, -77.5));
#280 = CARTESIAN_POINT('', (2.49999999999995, 1.01479865242293E-13, -80.));
#281 = CARTESIAN_POINT('', (9.03331759530321E-16, 4.89858719658941E-15, -80.));
#282 = CARTESIAN_POINT('', (2.49999999999995, -2.49999999999997, -77.5));
#283 = CARTESIAN_POINT('', (2.5, -2.49999999999987, -80.));
#284 = CARTESIAN_POINT('', (9.03331759530321E-16, 4.89858719658941E-15, -80.));
#285 = CARTESIAN_POINT('', (-2.45628340518169E-14, -2.49999999999997, -77.5));
#286 = CARTESIAN_POINT('', (2.36512645460885E-14, -2.49999999999992, -80.));
#287 = CARTESIAN_POINT('', (9.03331759530321E-16, 4.89858719658941E-15, -80.));
#288 = CARTESIAN_POINT('', (-2.5, -2.49999999999997, -77.5));
#289 = CARTESIAN_POINT('', (-2.49999999999995, -2.49999999999997, -80.));
#290 = CARTESIAN_POINT('', (9.03331759530321E-16, 4.89858719658941E-15, -80.));
#291 = CARTESIAN_POINT('', (-2.5, 4.89858719658941E-15, -77.5));
#292 = CARTESIAN_POINT('', (-2.5, 5.05166804648283E-15, -80.));
#293 = CARTESIAN_POINT('', (9.03331759530321E-16, 4.89858719658941E-15, -80.));
#294 = PRESENTATION_STYLE_ASSIGNMENT((#295));
#295 = SURFACE_STYLE_USAGE(.POSITIVE., #296);
#296 = SURFACE_SIDE_STYLE('', (#297));
#297 = SURFACE_STYLE_FILL_AREA(#298);
#298 = FILL_AREA_STYLE('', (#299));
#299 = FILL_AREA_STYLE_COLOUR('', #300);
#300 = COLOUR_RGB('', 0.8, 0.8, 0.8);
#301 = STYLED_ITEM('', (#294), #194);
#302 = TRIMMED_CURVE('cutting part line', #303, (#307), (#308), .T., .CARTESIAN.);
#303 = LINE('', #304, #305);
#304 = CARTESIAN_POINT('', (-8.32366679377332E-31, -4.53119315684521E-15, -74.));
#305 = VECTOR('', #306, 2.5);
#306 = DIRECTION('', (2.5, -4.59242549680258E-16, 0.));
#307 = CARTESIAN_POINT('', (-8.32366679377332E-31, -4.53119315684521E-15, -74.));
#308 = CARTESIAN_POINT('', (2.5, -4.99043570652547E-15, -74.));
#309 = TRIMMED_CURVE('cutting part line', #310, (#314), (#315), .T., .CARTESIAN.);
#310 = LINE('', #311, #312);
#311 = CARTESIAN_POINT('', (2.5, -4.99043570652547E-15, -74.));
#312 = VECTOR('', #313, 3.5);
#313 = DIRECTION('', (0., -2.1431318985078E-16, -3.5));
#314 = CARTESIAN_POINT('', (2.5, -4.99043570652547E-15, -74.));
#315 = CARTESIAN_POINT('', (2.5, -5.20474889637625E-15, -77.5));
#316 = TRIMMED_CURVE('cutting part line', #317, (#322), (#323), .T., .CARTESIAN.);
#317 = CIRCLE('', #318, 2.5);
#318 = AXIS2_PLACEMENT_3D('', #319, #320, #321);
#319 = CARTESIAN_POINT('', (-6.66133814775094E-15, -4.74550634669599E-15, -77.5));
#320 = DIRECTION('', (1.83697019872104E-16, 1., -6.12323399573685E-17));
#321 = DIRECTION('', (1., -1.83697019872104E-16, 0.));
#322 = CARTESIAN_POINT('', (2.5, -5.20474889637625E-15, -77.5));
#323 = CARTESIAN_POINT('', (-1.51225368704431E-15, -4.89858719658941E-15, -80.));
#324 = TRIMMED_CURVE('cutting part line', #325, (#329), (#330), .T., .CARTESIAN.);
#325 = LINE('', #326, #327);
#326 = CARTESIAN_POINT('', (-8.99855869597115E-31, -4.89858719658941E-15, -80.));
#327 = VECTOR('', #328, 6.);
#328 = DIRECTION('', (6.74891902197829E-32, 3.673940397442E-16, 6.));
#329 = CARTESIAN_POINT('', (-8.99855869597115E-31, -4.89858719658941E-15, -80.));
#330 = CARTESIAN_POINT('', (-8.32366679377332E-31, -4.53119315684521E-15, -74.));
#331 = COMPOSITE_CURVE('cutting part line', (#332, #333, #334, #335), .U.);
#332 = COMPOSITE_CURVE_SEGMENT(.CONTINUOUS., .T., #302);
#333 = COMPOSITE_CURVE_SEGMENT(.CONTINUOUS., .T., #309);
#334 = COMPOSITE_CURVE_SEGMENT(.CONTINUOUS., .T., #316);
#335 = COMPOSITE_CURVE_SEGMENT(.CONTINUOUS., .T., #324);
#336 = GEOMETRIC_SET('', (#331, #374));
#337 = PRESENTATION_STYLE_ASSIGNMENT((#338));
#338 = CURVE_STYLE('', #340, POSITIVE_LENGTH_MEASURE(1.E-6), #339);
#339 = COLOUR_RGB('', 0., 0., 1.);
#340 = DRAUGHTING_PRE_DEFINED_CURVE_FONT('continuous');
#341 = STYLED_ITEM('', (#337), #331);
#342 = PRESENTATION_STYLE_ASSIGNMENT((#343));
#343 = CURVE_STYLE('', #345, POSITIVE_LENGTH_MEASURE(1.E-6), #344);
#344 = COLOUR_RGB('', 0., 0., 1.);
#345 = DRAUGHTING_PRE_DEFINED_CURVE_FONT('continuous');
#346 = OVER_RIDING_STYLED_ITEM('', (#342), #302, #341);
#347 = PRESENTATION_STYLE_ASSIGNMENT((#348));
#348 = CURVE_STYLE('', #350, POSITIVE_LENGTH_MEASURE(1.E-6), #349);
#349 = COLOUR_RGB('', 0., 0., 1.);
#350 = DRAUGHTING_PRE_DEFINED_CURVE_FONT('continuous');
#351 = OVER_RIDING_STYLED_ITEM('', (#347), #309, #341);
#352 = PRESENTATION_STYLE_ASSIGNMENT((#353));
#353 = CURVE_STYLE('', #355, POSITIVE_LENGTH_MEASURE(1.E-6), #354);
#354 = COLOUR_RGB('', 0., 0., 1.);
#355 = DRAUGHTING_PRE_DEFINED_CURVE_FONT('continuous');
#356 = OVER_RIDING_STYLED_ITEM('', (#352), #316, #341);
#357 = PRESENTATION_STYLE_ASSIGNMENT((#358));
#358 = CURVE_STYLE('', #360, POSITIVE_LENGTH_MEASURE(1.E-6), #359);
#359 = COLOUR_RGB('', 0., 0., 1.);
#360 = DRAUGHTING_PRE_DEFINED_CURVE_FONT('continuous');
#361 = OVER_RIDING_STYLED_ITEM('', (#357), #324, #341);
#362 = AXIS2_PLACEMENT_3D('CIP', #363, #364, #365);
#363 = CARTESIAN_POINT('', (2.99951956532372E-31, 4.89858719658941E-15, -80.));
#364 = DIRECTION('', (-3.74939945665465E-33, -6.12323399573677E-17, 1.));
#365 = DIRECTION('', (1., -6.12323399573677E-17, 0.));
#366 = AXIS2_PLACEMENT_3D('MCS', #367, #368, #369);
#367 = CARTESIAN_POINT('', (1.34978380439567E-31, 2.20436423846524E-15, -36.));
#368 = DIRECTION('', (-3.74939945665465E-33, -6.12323399573677E-17, 1.));
#369 = DIRECTION('', (1., -6.12323399573677E-17, 0.));
#370 = AXIS2_PLACEMENT_3D('PCS', #371, #372, #373);
#371 = CARTESIAN_POINT('', (0., 0., 0.));
#372 = DIRECTION('', (0., 0., 1.));
#373 = DIRECTION('', (1., 0., 0.));
#374 = CARTESIAN_POINT('CRP', (2.5, 0., -80.));
#375 = (
   GEOMETRIC_REPRESENTATION_CONTEXT (3)
   GLOBAL_UNCERTAINTY_ASSIGNED_CONTEXT ((#377))
   GLOBAL_UNIT_ASSIGNED_CONTEXT ((#376, #378, #379))
   REPRESENTATION_CONTEXT ('', '3D')
);
#376 = (
   LENGTH_UNIT ()
   NAMED_UNIT (*)
   SI_UNIT (.MILLI., .METRE.)
);
#377 = UNCERTAINTY_MEASURE_WITH_UNIT(LENGTH_MEASURE(1.E-6), #376, 'DISTANCE_ACCURACY_VALUE', '');
#378 = (
   NAMED_UNIT (*)
   SI_UNIT ($, .STERADIAN.)
   SOLID_ANGLE_UNIT ()
);
#379 = (
   NAMED_UNIT (*)
   PLANE_ANGLE_UNIT ()
   SI_UNIT ($, .RADIAN.)
);
#380 = SHAPE_REPRESENTATION('', (), #375);
#381 = PRODUCT_DEFINITION_SHAPE('', '', #382);
#382 = PRODUCT_DEFINITION('', '', #385, #389);
#383 = APPLICATION_CONTEXT('configuration controlled 3D designs of mechanical parts and assemblies');
#384 = APPLICATION_PROTOCOL_DEFINITION('International Standard', 'automotive_design', 2002, #383);
#385 = PRODUCT_DEFINITION_FORMATION_WITH_SPECIFIED_SOURCE('', '', #386, .NOT_KNOWN.);
#386 = PRODUCT('EmptyName', 'EmptyName', '', (#387));
#387 = PRODUCT_CONTEXT('', #383, 'mechanical');
#388 = PRODUCT_RELATED_PRODUCT_CATEGORY('detail', '', (#386));
#389 = PRODUCT_DEFINITION_CONTEXT('part definition', #383, 'design');
#390 = SHAPE_DEFINITION_REPRESENTATION(#381, #380);
#391 = CONSTRUCTIVE_GEOMETRY_REPRESENTATION('supplemental geometry', (#362, #366, #370), #375);
#392 = CONSTRUCTIVE_GEOMETRY_REPRESENTATION_RELATIONSHIP('', '', #380, #391);
#393 = SHAPE_REPRESENTATION_RELATIONSHIP('', '', #380, #394);
#394 = SHAPE_REPRESENTATION('', (#336), #375);
#395 = SHAPE_REPRESENTATION_RELATIONSHIP('', '', #380, #396);
#396 = ADVANCED_BREP_SHAPE_REPRESENTATION('', (#1, #194), #375);
ENDSEC;
END-ISO-10303-21;
