ISO-10303-21;
HEADER;
FILE_DESCRIPTION(('STEP'), '1');
FILE_NAME('C:\\Users\\ds2002\\OneDrive - Sandvik\\HomeShare\\Documents\\Batchrepair\\CorSRT2\\NEW_MILBN_SLD\\Output2\\MOD000000000000000020082300100000.stp', '2018-11-23T12:38:50', (''), (''), 'Express v3.0.0.0', 'Express Tool', 'Unknown');
FILE_SCHEMA(('AUTOMOTIVE_DESIGN'));
ENDSEC;

DATA;
#1 = MANIFOLD_SOLID_BREP('NOCUT', #2);
#2 = CLOSED_SHELL('', (#3, #50, #89, #128, #167, #176));
#3 = ADVANCED_FACE('', (#4), #31, .T.);
#4 = FACE_OUTER_BOUND('', #5, .T.);
#5 = EDGE_LOOP('', (#6, #16, #23, #24));
#6 = ORIENTED_EDGE('', *, *, #7, .F.);
#7 = EDGE_CURVE('', #8, #10, #12, .T.);
#8 = VERTEX_POINT('', #9);
#9 = CARTESIAN_POINT('', (-7.85, 3.19326652877672E-15, -44.3));
#10 = VERTEX_POINT('', #11);
#11 = CARTESIAN_POINT('', (-7.85, 4.3383112859795E-15, -63.));
#12 = LINE('', #13, #14);
#13 = CARTESIAN_POINT('', (-7.85, 3.19326652877672E-15, -44.3));
#14 = VECTOR('', #15, 18.7);
#15 = DIRECTION('', (0., 1.14504475720278E-15, -18.7));
#16 = ORIENTED_EDGE('', *, *, #17, .T.);
#17 = EDGE_CURVE('', #8, #8, #18, .T.);
#18 = CIRCLE('', #19, 7.85);
#19 = AXIS2_PLACEMENT_3D('', #20, #21, #22);
#20 = CARTESIAN_POINT('', (2.77555756156289E-16, 8.88178419700125E-16, -44.3));
#21 = DIRECTION('', (9.04625828347567E-31, 3.0807120667388E-15, -1.));
#22 = DIRECTION('', (-1., 2.93641797334598E-16, 0.));
#23 = ORIENTED_EDGE('', *, *, #7, .T.);
#24 = ORIENTED_EDGE('', *, *, #25, .F.);
#25 = EDGE_CURVE('', #10, #10, #26, .T.);
#26 = CIRCLE('', #27, 7.85);
#27 = AXIS2_PLACEMENT_3D('', #28, #29, #30);
#28 = CARTESIAN_POINT('', (2.35922392732846E-15, 2.66453525910038E-15, -63.));
#29 = DIRECTION('', (-9.05149981859999E-16, 2.94473943643383E-15, -1.));
#30 = DIRECTION('', (-1., 2.13219876035557E-16, 9.0514998186E-16));
#31 = (
   BOUNDED_SURFACE ()
   B_SPLINE_SURFACE (2, 1, ((#32, #33), (#34, #35), (#36, #37), (#38, #39), (#40, #41), (#42, #43), (#44, #45), (#46, #47), (#48, #49)), .UNSPECIFIED., .T., .F., .U.)
   B_SPLINE_SURFACE_WITH_KNOTS ((3, 2, 2, 2, 3), (2, 2), (0., 12.3307511653399, 24.6615023306799, 36.9922534960198, 49.3230046613597), (0., 1.), .UNSPECIFIED.)
   GEOMETRIC_REPRESENTATION_ITEM ()
   RATIONAL_B_SPLINE_SURFACE (((1., 1.), (0.707106781186548, 0.707106781186548), (1., 1.), (0.707106781186548, 0.707106781186548), (1., 1.), (0.707106781186548, 0.707106781186548), (1., 1.), (0.707106781186548, 0.707106781186548), (1., 1.)))
   REPRESENTATION_ITEM ('')
   SURFACE ()
);
#32 = CARTESIAN_POINT('', (-7.85, 3.19326652877672E-15, -44.3));
#33 = CARTESIAN_POINT('', (-7.85, 4.08144494847684E-15, -63.));
#34 = CARTESIAN_POINT('', (-7.85, 7.85, -44.3));
#35 = CARTESIAN_POINT('', (-7.85, 7.85, -63.));
#36 = CARTESIAN_POINT('', (3.35097089927085E-15, 7.85, -44.3));
#37 = CARTESIAN_POINT('', (3.35097089927085E-15, 7.85, -63.));
#38 = CARTESIAN_POINT('', (7.85, 7.85, -44.3));
#39 = CARTESIAN_POINT('', (7.85, 7.85, -63.));
#40 = CARTESIAN_POINT('', (7.85, 1.32079488735445E-15, -44.3));
#41 = CARTESIAN_POINT('', (7.85, 2.20897330705458E-15, -63.));
#42 = CARTESIAN_POINT('', (7.85, -7.85, -44.3));
#43 = CARTESIAN_POINT('', (7.85, -7.85, -63.));
#44 = CARTESIAN_POINT('', (2.43984699517925E-15, -7.85, -44.3));
#45 = CARTESIAN_POINT('', (2.43984699517925E-15, -7.85, -63.));
#46 = CARTESIAN_POINT('', (-7.85, -7.85, -44.3));
#47 = CARTESIAN_POINT('', (-7.85, -7.85, -63.));
#48 = CARTESIAN_POINT('', (-7.85, 3.19326652877672E-15, -44.3));
#49 = CARTESIAN_POINT('', (-7.85, 4.08144494847684E-15, -63.));
#50 = ADVANCED_FACE('', (#51), #70, .T.);
#51 = FACE_OUTER_BOUND('', #52, .T.);
#52 = EDGE_LOOP('', (#53, #61, #68, #69));
#53 = ORIENTED_EDGE('', *, *, #54, .F.);
#54 = EDGE_CURVE('', #55, #8, #57, .T.);
#55 = VERTEX_POINT('', #56);
#56 = CARTESIAN_POINT('', (-8., 3.18408167778312E-15, -44.));
#57 = LINE('', #58, #59);
#58 = CARTESIAN_POINT('', (-8., 3.18408167778312E-15, -44.));
#59 = VECTOR('', #60, 0.335410196624966);
#60 = DIRECTION('', (0.15, 9.18485099359969E-18, -0.299999999999997));
#61 = ORIENTED_EDGE('', *, *, #62, .T.);
#62 = EDGE_CURVE('', #55, #55, #63, .T.);
#63 = CIRCLE('', #64, 8.);
#64 = AXIS2_PLACEMENT_3D('', #65, #66, #67);
#65 = CARTESIAN_POINT('', (5.55111512312578E-16, 0., -44.));
#66 = DIRECTION('', (0., 0., -1.));
#67 = DIRECTION('', (-1., 3.9801020972289E-16, 0.));
#68 = ORIENTED_EDGE('', *, *, #54, .T.);
#69 = ORIENTED_EDGE('', *, *, #17, .F.);
#70 = (
   BOUNDED_SURFACE ()
   B_SPLINE_SURFACE (2, 1, ((#71, #72), (#73, #74), (#75, #76), (#77, #78), (#79, #80), (#81, #82), (#83, #84), (#85, #86), (#87, #88)), .UNSPECIFIED., .T., .F., .U.)
   B_SPLINE_SURFACE_WITH_KNOTS ((3, 2, 2, 2, 3), (2, 2), (0., 0.25, 0.5, 0.75, 1.), (0., 1.), .UNSPECIFIED.)
   GEOMETRIC_REPRESENTATION_ITEM ()
   RATIONAL_B_SPLINE_SURFACE (((1., 1.), (0.707106781186548, 0.707106781186548), (1., 1.), (0.707106781186548, 0.707106781186548), (1., 1.), (0.707106781186548, 0.707106781186548), (1., 1.), (0.707106781186548, 0.707106781186548), (1., 1.)))
   REPRESENTATION_ITEM ('')
   SURFACE ()
);
#71 = CARTESIAN_POINT('', (-8., 3.18408167778312E-15, -44.));
#72 = CARTESIAN_POINT('', (-7.85, 4.01255856602481E-15, -44.3));
#73 = CARTESIAN_POINT('', (-7.99999999999999, 8., -44.));
#74 = CARTESIAN_POINT('', (-7.85, 7.85, -44.3));
#75 = CARTESIAN_POINT('', (3.24933447043676E-15, 8., -44.));
#76 = CARTESIAN_POINT('', (3.19881778997193E-15, 7.85, -44.3));
#77 = CARTESIAN_POINT('', (8., 8., -44.));
#78 = CARTESIAN_POINT('', (7.85, 7.85, -44.3));
#79 = CARTESIAN_POINT('', (8., -2.20436423846524E-15, -44.));
#80 = CARTESIAN_POINT('', (7.85, -1.27485398929389E-15, -44.3));
#81 = CARTESIAN_POINT('', (8., -8., -44.));
#82 = CARTESIAN_POINT('', (7.85, -7.85, -44.3));
#83 = CARTESIAN_POINT('', (-1.15939400649372E-15, -8., -44.));
#84 = CARTESIAN_POINT('', (-1.1272470280161E-15, -7.85, -44.3));
#85 = CARTESIAN_POINT('', (-8., -8., -44.));
#86 = CARTESIAN_POINT('', (-7.85, -7.85, -44.3));
#87 = CARTESIAN_POINT('', (-8., 3.18408167778312E-15, -44.));
#88 = CARTESIAN_POINT('', (-7.85, 4.01255856602481E-15, -44.3));
#89 = ADVANCED_FACE('', (#90), #109, .T.);
#90 = FACE_OUTER_BOUND('', #91, .T.);
#91 = EDGE_LOOP('', (#92, #100, #107, #108));
#92 = ORIENTED_EDGE('', *, *, #93, .T.);
#93 = EDGE_CURVE('', #55, #94, #96, .T.);
#94 = VERTEX_POINT('', #95);
#95 = CARTESIAN_POINT('', (-8., 5.38844591624835E-16, -0.799999999999997));
#96 = LINE('', #97, #98);
#97 = CARTESIAN_POINT('', (-8., 3.18408167778312E-15, -44.));
#98 = VECTOR('', #99, 43.2);
#99 = DIRECTION('', (0., -2.64523708615829E-15, 43.2));
#100 = ORIENTED_EDGE('', *, *, #101, .T.);
#101 = EDGE_CURVE('', #94, #94, #102, .T.);
#102 = CIRCLE('', #103, 8.);
#103 = AXIS2_PLACEMENT_3D('', #104, #105, #106);
#104 = CARTESIAN_POINT('', (5.27355936696949E-16, -4.44089209850063E-16, -0.799999999999997));
#105 = DIRECTION('', (-1.38777878078144E-17, 9.23824107420045E-17, -1.));
#106 = DIRECTION('', (-1., 1.22866725184362E-16, 1.38777878078145E-17));
#107 = ORIENTED_EDGE('', *, *, #93, .F.);
#108 = ORIENTED_EDGE('', *, *, #62, .F.);
#109 = (
   BOUNDED_SURFACE ()
   B_SPLINE_SURFACE (1, 2, ((#110, #111, #112, #113, #114, #115, #116, #117, #118), (#119, #120, #121, #122, #123, #124, #125, #126, #127)), .UNSPECIFIED., .F., .T., .U.)
   B_SPLINE_SURFACE_WITH_KNOTS ((2, 2), (3, 2, 2, 2, 3), (0., 1.), (0., 12.5663706143592, 25.1327412287184, 37.6991118430775, 50.2654824574367), .UNSPECIFIED.)
   GEOMETRIC_REPRESENTATION_ITEM ()
   RATIONAL_B_SPLINE_SURFACE (((1., 0.707106781186548, 1., 0.707106781186548, 1., 0.707106781186548, 1., 0.707106781186548, 1.), (1., 0.707106781186548, 1., 0.707106781186548, 1., 0.707106781186548, 1., 0.707106781186548, 1.)))
   REPRESENTATION_ITEM ('')
   SURFACE ()
);
#110 = CARTESIAN_POINT('', (-8., -2.34773527240057E-15, -44.));
#111 = CARTESIAN_POINT('', (-8., 8., -44.));
#112 = CARTESIAN_POINT('', (4.20910585215321E-16, 8., -44.));
#113 = CARTESIAN_POINT('', (8., 7.99999999999999, -44.));
#114 = CARTESIAN_POINT('', (8., -3.33388543603249E-15, -44.));
#115 = CARTESIAN_POINT('', (8., -8., -44.));
#116 = CARTESIAN_POINT('', (4.1447786090129E-16, -8., -44.));
#117 = CARTESIAN_POINT('', (-8., -8., -44.));
#118 = CARTESIAN_POINT('', (-8., -2.34773527240057E-15, -44.));
#119 = CARTESIAN_POINT('', (-8., 5.38844591624835E-16, -0.799999999999997));
#120 = CARTESIAN_POINT('', (-8., 8., -0.799999999999998));
#121 = CARTESIAN_POINT('', (1.02043101851291E-15, 8., -0.799999999999998));
#122 = CARTESIAN_POINT('', (8., 8., -0.799999999999998));
#123 = CARTESIAN_POINT('', (8., -4.47305572007078E-16, -0.799999999999997));
#124 = CARTESIAN_POINT('', (8., -8., -0.799999999999997));
#125 = CARTESIAN_POINT('', (1.01399829419888E-15, -8., -0.799999999999997));
#126 = CARTESIAN_POINT('', (-8., -8., -0.799999999999996));
#127 = CARTESIAN_POINT('', (-8., 5.38844591624835E-16, -0.799999999999997));
#128 = ADVANCED_FACE('', (#129), #148, .T.);
#129 = FACE_OUTER_BOUND('', #130, .T.);
#130 = EDGE_LOOP('', (#131, #139, #146, #147));
#131 = ORIENTED_EDGE('', *, *, #132, .T.);
#132 = EDGE_CURVE('', #94, #133, #135, .T.);
#133 = VERTEX_POINT('', #134);
#134 = CARTESIAN_POINT('', (-7.2, 4.40872847693047E-16, 0.));
#135 = LINE('', #136, #137);
#136 = CARTESIAN_POINT('', (-8., 5.38844591624835E-16, -0.799999999999997));
#137 = VECTOR('', #138, 1.13137084989847);
#138 = DIRECTION('', (0.8, -9.7971743931788E-17, 0.799999999999997));
#139 = ORIENTED_EDGE('', *, *, #140, .T.);
#140 = EDGE_CURVE('', #133, #133, #141, .T.);
#141 = CIRCLE('', #142, 7.2);
#142 = AXIS2_PLACEMENT_3D('', #143, #144, #145);
#143 = CARTESIAN_POINT('', (-8.32667268468867E-17, -6.66133814775094E-16, -4.93038065763132E-32));
#144 = DIRECTION('', (2.56677801597318E-33, 6.12323399573677E-17, -1.));
#145 = DIRECTION('', (-1., 1.53750925342797E-16, 6.84775091337684E-33));
#146 = ORIENTED_EDGE('', *, *, #132, .F.);
#147 = ORIENTED_EDGE('', *, *, #101, .F.);
#148 = (
   BOUNDED_SURFACE ()
   B_SPLINE_SURFACE (1, 2, ((#149, #150, #151, #152, #153, #154, #155, #156, #157), (#158, #159, #160, #161, #162, #163, #164, #165, #166)), .UNSPECIFIED., .F., .T., .U.)
   B_SPLINE_SURFACE_WITH_KNOTS ((2, 2), (3, 2, 2, 2, 3), (0., 1.), (0., 0.25, 0.5, 0.75, 1.), .UNSPECIFIED.)
   GEOMETRIC_REPRESENTATION_ITEM ()
   RATIONAL_B_SPLINE_SURFACE (((1., 0.707106781186548, 1., 0.707106781186548, 1., 0.707106781186548, 1., 0.707106781186548, 1.), (1., 0.707106781186548, 1., 0.707106781186548, 1., 0.707106781186548, 1., 0.707106781186548, 1.)))
   REPRESENTATION_ITEM ('')
   SURFACE ()
);
#149 = CARTESIAN_POINT('', (-8., -4.09906311545837E-15, -0.799999999999997));
#150 = CARTESIAN_POINT('', (-8., 7.99999999999999, -0.800000000000044));
#151 = CARTESIAN_POINT('', (6.56881956236551E-16, 7.99999999999999, -0.800000000000044));
#152 = CARTESIAN_POINT('', (8., 7.99999999999999, -0.800000000000044));
#153 = CARTESIAN_POINT('', (8., -5.57936048162525E-15, -0.799999999999997));
#154 = CARTESIAN_POINT('', (8., -8.00000000000001, -0.799999999999951));
#155 = CARTESIAN_POINT('', (1.56302029387557E-16, -8.00000000000001, -0.799999999999951));
#156 = CARTESIAN_POINT('', (-8., -8.00000000000001, -0.799999999999951));
#157 = CARTESIAN_POINT('', (-8., -4.09906311545837E-15, -0.799999999999997));
#158 = CARTESIAN_POINT('', (-7.2, 4.40872847693047E-16, 0.));
#159 = CARTESIAN_POINT('', (-7.2, 7.2, -4.19664303308311E-14));
#160 = CARTESIAN_POINT('', (5.82867087928207E-16, 7.2, -4.19664303308311E-14));
#161 = CARTESIAN_POINT('', (7.2, 7.2, -4.19664303308311E-14));
#162 = CARTESIAN_POINT('', (7.2, -8.9139478185714E-16, -5.23801307078189E-30));
#163 = CARTESIAN_POINT('', (7.2, -7.2, 4.19664303308311E-14));
#164 = CARTESIAN_POINT('', (1.32345153764114E-16, -7.2, 4.19664303308311E-14));
#165 = CARTESIAN_POINT('', (-7.2, -7.2, 4.19664303308311E-14));
#166 = CARTESIAN_POINT('', (-7.2, 4.40872847693047E-16, 0.));
#167 = ADVANCED_FACE('', (#168), #171, .T.);
#168 = FACE_OUTER_BOUND('', #169, .T.);
#169 = EDGE_LOOP('', (#170));
#170 = ORIENTED_EDGE('', *, *, #140, .F.);
#171 = B_SPLINE_SURFACE_WITH_KNOTS('', 1, 1, ((#172, #173), (#174, #175)), .UNSPECIFIED., .F., .F., .U., (2, 2), (2, 2), (0.0454545454545454, 0.954545454545455), (0.0454545454545454, 0.954545454545454), .UNSPECIFIED.);
#172 = CARTESIAN_POINT('', (7.2, -7.2, -4.40872847693047E-16));
#173 = CARTESIAN_POINT('', (-7.2, -7.2, -4.40872847693047E-16));
#174 = CARTESIAN_POINT('', (7.2, 7.2, 4.40872847693047E-16));
#175 = CARTESIAN_POINT('', (-7.2, 7.2, 4.40872847693047E-16));
#176 = ADVANCED_FACE('', (#177), #180, .T.);
#177 = FACE_OUTER_BOUND('', #178, .T.);
#178 = EDGE_LOOP('', (#179));
#179 = ORIENTED_EDGE('', *, *, #25, .T.);
#180 = B_SPLINE_SURFACE_WITH_KNOTS('', 1, 1, ((#181, #182), (#183, #184)), .UNSPECIFIED., .F., .F., .U., (2, 2), (2, 2), (0.474174653249595, 0.557031464463497), (0.442968535536503, 0.525825346750405), .UNSPECIFIED.);
#181 = CARTESIAN_POINT('', (-7.85000000000002, 7.85000000000001, -63.));
#182 = CARTESIAN_POINT('', (-7.85000000000002, -7.84999999999999, -63.));
#183 = CARTESIAN_POINT('', (7.84999999999997, 7.85000000000001, -63.));
#184 = CARTESIAN_POINT('', (7.84999999999997, -7.84999999999999, -63.));
#185 = DRAUGHTING_MODEL('', (#193, #301, #341, #346, #351, #356, #361), #375);
#186 = PRESENTATION_STYLE_ASSIGNMENT((#187));
#187 = SURFACE_STYLE_USAGE(.POSITIVE., #188);
#188 = SURFACE_SIDE_STYLE('', (#189));
#189 = SURFACE_STYLE_FILL_AREA(#190);
#190 = FILL_AREA_STYLE('', (#191));
#191 = FILL_AREA_STYLE_COLOUR('', #192);
#192 = COLOUR_RGB('', 0.50196078431373, 0.50196078431373, 0.50196078431373);
#193 = STYLED_ITEM('', (#186), #1);
#194 = MANIFOLD_SOLID_BREP('CUT', #195);
#195 = CLOSED_SHELL('', (#196, #213, #252));
#196 = ADVANCED_FACE('', (#197), #208, .T.);
#197 = FACE_OUTER_BOUND('', #198, .T.);
#198 = EDGE_LOOP('', (#199));
#199 = ORIENTED_EDGE('', *, *, #200, .F.);
#200 = EDGE_CURVE('', #201, #201, #203, .T.);
#201 = VERTEX_POINT('', #202);
#202 = CARTESIAN_POINT('', (-8., 4.3474961369731E-15, -63.));
#203 = CIRCLE('', #204, 8.);
#204 = AXIS2_PLACEMENT_3D('', #205, #206, #207);
#205 = CARTESIAN_POINT('', (0., 4.21884749357559E-15, -63.));
#206 = DIRECTION('', (0., 0., -1.));
#207 = DIRECTION('', (-1., 1.60810804246882E-17, 0.));
#208 = B_SPLINE_SURFACE_WITH_KNOTS('', 1, 1, ((#209, #210), (#211, #212)), .UNSPECIFIED., .F., .F., .U., (2, 2), (2, 2), (0.0454545454545453, 0.954545454545454), (0.0454545454545455, 0.954545454545454), .UNSPECIFIED.);
#209 = CARTESIAN_POINT('', (8., -8., -63.));
#210 = CARTESIAN_POINT('', (-8., -8., -63.));
#211 = CARTESIAN_POINT('', (8., 8., -63.));
#212 = CARTESIAN_POINT('', (-8., 8., -63.));
#213 = ADVANCED_FACE('', (#214), #233, .T.);
#214 = FACE_OUTER_BOUND('', #215, .T.);
#215 = EDGE_LOOP('', (#216, #224, #225, #226));
#216 = ORIENTED_EDGE('', *, *, #217, .F.);
#217 = EDGE_CURVE('', #201, #218, #220, .T.);
#218 = VERTEX_POINT('', #219);
#219 = CARTESIAN_POINT('', (-8., 5.63337527607782E-15, -84.));
#220 = LINE('', #221, #222);
#221 = CARTESIAN_POINT('', (-8., 4.3474961369731E-15, -63.));
#222 = VECTOR('', #223, 21.);
#223 = DIRECTION('', (0., 1.28587913910472E-15, -21.));
#224 = ORIENTED_EDGE('', *, *, #200, .T.);
#225 = ORIENTED_EDGE('', *, *, #217, .T.);
#226 = ORIENTED_EDGE('', *, *, #227, .F.);
#227 = EDGE_CURVE('', #218, #218, #228, .T.);
#228 = CIRCLE('', #229, 8.);
#229 = AXIS2_PLACEMENT_3D('', #230, #231, #232);
#230 = CARTESIAN_POINT('', (7.7715611723761E-16, 4.88498130835069E-15, -84.));
#231 = DIRECTION('', (0., 0., -1.));
#232 = DIRECTION('', (-1., 9.35492459658914E-17, 0.));
#233 = (
   BOUNDED_SURFACE ()
   B_SPLINE_SURFACE (2, 1, ((#234, #235), (#236, #237), (#238, #239), (#240, #241), (#242, #243), (#244, #245), (#246, #247), (#248, #249), (#250, #251)), .UNSPECIFIED., .T., .F., .U.)
   B_SPLINE_SURFACE_WITH_KNOTS ((3, 2, 2, 2, 3), (2, 2), (0., 12.5663706143592, 25.1327412287184, 37.6991118430775, 50.2654824574367), (0., 1.), .UNSPECIFIED.)
   GEOMETRIC_REPRESENTATION_ITEM ()
   RATIONAL_B_SPLINE_SURFACE (((1., 1.), (0.707106781186548, 0.707106781186548), (1., 1.), (0.707106781186548, 0.707106781186548), (1., 1.), (0.707106781186548, 0.707106781186548), (1., 1.), (0.707106781186548, 0.707106781186548), (1., 1.)))
   REPRESENTATION_ITEM ('')
   SURFACE ()
);
#234 = CARTESIAN_POINT('', (-8., 4.3474961369731E-15, -63.));
#235 = CARTESIAN_POINT('', (-8., 8.78838823547373E-15, -84.));
#236 = CARTESIAN_POINT('', (-7.99999999999999, 8., -63.));
#237 = CARTESIAN_POINT('', (-7.99999999999999, 8.00000000000001, -84.));
#238 = CARTESIAN_POINT('', (4.21845990031733E-15, 8., -63.));
#239 = CARTESIAN_POINT('', (4.21845990031734E-15, 8.00000000000001, -84.));
#240 = CARTESIAN_POINT('', (8., 8., -63.));
#241 = CARTESIAN_POINT('', (8., 8., -84.));
#242 = CARTESIAN_POINT('', (8., -2.47960027795509E-15, -63.));
#243 = CARTESIAN_POINT('', (8., 1.96129182054553E-15, -84.));
#244 = CARTESIAN_POINT('', (8., -8., -63.));
#245 = CARTESIAN_POINT('', (8., -8., -84.));
#246 = CARTESIAN_POINT('', (-1.62891907529298E-15, -8., -63.));
#247 = CARTESIAN_POINT('', (-1.62891907529297E-15, -8., -84.));
#248 = CARTESIAN_POINT('', (-8., -8., -63.));
#249 = CARTESIAN_POINT('', (-8., -7.99999999999999, -84.));
#250 = CARTESIAN_POINT('', (-8., 4.3474961369731E-15, -63.));
#251 = CARTESIAN_POINT('', (-8., 8.78838823547373E-15, -84.));
#252 = ADVANCED_FACE('', (#253), #266, .T.);
#253 = FACE_OUTER_BOUND('', #254, .T.);
#254 = EDGE_LOOP('', (#255, #264, #265));
#255 = ORIENTED_EDGE('', *, *, #256, .F.);
#256 = EDGE_CURVE('', #218, #257, #259, .T.);
#257 = VERTEX_POINT('', #258);
#258 = CARTESIAN_POINT('', (2.35775457867695E-15, 5.63337527607782E-15, -92.));
#259 = CIRCLE('', #260, 8.00000000000002);
#260 = AXIS2_PLACEMENT_3D('', #261, #262, #263);
#261 = CARTESIAN_POINT('', (1.77635683940025E-14, 5.14351655641886E-15, -84.));
#262 = DIRECTION('', (-6.12323399573694E-17, -1., -6.12323399573693E-17));
#263 = DIRECTION('', (-1., 6.12323399573695E-17, -1.77635683940025E-15));
#264 = ORIENTED_EDGE('', *, *, #227, .T.);
#265 = ORIENTED_EDGE('', *, *, #256, .T.);
#266 = (
   BOUNDED_SURFACE ()
   B_SPLINE_SURFACE (2, 2, ((#267, #268, #269), (#270, #271, #272), (#273, #274, #275), (#276, #277, #278), (#279, #280, #281), (#282, #283, #284), (#285, #286, #287), (#288, #289, #290), (#291, #292, #293)), .UNSPECIFIED., .T., .F., .U.)
   B_SPLINE_SURFACE_WITH_KNOTS ((3, 2, 2, 2, 3), (3, 3), (0., 0.25, 0.5, 0.75, 1.), (0., 1.), .UNSPECIFIED.)
   GEOMETRIC_REPRESENTATION_ITEM ()
   RATIONAL_B_SPLINE_SURFACE (((1., 0.707106781186548, 1.), (0.707106781186548, 0.5, 0.707106781186548), (1., 0.707106781186548, 1.), (0.707106781186548, 0.5, 0.707106781186548), (1., 0.707106781186548, 1.), (0.707106781186548, 0.5, 0.707106781186548), (1., 0.707106781186548, 1.), (0.707106781186548, 0.5, 0.707106781186548), (1., 0.707106781186548, 1.)))
   REPRESENTATION_ITEM ('')
   SURFACE ()
);
#267 = CARTESIAN_POINT('', (-8., 5.63337527607782E-15, -84.));
#268 = CARTESIAN_POINT('', (-8., 6.12323399573677E-15, -92.));
#269 = CARTESIAN_POINT('', (2.35775457867695E-15, 5.63337527607782E-15, -92.));
#270 = CARTESIAN_POINT('', (-8., 8.00000000000002, -84.));
#271 = CARTESIAN_POINT('', (-7.99999999999995, 8.00000000000002, -92.));
#272 = CARTESIAN_POINT('', (2.35775457867695E-15, 5.63337527607782E-15, -92.));
#273 = CARTESIAN_POINT('', (1.77635683940026E-14, 8.00000000000002, -84.));
#274 = CARTESIAN_POINT('', (6.6620606561461E-14, 7.99999999999997, -92.));
#275 = CARTESIAN_POINT('', (2.35775457867695E-15, 5.63337527607782E-15, -92.));
#276 = CARTESIAN_POINT('', (8.00000000000004, 8.00000000000002, -84.));
#277 = CARTESIAN_POINT('', (8.00000000000009, 7.99999999999993, -92.));
#278 = CARTESIAN_POINT('', (2.35775457867695E-15, 5.63337527607782E-15, -92.));
#279 = CARTESIAN_POINT('', (8.00000000000004, 5.63337527607762E-15, -84.));
#280 = CARTESIAN_POINT('', (8.00000000000004, -9.15908423391801E-14, -92.));
#281 = CARTESIAN_POINT('', (2.35775457867695E-15, 5.63337527607782E-15, -92.));
#282 = CARTESIAN_POINT('', (8.00000000000004, -8.00000000000001, -84.));
#283 = CARTESIAN_POINT('', (7.99999999999999, -8.00000000000011, -92.));
#284 = CARTESIAN_POINT('', (2.35775457867695E-15, 5.63337527607782E-15, -92.));
#285 = CARTESIAN_POINT('', (1.87432858333203E-14, -8.00000000000001, -84.));
#286 = CARTESIAN_POINT('', (-3.0113752334138E-14, -8.00000000000006, -92.));
#287 = CARTESIAN_POINT('', (2.35775457867695E-15, 5.63337527607782E-15, -92.));
#288 = CARTESIAN_POINT('', (-8., -8.00000000000001, -84.));
#289 = CARTESIAN_POINT('', (-8.00000000000005, -8.00000000000001, -92.));
#290 = CARTESIAN_POINT('', (2.35775457867695E-15, 5.63337527607782E-15, -92.));
#291 = CARTESIAN_POINT('', (-8., 5.63337527607782E-15, -84.));
#292 = CARTESIAN_POINT('', (-8., 6.12323399573677E-15, -92.));
#293 = CARTESIAN_POINT('', (2.35775457867695E-15, 5.63337527607782E-15, -92.));
#294 = PRESENTATION_STYLE_ASSIGNMENT((#295));
#295 = SURFACE_STYLE_USAGE(.POSITIVE., #296);
#296 = SURFACE_SIDE_STYLE('', (#297));
#297 = SURFACE_STYLE_FILL_AREA(#298);
#298 = FILL_AREA_STYLE('', (#299));
#299 = FILL_AREA_STYLE_COLOUR('', #300);
#300 = COLOUR_RGB('', 0.8, 0.8, 0.8);
#301 = STYLED_ITEM('', (#294), #194);
#302 = TRIMMED_CURVE('cutting part line', #303, (#308), (#309), .T., .CARTESIAN.);
#303 = CIRCLE('', #304, 7.99999999999999);
#304 = AXIS2_PLACEMENT_3D('', #305, #306, #307);
#305 = CARTESIAN_POINT('', (3.59712259978551E-14, 0., -84.));
#306 = DIRECTION('', (0., -1., 0.));
#307 = DIRECTION('', (-1.70696790036118E-15, 0., -1.));
#308 = CARTESIAN_POINT('', (2.23154827949657E-14, 0., -92.));
#309 = CARTESIAN_POINT('', (8.00000000000003, 0., -84.));
#310 = TRIMMED_CURVE('cutting part line', #311, (#315), (#316), .T., .CARTESIAN.);
#311 = LINE('', #312, #313);
#312 = CARTESIAN_POINT('', (8., 4.44021572912408E-15, -84.));
#313 = VECTOR('', #314, 21.);
#314 = DIRECTION('', (0., -4.44021572912408E-15, 21.));
#315 = CARTESIAN_POINT('', (8., 4.44021572912408E-15, -84.));
#316 = CARTESIAN_POINT('', (8., 0., -63.));
#317 = TRIMMED_CURVE('cutting part line', #318, (#322), (#323), .T., .CARTESIAN.);
#318 = LINE('', #319, #320);
#319 = CARTESIAN_POINT('', (8., 0., -63.));
#320 = VECTOR('', #321, 8.);
#321 = DIRECTION('', (-8., 0., 0.));
#322 = CARTESIAN_POINT('', (8., 0., -63.));
#323 = CARTESIAN_POINT('', (0., 0., -63.));
#324 = TRIMMED_CURVE('cutting part line', #325, (#329), (#330), .T., .CARTESIAN.);
#325 = LINE('', #326, #327);
#326 = CARTESIAN_POINT('', (0., 0., -63.));
#327 = VECTOR('', #328, 29.);
#328 = DIRECTION('', (0., 0., -29.));
#329 = CARTESIAN_POINT('', (0., 0., -63.));
#330 = CARTESIAN_POINT('', (0., 0., -92.));
#331 = COMPOSITE_CURVE('cutting part line', (#332, #333, #334, #335), .U.);
#332 = COMPOSITE_CURVE_SEGMENT(.CONTINUOUS., .T., #302);
#333 = COMPOSITE_CURVE_SEGMENT(.CONTINUOUS., .T., #310);
#334 = COMPOSITE_CURVE_SEGMENT(.CONTINUOUS., .T., #317);
#335 = COMPOSITE_CURVE_SEGMENT(.CONTINUOUS., .T., #324);
#336 = GEOMETRIC_SET('', (#331, #374));
#337 = PRESENTATION_STYLE_ASSIGNMENT((#338));
#338 = CURVE_STYLE('', #340, POSITIVE_LENGTH_MEASURE(1.E-6), #339);
#339 = COLOUR_RGB('', 0., 0., 1.);
#340 = DRAUGHTING_PRE_DEFINED_CURVE_FONT('continuous');
#341 = STYLED_ITEM('', (#337), #331);
#342 = PRESENTATION_STYLE_ASSIGNMENT((#343));
#343 = CURVE_STYLE('', #345, POSITIVE_LENGTH_MEASURE(1.E-6), #344);
#344 = COLOUR_RGB('', 0., 0., 1.);
#345 = DRAUGHTING_PRE_DEFINED_CURVE_FONT('continuous');
#346 = OVER_RIDING_STYLED_ITEM('', (#342), #302, #341);
#347 = PRESENTATION_STYLE_ASSIGNMENT((#348));
#348 = CURVE_STYLE('', #350, POSITIVE_LENGTH_MEASURE(1.E-6), #349);
#349 = COLOUR_RGB('', 0., 0., 1.);
#350 = DRAUGHTING_PRE_DEFINED_CURVE_FONT('continuous');
#351 = OVER_RIDING_STYLED_ITEM('', (#347), #310, #341);
#352 = PRESENTATION_STYLE_ASSIGNMENT((#353));
#353 = CURVE_STYLE('', #355, POSITIVE_LENGTH_MEASURE(1.E-6), #354);
#354 = COLOUR_RGB('', 0., 0., 1.);
#355 = DRAUGHTING_PRE_DEFINED_CURVE_FONT('continuous');
#356 = OVER_RIDING_STYLED_ITEM('', (#352), #317, #341);
#357 = PRESENTATION_STYLE_ASSIGNMENT((#358));
#358 = CURVE_STYLE('', #360, POSITIVE_LENGTH_MEASURE(1.E-6), #359);
#359 = COLOUR_RGB('', 0., 0., 1.);
#360 = DRAUGHTING_PRE_DEFINED_CURVE_FONT('continuous');
#361 = OVER_RIDING_STYLED_ITEM('', (#357), #324, #341);
#362 = AXIS2_PLACEMENT_3D('MCS', #363, #364, #365);
#363 = CARTESIAN_POINT('', (0., 0., -48.));
#364 = DIRECTION('', (0., 0., 1.));
#365 = DIRECTION('', (1., 0., 0.));
#366 = AXIS2_PLACEMENT_3D('PCS', #367, #368, #369);
#367 = CARTESIAN_POINT('', (0., 0., 0.));
#368 = DIRECTION('', (0., 0., 1.));
#369 = DIRECTION('', (1., 0., 0.));
#370 = AXIS2_PLACEMENT_3D('CIP', #371, #372, #373);
#371 = CARTESIAN_POINT('', (0., 0., -92.));
#372 = DIRECTION('', (0., 0., 1.));
#373 = DIRECTION('', (1., 0., 0.));
#374 = CARTESIAN_POINT('CRP', (8.00000000000004, 0., -92.));
#375 = (
   GEOMETRIC_REPRESENTATION_CONTEXT (3)
   GLOBAL_UNCERTAINTY_ASSIGNED_CONTEXT ((#377))
   GLOBAL_UNIT_ASSIGNED_CONTEXT ((#376, #378, #379))
   REPRESENTATION_CONTEXT ('', '3D')
);
#376 = (
   LENGTH_UNIT ()
   NAMED_UNIT (*)
   SI_UNIT (.MILLI., .METRE.)
);
#377 = UNCERTAINTY_MEASURE_WITH_UNIT(LENGTH_MEASURE(1.E-6), #376, 'DISTANCE_ACCURACY_VALUE', '');
#378 = (
   NAMED_UNIT (*)
   SI_UNIT ($, .STERADIAN.)
   SOLID_ANGLE_UNIT ()
);
#379 = (
   NAMED_UNIT (*)
   PLANE_ANGLE_UNIT ()
   SI_UNIT ($, .RADIAN.)
);
#380 = SHAPE_REPRESENTATION('', (), #375);
#381 = PRODUCT_DEFINITION_SHAPE('', '', #382);
#382 = PRODUCT_DEFINITION('', '', #385, #389);
#383 = APPLICATION_CONTEXT('configuration controlled 3D designs of mechanical parts and assemblies');
#384 = APPLICATION_PROTOCOL_DEFINITION('International Standard', 'automotive_design', 2002, #383);
#385 = PRODUCT_DEFINITION_FORMATION_WITH_SPECIFIED_SOURCE('', '', #386, .NOT_KNOWN.);
#386 = PRODUCT('product-name', '2B330-1600-NC       H10F', '', (#387));
#387 = PRODUCT_CONTEXT('', #383, 'mechanical');
#388 = PRODUCT_RELATED_PRODUCT_CATEGORY('detail', '', (#386));
#389 = PRODUCT_DEFINITION_CONTEXT('part definition', #383, 'design');
#390 = SHAPE_DEFINITION_REPRESENTATION(#381, #380);
#391 = CONSTRUCTIVE_GEOMETRY_REPRESENTATION('supplemental geometry', (#362, #366, #370), #375);
#392 = CONSTRUCTIVE_GEOMETRY_REPRESENTATION_RELATIONSHIP('', '', #380, #391);
#393 = SHAPE_REPRESENTATION_RELATIONSHIP('', '', #380, #394);
#394 = SHAPE_REPRESENTATION('', (#336), #375);
#395 = SHAPE_REPRESENTATION_RELATIONSHIP('', '', #380, #396);
#396 = ADVANCED_BREP_SHAPE_REPRESENTATION('', (#1, #194), #375);
ENDSEC;
END-ISO-10303-21;
