ISO-10303-21;
HEADER;
FILE_DESCRIPTION(('STEP'), '1');
FILE_NAME('C:\\Users\\ds2002\\OneDrive - Sandvik\\HomeShare\\Documents\\Batchrepair\\CorSRT2\\NEW_MILBN_SLD\\Output2\\MOD000000000000000020082299600000.stp', '2018-11-23T12:38:43', (''), (''), 'Express v3.0.0.0', 'Express Tool', 'Unknown');
FILE_SCHEMA(('AUTOMOTIVE_DESIGN'));
ENDSEC;

DATA;
#1 = MANIFOLD_SOLID_BREP('NOCUT', #2);
#2 = CLOSED_SHELL('', (#3, #50, #89, #128, #167, #176));
#3 = ADVANCED_FACE('', (#4), #31, .T.);
#4 = FACE_OUTER_BOUND('', #5, .T.);
#5 = EDGE_LOOP('', (#6, #16, #23, #24));
#6 = ORIENTED_EDGE('', *, *, #7, .F.);
#7 = EDGE_CURVE('', #8, #10, #12, .T.);
#8 = VERTEX_POINT('', #9);
#9 = CARTESIAN_POINT('', (-2.35, 2.30539759939489E-15, -35.3));
#10 = VERTEX_POINT('', #11);
#11 = CARTESIAN_POINT('', (-2.35, 2.59318959719452E-15, -40.));
#12 = LINE('', #13, #14);
#13 = CARTESIAN_POINT('', (-2.35, 2.30539759939489E-15, -35.3));
#14 = VECTOR('', #15, 4.7);
#15 = DIRECTION('', (0., 2.8779199779963E-16, -4.7));
#16 = ORIENTED_EDGE('', *, *, #17, .T.);
#17 = EDGE_CURVE('', #8, #8, #18, .T.);
#18 = CIRCLE('', #19, 2.35);
#19 = AXIS2_PLACEMENT_3D('', #20, #21, #22);
#20 = CARTESIAN_POINT('', (-1.73472347597681E-16, 1.99840144432528E-15, -35.3));
#21 = DIRECTION('', (0., 0., -1.));
#22 = DIRECTION('', (-1., 1.30636661731748E-16, 0.));
#23 = ORIENTED_EDGE('', *, *, #7, .T.);
#24 = ORIENTED_EDGE('', *, *, #25, .F.);
#25 = EDGE_CURVE('', #10, #10, #26, .T.);
#26 = CIRCLE('', #27, 2.35);
#27 = AXIS2_PLACEMENT_3D('', #28, #29, #30);
#28 = CARTESIAN_POINT('', (5.13478148889135E-16, 8.32667268468867E-16, -40.));
#29 = DIRECTION('', (-7.70950650930997E-30, -1.02908892442123E-14, -1.));
#30 = DIRECTION('', (-1., 7.49158437755597E-16, 0.));
#31 = (
   BOUNDED_SURFACE ()
   B_SPLINE_SURFACE (2, 1, ((#32, #33), (#34, #35), (#36, #37), (#38, #39), (#40, #41), (#42, #43), (#44, #45), (#46, #47), (#48, #49)), .UNSPECIFIED., .T., .F., .U.)
   B_SPLINE_SURFACE_WITH_KNOTS ((3, 2, 2, 2, 3), (2, 2), (0., 3.691371367968, 7.382742735936, 11.074114103904, 14.765485471872), (0., 1.), .UNSPECIFIED.)
   GEOMETRIC_REPRESENTATION_ITEM ()
   RATIONAL_B_SPLINE_SURFACE (((1., 1.), (0.707106781186548, 0.707106781186548), (1., 1.), (0.707106781186548, 0.707106781186548), (1., 1.), (0.707106781186548, 0.707106781186548), (1., 1.), (0.707106781186548, 0.707106781186548), (1., 1.)))
   REPRESENTATION_ITEM ('')
   SURFACE ()
);
#32 = CARTESIAN_POINT('', (-2.35, 2.30539759939489E-15, -35.3));
#33 = CARTESIAN_POINT('', (-2.35, 1.58375263338854E-15, -40.));
#34 = CARTESIAN_POINT('', (-2.35, 2.35, -35.3));
#35 = CARTESIAN_POINT('', (-2.35, 2.35, -40.));
#36 = CARTESIAN_POINT('', (9.68011849023032E-16, 2.35, -35.3));
#37 = CARTESIAN_POINT('', (9.68011849023032E-16, 2.35, -40.));
#38 = CARTESIAN_POINT('', (2.35, 2.35, -35.3));
#39 = CARTESIAN_POINT('', (2.35, 2.35, -40.));
#40 = CARTESIAN_POINT('', (2.35, 1.09101886735518E-15, -35.3));
#41 = CARTESIAN_POINT('', (2.35, 3.69373901348825E-16, -40.));
#42 = CARTESIAN_POINT('', (2.35, -2.35, -35.3));
#43 = CARTESIAN_POINT('', (2.35, -2.35, -40.));
#44 = CARTESIAN_POINT('', (4.14251147829473E-17, -2.35, -35.3));
#45 = CARTESIAN_POINT('', (4.14251147829471E-17, -2.35, -40.));
#46 = CARTESIAN_POINT('', (-2.35, -2.35, -35.3));
#47 = CARTESIAN_POINT('', (-2.35, -2.35, -40.));
#48 = CARTESIAN_POINT('', (-2.35, 2.30539759939489E-15, -35.3));
#49 = CARTESIAN_POINT('', (-2.35, 1.58375263338854E-15, -40.));
#50 = ADVANCED_FACE('', (#51), #70, .T.);
#51 = FACE_OUTER_BOUND('', #52, .T.);
#52 = EDGE_LOOP('', (#53, #61, #68, #69));
#53 = ORIENTED_EDGE('', *, *, #54, .F.);
#54 = EDGE_CURVE('', #55, #8, #57, .T.);
#55 = VERTEX_POINT('', #56);
#56 = CARTESIAN_POINT('', (-2.5, 2.29621274840129E-15, -35.));
#57 = LINE('', #58, #59);
#58 = CARTESIAN_POINT('', (-2.5, 2.29621274840129E-15, -35.));
#59 = VECTOR('', #60, 0.335410196624966);
#60 = DIRECTION('', (0.15, 9.18485099360009E-18, -0.299999999999997));
#61 = ORIENTED_EDGE('', *, *, #62, .T.);
#62 = EDGE_CURVE('', #55, #55, #63, .T.);
#63 = CIRCLE('', #64, 2.5);
#64 = AXIS2_PLACEMENT_3D('', #65, #66, #67);
#65 = CARTESIAN_POINT('', (-7.63278329429795E-17, -1.38777878078145E-15, -35.));
#66 = DIRECTION('', (0., 0., -1.));
#67 = DIRECTION('', (-1., 1.47359661167309E-15, 0.));
#68 = ORIENTED_EDGE('', *, *, #54, .T.);
#69 = ORIENTED_EDGE('', *, *, #17, .F.);
#70 = (
   BOUNDED_SURFACE ()
   B_SPLINE_SURFACE (2, 1, ((#71, #72), (#73, #74), (#75, #76), (#77, #78), (#79, #80), (#81, #82), (#83, #84), (#85, #86), (#87, #88)), .UNSPECIFIED., .T., .F., .U.)
   B_SPLINE_SURFACE_WITH_KNOTS ((3, 2, 2, 2, 3), (2, 2), (0., 0.25, 0.5, 0.75, 1.), (0., 1.), .UNSPECIFIED.)
   GEOMETRIC_REPRESENTATION_ITEM ()
   RATIONAL_B_SPLINE_SURFACE (((1., 1.), (0.707106781186548, 0.707106781186548), (1., 1.), (0.707106781186548, 0.707106781186548), (1., 1.), (0.707106781186548, 0.707106781186548), (1., 1.), (0.707106781186548, 0.707106781186548), (1., 1.)))
   REPRESENTATION_ITEM ('')
   SURFACE ()
);
#71 = CARTESIAN_POINT('', (-2.5, 2.29621274840129E-15, -35.));
#72 = CARTESIAN_POINT('', (-2.35, 5.46135348175705E-15, -35.3));
#73 = CARTESIAN_POINT('', (-2.5, 2.5, -35.));
#74 = CARTESIAN_POINT('', (-2.35, 2.35, -35.3));
#75 = CARTESIAN_POINT('', (3.45458284634634E-15, 2.5, -35.));
#76 = CARTESIAN_POINT('', (3.24272820558898E-15, 2.35, -35.3));
#77 = CARTESIAN_POINT('', (2.5, 2.5, -35.));
#78 = CARTESIAN_POINT('', (2.35, 2.35, -35.3));
#79 = CARTESIAN_POINT('', (2.5, -4.76560861017734E-15, -35.));
#80 = CARTESIAN_POINT('', (2.35, -1.17675859530686E-15, -35.3));
#81 = CARTESIAN_POINT('', (2.5, -2.5, -35.));
#82 = CARTESIAN_POINT('', (2.35, -2.35, -35.3));
#83 = CARTESIAN_POINT('', (-3.30107681244546E-15, -2.5, -35.));
#84 = CARTESIAN_POINT('', (-3.10759187367531E-15, -2.35, -35.3));
#85 = CARTESIAN_POINT('', (-2.5, -2.5, -35.));
#86 = CARTESIAN_POINT('', (-2.35, -2.34999999999999, -35.3));
#87 = CARTESIAN_POINT('', (-2.5, 2.29621274840129E-15, -35.));
#88 = CARTESIAN_POINT('', (-2.35, 5.46135348175705E-15, -35.3));
#89 = ADVANCED_FACE('', (#90), #109, .T.);
#90 = FACE_OUTER_BOUND('', #91, .T.);
#91 = EDGE_LOOP('', (#92, #100, #107, #108));
#92 = ORIENTED_EDGE('', *, *, #93, .T.);
#93 = EDGE_CURVE('', #55, #94, #96, .T.);
#94 = VERTEX_POINT('', #95);
#95 = CARTESIAN_POINT('', (-2.5, 1.68388934882761E-16, -0.25));
#96 = LINE('', #97, #98);
#97 = CARTESIAN_POINT('', (-2.5, 2.29621274840129E-15, -35.));
#98 = VECTOR('', #99, 34.75);
#99 = DIRECTION('', (0., -2.12782381351853E-15, 34.75));
#100 = ORIENTED_EDGE('', *, *, #101, .T.);
#101 = EDGE_CURVE('', #94, #94, #102, .T.);
#102 = CIRCLE('', #103, 2.5);
#103 = AXIS2_PLACEMENT_3D('', #104, #105, #106);
#104 = CARTESIAN_POINT('', (-2.0122792321331E-16, -1.16573417585641E-15, -0.25));
#105 = DIRECTION('', (0., 0., -1.));
#106 = DIRECTION('', (-1., 5.3364924429567E-16, 0.));
#107 = ORIENTED_EDGE('', *, *, #93, .F.);
#108 = ORIENTED_EDGE('', *, *, #62, .F.);
#109 = (
   BOUNDED_SURFACE ()
   B_SPLINE_SURFACE (1, 2, ((#110, #111, #112, #113, #114, #115, #116, #117, #118), (#119, #120, #121, #122, #123, #124, #125, #126, #127)), .UNSPECIFIED., .F., .T., .U.)
   B_SPLINE_SURFACE_WITH_KNOTS ((2, 2), (3, 2, 2, 2, 3), (0., 1.), (0., 3.92699081698725, 7.8539816339745, 11.7809724509618, 15.707963267949), .UNSPECIFIED.)
   GEOMETRIC_REPRESENTATION_ITEM ()
   RATIONAL_B_SPLINE_SURFACE (((1., 0.707106781186548, 1., 0.707106781186548, 1., 0.707106781186548, 1., 0.707106781186548, 1.), (1., 0.707106781186548, 1., 0.707106781186548, 1., 0.707106781186548, 1., 0.707106781186548, 1.)))
   REPRESENTATION_ITEM ('')
   SURFACE ()
);
#110 = CARTESIAN_POINT('', (-2.5, 2.2223015304393E-15, -35.));
#111 = CARTESIAN_POINT('', (-2.5, 2.5, -35.));
#112 = CARTESIAN_POINT('', (9.79814337632447E-16, 2.5, -35.));
#113 = CARTESIAN_POINT('', (2.5, 2.5, -35.));
#114 = CARTESIAN_POINT('', (2.5, -1.39782991252212E-16, -35.));
#115 = CARTESIAN_POINT('', (2.5, -2.5, -35.));
#116 = CARTESIAN_POINT('', (-1.07610848427223E-15, -2.5, -35.));
#117 = CARTESIAN_POINT('', (-2.5, -2.5, -35.));
#118 = CARTESIAN_POINT('', (-2.5, 2.2223015304393E-15, -35.));
#119 = CARTESIAN_POINT('', (-2.5, 1.68388934882761E-16, -0.25));
#120 = CARTESIAN_POINT('', (-2.5, 2.5, -0.25));
#121 = CARTESIAN_POINT('', (9.79814337632446E-16, 2.5, -0.25));
#122 = CARTESIAN_POINT('', (2.5, 2.5, -0.25));
#123 = CARTESIAN_POINT('', (2.5, -2.19369558680875E-15, -0.25));
#124 = CARTESIAN_POINT('', (2.5, -2.5, -0.25));
#125 = CARTESIAN_POINT('', (-1.07610848427223E-15, -2.5, -0.25));
#126 = CARTESIAN_POINT('', (-2.5, -2.5, -0.25));
#127 = CARTESIAN_POINT('', (-2.5, 1.68388934882761E-16, -0.25));
#128 = ADVANCED_FACE('', (#129), #148, .T.);
#129 = FACE_OUTER_BOUND('', #130, .T.);
#130 = EDGE_LOOP('', (#131, #139, #146, #147));
#131 = ORIENTED_EDGE('', *, *, #132, .T.);
#132 = EDGE_CURVE('', #94, #133, #135, .T.);
#133 = VERTEX_POINT('', #134);
#134 = CARTESIAN_POINT('', (-2.25, 1.37772764904077E-16, 0.));
#135 = LINE('', #136, #137);
#136 = CARTESIAN_POINT('', (-2.5, 1.68388934882761E-16, -0.25));
#137 = VECTOR('', #138, 0.353553390593274);
#138 = DIRECTION('', (0.25, -3.0616169978684E-17, 0.25));
#139 = ORIENTED_EDGE('', *, *, #140, .T.);
#140 = EDGE_CURVE('', #133, #133, #141, .T.);
#141 = CIRCLE('', #142, 2.25);
#142 = AXIS2_PLACEMENT_3D('', #143, #144, #145);
#143 = CARTESIAN_POINT('', (1.1518563880486E-15, -5.55111512312578E-17, -7.78751025318189E-16));
#144 = DIRECTION('', (-3.46111566808084E-16, 1.02345943654949E-15, -1.));
#145 = DIRECTION('', (-1., 8.59039627268154E-17, 3.46111566808084E-16));
#146 = ORIENTED_EDGE('', *, *, #132, .F.);
#147 = ORIENTED_EDGE('', *, *, #101, .F.);
#148 = (
   BOUNDED_SURFACE ()
   B_SPLINE_SURFACE (1, 2, ((#149, #150, #151, #152, #153, #154, #155, #156, #157), (#158, #159, #160, #161, #162, #163, #164, #165, #166)), .UNSPECIFIED., .F., .T., .U.)
   B_SPLINE_SURFACE_WITH_KNOTS ((2, 2), (3, 2, 2, 2, 3), (0., 1.), (0., 0.25, 0.5, 0.75, 1.), .UNSPECIFIED.)
   GEOMETRIC_REPRESENTATION_ITEM ()
   RATIONAL_B_SPLINE_SURFACE (((1., 0.707106781186548, 1., 0.707106781186548, 1., 0.707106781186548, 1., 0.707106781186548, 1.), (1., 0.707106781186548, 1., 0.707106781186548, 1., 0.707106781186548, 1., 0.707106781186548, 1.)))
   REPRESENTATION_ITEM ('')
   SURFACE ()
);
#149 = CARTESIAN_POINT('', (-2.5, -1.28404117642692E-15, -0.249999999999999));
#150 = CARTESIAN_POINT('', (-2.5, 2.5, -0.250000000000014));
#151 = CARTESIAN_POINT('', (1.12700755327019E-15, 2.5, -0.250000000000014));
#152 = CARTESIAN_POINT('', (2.5, 2.5, -0.250000000000015));
#153 = CARTESIAN_POINT('', (2.5, -1.40739929027416E-15, -0.250000000000001));
#154 = CARTESIAN_POINT('', (2.5, -2.5, -0.249999999999986));
#155 = CARTESIAN_POINT('', (1.3098111392098E-15, -2.5, -0.249999999999986));
#156 = CARTESIAN_POINT('', (-2.5, -2.5, -0.249999999999985));
#157 = CARTESIAN_POINT('', (-2.5, -1.28404117642692E-15, -0.249999999999999));
#158 = CARTESIAN_POINT('', (-2.25, 1.37772764904077E-16, -2.95822839457879E-31));
#159 = CARTESIAN_POINT('', (-2.25, 2.25, -1.29896093881144E-14));
#160 = CARTESIAN_POINT('', (1.20736753927985E-15, 2.25, -1.37683604134326E-14));
#161 = CARTESIAN_POINT('', (2.25, 2.25, -1.45471114387508E-14));
#162 = CARTESIAN_POINT('', (2.25, 2.67504624415619E-17, -1.55750205063638E-15));
#163 = CARTESIAN_POINT('', (2.25, -2.25, 1.1432107337478E-14));
#164 = CARTESIAN_POINT('', (1.3718907666255E-15, -2.25, 1.22108583627962E-14));
#165 = CARTESIAN_POINT('', (-2.25, -2.25, 1.29896093881144E-14));
#166 = CARTESIAN_POINT('', (-2.25, 1.37772764904077E-16, -2.95822839457879E-31));
#167 = ADVANCED_FACE('', (#168), #171, .T.);
#168 = FACE_OUTER_BOUND('', #169, .T.);
#169 = EDGE_LOOP('', (#170));
#170 = ORIENTED_EDGE('', *, *, #140, .F.);
#171 = B_SPLINE_SURFACE_WITH_KNOTS('', 1, 1, ((#172, #173), (#174, #175)), .UNSPECIFIED., .F., .F., .U., (2, 2), (2, 2), (0.0454545454545454, 0.954545454545454), (0.0454545454545454, 0.954545454545454), .UNSPECIFIED.);
#172 = CARTESIAN_POINT('', (2.25, -2.25, -1.37772764904077E-16));
#173 = CARTESIAN_POINT('', (-2.25, -2.25, -1.37772764904077E-16));
#174 = CARTESIAN_POINT('', (2.25, 2.25, 1.37772764904077E-16));
#175 = CARTESIAN_POINT('', (-2.25, 2.25, 1.37772764904077E-16));
#176 = ADVANCED_FACE('', (#177), #180, .T.);
#177 = FACE_OUTER_BOUND('', #178, .T.);
#178 = EDGE_LOOP('', (#179));
#179 = ORIENTED_EDGE('', *, *, #25, .T.);
#180 = B_SPLINE_SURFACE_WITH_KNOTS('', 1, 1, ((#181, #182), (#183, #184)), .UNSPECIFIED., .F., .F., .U., (2, 2), (2, 2), (0.491583757997502, 0.538120689049948), (0.461879310950052, 0.508416242002498), .UNSPECIFIED.);
#181 = CARTESIAN_POINT('', (-2.35000000000002, 2.35000000000001, -40.));
#182 = CARTESIAN_POINT('', (-2.35000000000002, -2.34999999999999, -40.));
#183 = CARTESIAN_POINT('', (2.34999999999999, 2.35000000000001, -40.));
#184 = CARTESIAN_POINT('', (2.34999999999999, -2.34999999999999, -40.));
#185 = DRAUGHTING_MODEL('', (#193, #301, #341, #346, #351, #356, #361), #375);
#186 = PRESENTATION_STYLE_ASSIGNMENT((#187));
#187 = SURFACE_STYLE_USAGE(.POSITIVE., #188);
#188 = SURFACE_SIDE_STYLE('', (#189));
#189 = SURFACE_STYLE_FILL_AREA(#190);
#190 = FILL_AREA_STYLE('', (#191));
#191 = FILL_AREA_STYLE_COLOUR('', #192);
#192 = COLOUR_RGB('', 0.50196078431373, 0.50196078431373, 0.50196078431373);
#193 = STYLED_ITEM('', (#186), #1);
#194 = MANIFOLD_SOLID_BREP('CUT', #195);
#195 = CLOSED_SHELL('', (#196, #213, #252));
#196 = ADVANCED_FACE('', (#197), #208, .T.);
#197 = FACE_OUTER_BOUND('', #198, .T.);
#198 = EDGE_LOOP('', (#199));
#199 = ORIENTED_EDGE('', *, *, #200, .F.);
#200 = EDGE_CURVE('', #201, #201, #203, .T.);
#201 = VERTEX_POINT('', #202);
#202 = CARTESIAN_POINT('', (-2.5, 2.60237444818813E-15, -40.));
#203 = CIRCLE('', #204, 2.5);
#204 = AXIS2_PLACEMENT_3D('', #205, #206, #207);
#205 = CARTESIAN_POINT('', (-9.71445146547012E-17, -9.43689570931383E-16, -40.));
#206 = DIRECTION('', (-1.37210491796909E-29, -9.67343588955978E-15, -1.));
#207 = DIRECTION('', (-1., 1.41842560764781E-15, 0.));
#208 = B_SPLINE_SURFACE_WITH_KNOTS('', 1, 1, ((#209, #210), (#211, #212)), .UNSPECIFIED., .F., .F., .U., (2, 2), (2, 2), (0.0454545454545454, 0.954545454545455), (0.0454545454545454, 0.954545454545455), .UNSPECIFIED.);
#209 = CARTESIAN_POINT('', (2.5, -2.5, -40.));
#210 = CARTESIAN_POINT('', (-2.5, -2.5, -40.));
#211 = CARTESIAN_POINT('', (2.5, 2.5, -40.));
#212 = CARTESIAN_POINT('', (-2.5, 2.5, -40.));
#213 = ADVANCED_FACE('', (#214), #233, .T.);
#214 = FACE_OUTER_BOUND('', #215, .T.);
#215 = EDGE_LOOP('', (#216, #224, #225, #226));
#216 = ORIENTED_EDGE('', *, *, #217, .F.);
#217 = EDGE_CURVE('', #201, #218, #220, .T.);
#218 = VERTEX_POINT('', #219);
#219 = CARTESIAN_POINT('', (-2.5, 3.06161699786838E-15, -47.5));
#220 = LINE('', #221, #222);
#221 = CARTESIAN_POINT('', (-2.5, 2.60237444818813E-15, -40.));
#222 = VECTOR('', #223, 7.5);
#223 = DIRECTION('', (0., 4.5924254968025E-16, -7.5));
#224 = ORIENTED_EDGE('', *, *, #200, .T.);
#225 = ORIENTED_EDGE('', *, *, #217, .T.);
#226 = ORIENTED_EDGE('', *, *, #227, .F.);
#227 = EDGE_CURVE('', #218, #218, #228, .T.);
#228 = CIRCLE('', #229, 2.5);
#229 = AXIS2_PLACEMENT_3D('', #230, #231, #232);
#230 = CARTESIAN_POINT('', (-6.17561557447743E-16, 7.7715611723761E-16, -47.5));
#231 = DIRECTION('', (-8.83943434839584E-30, -9.67343588956003E-15, -1.));
#232 = DIRECTION('', (-1., 9.13784352252308E-16, 0.));
#233 = (
   BOUNDED_SURFACE ()
   B_SPLINE_SURFACE (2, 1, ((#234, #235), (#236, #237), (#238, #239), (#240, #241), (#242, #243), (#244, #245), (#246, #247), (#248, #249), (#250, #251)), .UNSPECIFIED., .T., .F., .U.)
   B_SPLINE_SURFACE_WITH_KNOTS ((3, 2, 2, 2, 3), (2, 2), (0., 3.92699081698725, 7.8539816339745, 11.7809724509618, 15.707963267949), (0., 1.), .UNSPECIFIED.)
   GEOMETRIC_REPRESENTATION_ITEM ()
   RATIONAL_B_SPLINE_SURFACE (((1., 1.), (0.707106781186548, 0.707106781186548), (1., 1.), (0.707106781186548, 0.707106781186548), (1., 1.), (0.707106781186548, 0.707106781186548), (1., 1.), (0.707106781186548, 0.707106781186548), (1., 1.)))
   REPRESENTATION_ITEM ('')
   SURFACE ()
);
#234 = CARTESIAN_POINT('', (-2.5, 2.60237444818813E-15, -40.));
#235 = CARTESIAN_POINT('', (-2.5, 3.04646365803819E-15, -47.5));
#236 = CARTESIAN_POINT('', (-2.5, 2.5, -40.));
#237 = CARTESIAN_POINT('', (-2.5, 2.5, -47.5));
#238 = CARTESIAN_POINT('', (1.51948181517114E-15, 2.5, -40.));
#239 = CARTESIAN_POINT('', (1.51948181517114E-15, 2.5, -47.5));
#240 = CARTESIAN_POINT('', (2.5, 2.5, -40.));
#241 = CARTESIAN_POINT('', (2.5, 2.5, -47.5));
#242 = CARTESIAN_POINT('', (2.5, -1.6300789336262E-15, -40.));
#243 = CARTESIAN_POINT('', (2.5, -1.18598972377614E-15, -47.5));
#244 = CARTESIAN_POINT('', (2.5, -2.5, -40.));
#245 = CARTESIAN_POINT('', (2.5, -2.5, -47.5));
#246 = CARTESIAN_POINT('', (-2.40680986685635E-15, -2.5, -40.));
#247 = CARTESIAN_POINT('', (-2.40680986685635E-15, -2.5, -47.5));
#248 = CARTESIAN_POINT('', (-2.5, -2.5, -40.));
#249 = CARTESIAN_POINT('', (-2.5, -2.5, -47.5));
#250 = CARTESIAN_POINT('', (-2.5, 2.60237444818813E-15, -40.));
#251 = CARTESIAN_POINT('', (-2.5, 3.04646365803819E-15, -47.5));
#252 = ADVANCED_FACE('', (#253), #266, .T.);
#253 = FACE_OUTER_BOUND('', #254, .T.);
#254 = EDGE_LOOP('', (#255, #264, #265));
#255 = ORIENTED_EDGE('', *, *, #256, .F.);
#256 = EDGE_CURVE('', #218, #257, #259, .T.);
#257 = VERTEX_POINT('', #258);
#258 = CARTESIAN_POINT('', (9.0333175953032E-16, 3.06161699786838E-15, -50.));
#259 = CIRCLE('', #260, 2.49999999999998);
#260 = AXIS2_PLACEMENT_3D('', #261, #262, #263);
#261 = CARTESIAN_POINT('', (-2.48689957516035E-14, 2.90853614797496E-15, -47.5));
#262 = DIRECTION('', (-6.12323399573677E-17, -1., -6.12323399573681E-17));
#263 = DIRECTION('', (-1., 6.12323399573674E-17, 5.68434188608086E-15));
#264 = ORIENTED_EDGE('', *, *, #227, .T.);
#265 = ORIENTED_EDGE('', *, *, #256, .T.);
#266 = (
   BOUNDED_SURFACE ()
   B_SPLINE_SURFACE (2, 2, ((#267, #268, #269), (#270, #271, #272), (#273, #274, #275), (#276, #277, #278), (#279, #280, #281), (#282, #283, #284), (#285, #286, #287), (#288, #289, #290), (#291, #292, #293)), .UNSPECIFIED., .T., .F., .U.)
   B_SPLINE_SURFACE_WITH_KNOTS ((3, 2, 2, 2, 3), (3, 3), (0., 0.25, 0.5, 0.75, 1.), (0., 1.), .UNSPECIFIED.)
   GEOMETRIC_REPRESENTATION_ITEM ()
   RATIONAL_B_SPLINE_SURFACE (((1., 0.707106781186548, 1.), (0.707106781186548, 0.5, 0.707106781186548), (1., 0.707106781186548, 1.), (0.707106781186548, 0.5, 0.707106781186548), (1., 0.707106781186548, 1.), (0.707106781186548, 0.5, 0.707106781186548), (1., 0.707106781186548, 1.), (0.707106781186548, 0.5, 0.707106781186548), (1., 0.707106781186548, 1.)))
   REPRESENTATION_ITEM ('')
   SURFACE ()
);
#267 = CARTESIAN_POINT('', (-2.5, 3.06161699786838E-15, -47.5));
#268 = CARTESIAN_POINT('', (-2.5, 3.2146978477618E-15, -50.));
#269 = CARTESIAN_POINT('', (9.0333175953032E-16, 3.06161699786838E-15, -50.));
#270 = CARTESIAN_POINT('', (-2.5, 2.49999999999998, -47.5));
#271 = CARTESIAN_POINT('', (-2.5, 2.49999999999998, -50.));
#272 = CARTESIAN_POINT('', (9.0333175953032E-16, 3.06161699786838E-15, -50.));
#273 = CARTESIAN_POINT('', (-2.48689957516035E-14, 2.49999999999998, -47.5));
#274 = CARTESIAN_POINT('', (-2.47159149017101E-14, 2.49999999999998, -50.));
#275 = CARTESIAN_POINT('', (9.0333175953032E-16, 3.06161699786838E-15, -50.));
#276 = CARTESIAN_POINT('', (2.49999999999995, 2.49999999999998, -47.5));
#277 = CARTESIAN_POINT('', (2.49999999999995, 2.49999999999998, -50.));
#278 = CARTESIAN_POINT('', (9.0333175953032E-16, 3.06161699786838E-15, -50.));
#279 = CARTESIAN_POINT('', (2.49999999999995, 3.06161699786838E-15, -47.5));
#280 = CARTESIAN_POINT('', (2.49999999999995, 2.90853614797496E-15, -50.));
#281 = CARTESIAN_POINT('', (9.0333175953032E-16, 3.06161699786838E-15, -50.));
#282 = CARTESIAN_POINT('', (2.49999999999995, -2.49999999999997, -47.5));
#283 = CARTESIAN_POINT('', (2.49999999999995, -2.49999999999997, -50.));
#284 = CARTESIAN_POINT('', (9.0333175953032E-16, 3.06161699786838E-15, -50.));
#285 = CARTESIAN_POINT('', (-2.45628340518167E-14, -2.49999999999997, -47.5));
#286 = CARTESIAN_POINT('', (-2.47159149017101E-14, -2.49999999999997, -50.));
#287 = CARTESIAN_POINT('', (9.0333175953032E-16, 3.06161699786838E-15, -50.));
#288 = CARTESIAN_POINT('', (-2.5, -2.49999999999997, -47.5));
#289 = CARTESIAN_POINT('', (-2.5, -2.49999999999997, -50.));
#290 = CARTESIAN_POINT('', (9.0333175953032E-16, 3.06161699786838E-15, -50.));
#291 = CARTESIAN_POINT('', (-2.5, 3.06161699786838E-15, -47.5));
#292 = CARTESIAN_POINT('', (-2.5, 3.2146978477618E-15, -50.));
#293 = CARTESIAN_POINT('', (9.0333175953032E-16, 3.06161699786838E-15, -50.));
#294 = PRESENTATION_STYLE_ASSIGNMENT((#295));
#295 = SURFACE_STYLE_USAGE(.POSITIVE., #296);
#296 = SURFACE_SIDE_STYLE('', (#297));
#297 = SURFACE_STYLE_FILL_AREA(#298);
#298 = FILL_AREA_STYLE('', (#299));
#299 = FILL_AREA_STYLE_COLOUR('', #300);
#300 = COLOUR_RGB('', 0.8, 0.8, 0.8);
#301 = STYLED_ITEM('', (#294), #194);
#302 = TRIMMED_CURVE('cutting part line', #303, (#308), (#309), .T., .CARTESIAN.);
#303 = CIRCLE('', #304, 2.49999999999999);
#304 = AXIS2_PLACEMENT_3D('', #305, #306, #307);
#305 = CARTESIAN_POINT('', (-3.70814490224802E-14, 0., -47.5));
#306 = DIRECTION('', (0., -1., 0.));
#307 = DIRECTION('', (3.61932706027802E-15, 0., -1.));
#308 = CARTESIAN_POINT('', (-2.80331313717852E-14, 0., -50.));
#309 = CARTESIAN_POINT('', (2.49999999999995, 0., -47.5));
#310 = TRIMMED_CURVE('cutting part line', #311, (#315), (#316), .T., .CARTESIAN.);
#311 = LINE('', #312, #313);
#312 = CARTESIAN_POINT('', (2.5, 4.44021572912408E-16, -47.5));
#313 = VECTOR('', #314, 7.5);
#314 = DIRECTION('', (0., -4.44021572912408E-16, 7.5));
#315 = CARTESIAN_POINT('', (2.5, 4.44021572912408E-16, -47.5));
#316 = CARTESIAN_POINT('', (2.5, 0., -40.));
#317 = TRIMMED_CURVE('cutting part line', #318, (#322), (#323), .T., .CARTESIAN.);
#318 = LINE('', #319, #320);
#319 = CARTESIAN_POINT('', (2.5, 0., -40.));
#320 = VECTOR('', #321, 2.5);
#321 = DIRECTION('', (-2.5, 0., 0.));
#322 = CARTESIAN_POINT('', (2.5, 0., -40.));
#323 = CARTESIAN_POINT('', (6.93889390390723E-18, 0., -40.));
#324 = TRIMMED_CURVE('cutting part line', #325, (#329), (#330), .T., .CARTESIAN.);
#325 = LINE('', #326, #327);
#326 = CARTESIAN_POINT('', (0., 0., -40.));
#327 = VECTOR('', #328, 9.99999999999999);
#328 = DIRECTION('', (0., 0., -9.99999999999999));
#329 = CARTESIAN_POINT('', (0., 0., -40.));
#330 = CARTESIAN_POINT('', (0., 0., -50.));
#331 = COMPOSITE_CURVE('cutting part line', (#332, #333, #334, #335), .U.);
#332 = COMPOSITE_CURVE_SEGMENT(.CONTINUOUS., .T., #302);
#333 = COMPOSITE_CURVE_SEGMENT(.CONTINUOUS., .T., #310);
#334 = COMPOSITE_CURVE_SEGMENT(.CONTINUOUS., .T., #317);
#335 = COMPOSITE_CURVE_SEGMENT(.CONTINUOUS., .T., #324);
#336 = GEOMETRIC_SET('', (#331, #374));
#337 = PRESENTATION_STYLE_ASSIGNMENT((#338));
#338 = CURVE_STYLE('', #340, POSITIVE_LENGTH_MEASURE(1.E-6), #339);
#339 = COLOUR_RGB('', 0., 0., 1.);
#340 = DRAUGHTING_PRE_DEFINED_CURVE_FONT('continuous');
#341 = STYLED_ITEM('', (#337), #331);
#342 = PRESENTATION_STYLE_ASSIGNMENT((#343));
#343 = CURVE_STYLE('', #345, POSITIVE_LENGTH_MEASURE(1.E-6), #344);
#344 = COLOUR_RGB('', 0., 0., 1.);
#345 = DRAUGHTING_PRE_DEFINED_CURVE_FONT('continuous');
#346 = OVER_RIDING_STYLED_ITEM('', (#342), #302, #341);
#347 = PRESENTATION_STYLE_ASSIGNMENT((#348));
#348 = CURVE_STYLE('', #350, POSITIVE_LENGTH_MEASURE(1.E-6), #349);
#349 = COLOUR_RGB('', 0., 0., 1.);
#350 = DRAUGHTING_PRE_DEFINED_CURVE_FONT('continuous');
#351 = OVER_RIDING_STYLED_ITEM('', (#347), #310, #341);
#352 = PRESENTATION_STYLE_ASSIGNMENT((#353));
#353 = CURVE_STYLE('', #355, POSITIVE_LENGTH_MEASURE(1.E-6), #354);
#354 = COLOUR_RGB('', 0., 0., 1.);
#355 = DRAUGHTING_PRE_DEFINED_CURVE_FONT('continuous');
#356 = OVER_RIDING_STYLED_ITEM('', (#352), #317, #341);
#357 = PRESENTATION_STYLE_ASSIGNMENT((#358));
#358 = CURVE_STYLE('', #360, POSITIVE_LENGTH_MEASURE(1.E-6), #359);
#359 = COLOUR_RGB('', 0., 0., 1.);
#360 = DRAUGHTING_PRE_DEFINED_CURVE_FONT('continuous');
#361 = OVER_RIDING_STYLED_ITEM('', (#357), #324, #341);
#362 = AXIS2_PLACEMENT_3D('MCS', #363, #364, #365);
#363 = CARTESIAN_POINT('', (0., 0., -28.));
#364 = DIRECTION('', (0., 0., 1.));
#365 = DIRECTION('', (1., 0., 0.));
#366 = AXIS2_PLACEMENT_3D('PCS', #367, #368, #369);
#367 = CARTESIAN_POINT('', (0., 0., 0.));
#368 = DIRECTION('', (0., 0., 1.));
#369 = DIRECTION('', (1., 0., 0.));
#370 = AXIS2_PLACEMENT_3D('CIP', #371, #372, #373);
#371 = CARTESIAN_POINT('', (0., 0., -50.));
#372 = DIRECTION('', (0., 0., 1.));
#373 = DIRECTION('', (1., 0., 0.));
#374 = CARTESIAN_POINT('CRP', (2.5, 0., -50.));
#375 = (
   GEOMETRIC_REPRESENTATION_CONTEXT (3)
   GLOBAL_UNCERTAINTY_ASSIGNED_CONTEXT ((#377))
   GLOBAL_UNIT_ASSIGNED_CONTEXT ((#376, #378, #379))
   REPRESENTATION_CONTEXT ('', '3D')
);
#376 = (
   LENGTH_UNIT ()
   NAMED_UNIT (*)
   SI_UNIT (.MILLI., .METRE.)
);
#377 = UNCERTAINTY_MEASURE_WITH_UNIT(LENGTH_MEASURE(1.E-6), #376, 'DISTANCE_ACCURACY_VALUE', '');
#378 = (
   NAMED_UNIT (*)
   SI_UNIT ($, .STERADIAN.)
   SOLID_ANGLE_UNIT ()
);
#379 = (
   NAMED_UNIT (*)
   PLANE_ANGLE_UNIT ()
   SI_UNIT ($, .RADIAN.)
);
#380 = SHAPE_REPRESENTATION('', (), #375);
#381 = PRODUCT_DEFINITION_SHAPE('', '', #382);
#382 = PRODUCT_DEFINITION('', '', #385, #389);
#383 = APPLICATION_CONTEXT('configuration controlled 3D designs of mechanical parts and assemblies');
#384 = APPLICATION_PROTOCOL_DEFINITION('International Standard', 'automotive_design', 2002, #383);
#385 = PRODUCT_DEFINITION_FORMATION_WITH_SPECIFIED_SOURCE('', '', #386, .NOT_KNOWN.);
#386 = PRODUCT('product-name', '2B330-0500-NC       H10F', '', (#387));
#387 = PRODUCT_CONTEXT('', #383, 'mechanical');
#388 = PRODUCT_RELATED_PRODUCT_CATEGORY('detail', '', (#386));
#389 = PRODUCT_DEFINITION_CONTEXT('part definition', #383, 'design');
#390 = SHAPE_DEFINITION_REPRESENTATION(#381, #380);
#391 = CONSTRUCTIVE_GEOMETRY_REPRESENTATION('supplemental geometry', (#362, #366, #370), #375);
#392 = CONSTRUCTIVE_GEOMETRY_REPRESENTATION_RELATIONSHIP('', '', #380, #391);
#393 = SHAPE_REPRESENTATION_RELATIONSHIP('', '', #380, #394);
#394 = SHAPE_REPRESENTATION('', (#336), #375);
#395 = SHAPE_REPRESENTATION_RELATIONSHIP('', '', #380, #396);
#396 = ADVANCED_BREP_SHAPE_REPRESENTATION('', (#1, #194), #375);
ENDSEC;
END-ISO-10303-21;
