ISO-10303-21;
HEADER;
FILE_DESCRIPTION(('STEP'), '1');
FILE_NAME('C:\\Users\\ds2002\\OneDrive - Sandvik\\HomeShare\\Documents\\Batchrepair\\CorSRT2\\NEW_MILBN_SLD\\Output2\\MOD000000000000000020082298800000.stp', '2018-11-23T12:39:00', (''), (''), 'Express v3.0.0.0', 'Express Tool', 'Unknown');
FILE_SCHEMA(('AUTOMOTIVE_DESIGN'));
ENDSEC;

DATA;
#1 = MANIFOLD_SOLID_BREP('NOCUT', #2);
#2 = CLOSED_SHELL('', (#3, #31, #70, #109, #148, #157, #196));
#3 = ADVANCED_FACE('', (#4, #15), #26, .T.);
#4 = FACE_OUTER_BOUND('', #5, .T.);
#5 = EDGE_LOOP('', (#6));
#6 = ORIENTED_EDGE('', *, *, #7, .F.);
#7 = EDGE_CURVE('', #8, #8, #10, .T.);
#8 = VERTEX_POINT('', #9);
#9 = CARTESIAN_POINT('', (-3., 5.69460761603519E-15, -90.));
#10 = CIRCLE('', #11, 3.);
#11 = AXIS2_PLACEMENT_3D('', #12, #13, #14);
#12 = CARTESIAN_POINT('', (-3.05311331771918E-16, 7.82707232360735E-15, -90.));
#13 = DIRECTION('', (0., 0., -1.));
#14 = DIRECTION('', (-1., -7.10821569190721E-16, 0.));
#15 = FACE_BOUND('', #16, .T.);
#16 = EDGE_LOOP('', (#17));
#17 = ORIENTED_EDGE('', *, *, #18, .T.);
#18 = EDGE_CURVE('', #19, #19, #21, .T.);
#19 = VERTEX_POINT('', #20);
#20 = CARTESIAN_POINT('', (-2.9, 5.68848438203946E-15, -90.));
#21 = CIRCLE('', #22, 2.9);
#22 = AXIS2_PLACEMENT_3D('', #23, #24, #25);
#23 = CARTESIAN_POINT('', (2.4980018054066E-16, 3.33066907387547E-15, -90.));
#24 = DIRECTION('', (1.35601517377806E-29, 1.66783377406203E-14, -1.));
#25 = DIRECTION('', (-1., 8.13039761435859E-16, 0.));
#26 = B_SPLINE_SURFACE_WITH_KNOTS('', 1, 1, ((#27, #28), (#29, #30)), .UNSPECIFIED., .F., .F., .U., (2, 2), (2, 2), (0.0454545454545454, 0.954545454545455), (0.0454545454545455, 0.954545454545455), .UNSPECIFIED.);
#27 = CARTESIAN_POINT('', (3., -3., -90.));
#28 = CARTESIAN_POINT('', (-3., -3., -90.));
#29 = CARTESIAN_POINT('', (3., 3.00000000000001, -90.));
#30 = CARTESIAN_POINT('', (-3., 3.00000000000001, -90.));
#31 = ADVANCED_FACE('', (#32), #51, .T.);
#32 = FACE_OUTER_BOUND('', #33, .T.);
#33 = EDGE_LOOP('', (#34, #42, #49, #50));
#34 = ORIENTED_EDGE('', *, *, #35, .F.);
#35 = EDGE_CURVE('', #36, #19, #38, .T.);
#36 = VERTEX_POINT('', #37);
#37 = CARTESIAN_POINT('', (-2.9, 2.3819380243416E-15, -36.));
#38 = LINE('', #39, #40);
#39 = CARTESIAN_POINT('', (-2.9, 2.3819380243416E-15, -36.));
#40 = VECTOR('', #41, 54.);
#41 = DIRECTION('', (0., 3.30654635769786E-15, -54.));
#42 = ORIENTED_EDGE('', *, *, #43, .T.);
#43 = EDGE_CURVE('', #36, #36, #44, .T.);
#44 = CIRCLE('', #45, 2.9);
#45 = AXIS2_PLACEMENT_3D('', #46, #47, #48);
#46 = CARTESIAN_POINT('', (-5.27355936696949E-16, -5.55111512312578E-17, -36.));
#47 = DIRECTION('', (0., 0., -1.));
#48 = DIRECTION('', (-1., 8.40499715714779E-16, 0.));
#49 = ORIENTED_EDGE('', *, *, #35, .T.);
#50 = ORIENTED_EDGE('', *, *, #18, .F.);
#51 = (
   BOUNDED_SURFACE ()
   B_SPLINE_SURFACE (2, 1, ((#52, #53), (#54, #55), (#56, #57), (#58, #59), (#60, #61), (#62, #63), (#64, #65), (#66, #67), (#68, #69)), .UNSPECIFIED., .T., .F., .U.)
   B_SPLINE_SURFACE_WITH_KNOTS ((3, 2, 2, 2, 3), (2, 2), (0., 4.5553093477052, 9.1106186954104, 13.6659280431156, 18.2212373908208), (0., 1.), .UNSPECIFIED.)
   GEOMETRIC_REPRESENTATION_ITEM ()
   RATIONAL_B_SPLINE_SURFACE (((1., 1.), (0.707106781186548, 0.707106781186548), (1., 1.), (0.707106781186548, 0.707106781186548), (1., 1.), (0.707106781186548, 0.707106781186548), (1., 1.), (0.707106781186548, 0.707106781186548), (1., 1.)))
   REPRESENTATION_ITEM ('')
   SURFACE ()
);
#52 = CARTESIAN_POINT('', (-2.9, 2.3819380243416E-15, -36.));
#53 = CARTESIAN_POINT('', (-2.9, 4.10278371251059E-15, -90.));
#54 = CARTESIAN_POINT('', (-2.9, 2.9, -36.));
#55 = CARTESIAN_POINT('', (-2.9, 2.9, -90.));
#56 = CARTESIAN_POINT('', (-1.27104113247595E-16, 2.9, -36.));
#57 = CARTESIAN_POINT('', (-1.27104113247595E-16, 2.9, -90.));
#58 = CARTESIAN_POINT('', (2.9, 2.9, -36.));
#59 = CARTESIAN_POINT('', (2.9, 2.9, -90.));
#60 = CARTESIAN_POINT('', (2.9, 1.19285631882409E-15, -36.));
#61 = CARTESIAN_POINT('', (2.9, 2.91370200699308E-15, -90.));
#62 = CARTESIAN_POINT('', (2.9, -2.9, -36.));
#63 = CARTESIAN_POINT('', (2.9, -2.9, -90.));
#64 = CARTESIAN_POINT('', (-9.61038247012376E-16, -2.9, -36.));
#65 = CARTESIAN_POINT('', (-9.61038247012375E-16, -2.9, -90.));
#66 = CARTESIAN_POINT('', (-2.9, -2.9, -36.));
#67 = CARTESIAN_POINT('', (-2.9, -2.9, -90.));
#68 = CARTESIAN_POINT('', (-2.9, 2.3819380243416E-15, -36.));
#69 = CARTESIAN_POINT('', (-2.9, 4.10278371251059E-15, -90.));
#70 = ADVANCED_FACE('', (#71), #90, .T.);
#71 = FACE_OUTER_BOUND('', #72, .T.);
#72 = EDGE_LOOP('', (#73, #81, #88, #89));
#73 = ORIENTED_EDGE('', *, *, #74, .T.);
#74 = EDGE_CURVE('', #36, #75, #77, .T.);
#75 = VERTEX_POINT('', #76);
#76 = CARTESIAN_POINT('', (-2.9, 1.95331164464003E-16, -0.289999999999999));
#77 = LINE('', #78, #79);
#78 = CARTESIAN_POINT('', (-2.9, 2.3819380243416E-15, -36.));
#79 = VECTOR('', #80, 35.71);
#80 = DIRECTION('', (0., -2.1866068598776E-15, 35.71));
#81 = ORIENTED_EDGE('', *, *, #82, .T.);
#82 = EDGE_CURVE('', #75, #75, #83, .T.);
#83 = CIRCLE('', #84, 2.9);
#84 = AXIS2_PLACEMENT_3D('', #85, #86, #87);
#85 = CARTESIAN_POINT('', (-8.60422844084496E-16, 8.32667268468867E-16, -0.289999999999999));
#86 = DIRECTION('', (-1.43180317845964E-32, 6.51497567992987E-17, -1.));
#87 = DIRECTION('', (-1., -2.19771070346505E-16, 0.));
#88 = ORIENTED_EDGE('', *, *, #74, .F.);
#89 = ORIENTED_EDGE('', *, *, #43, .F.);
#90 = (
   BOUNDED_SURFACE ()
   B_SPLINE_SURFACE (1, 2, ((#91, #92, #93, #94, #95, #96, #97, #98, #99), (#100, #101, #102, #103, #104, #105, #106, #107, #108)), .UNSPECIFIED., .F., .T., .U.)
   B_SPLINE_SURFACE_WITH_KNOTS ((2, 2), (3, 2, 2, 2, 3), (0., 1.), (0., 4.5553093477052, 9.11061869541041, 13.6659280431156, 18.2212373908208), .UNSPECIFIED.)
   GEOMETRIC_REPRESENTATION_ITEM ()
   RATIONAL_B_SPLINE_SURFACE (((1., 0.707106781186548, 1., 0.707106781186548, 1., 0.707106781186548, 1., 0.707106781186548, 1.), (1., 0.707106781186548, 1., 0.707106781186548, 1., 0.707106781186548, 1., 0.707106781186548, 1.)))
   REPRESENTATION_ITEM ('')
   SURFACE ()
);
#91 = CARTESIAN_POINT('', (-2.9, 9.72487281701612E-16, -36.));
#92 = CARTESIAN_POINT('', (-2.9, 2.9, -36.));
#93 = CARTESIAN_POINT('', (-1.67533273396573E-15, 2.9, -36.));
#94 = CARTESIAN_POINT('', (2.9, 2.9, -36.));
#95 = CARTESIAN_POINT('', (2.9, 2.60230706146407E-15, -36.));
#96 = CARTESIAN_POINT('', (2.9, -2.9, -36.));
#97 = CARTESIAN_POINT('', (3.09634617549467E-16, -2.9, -36.));
#98 = CARTESIAN_POINT('', (-2.9, -2.9, -36.));
#99 = CARTESIAN_POINT('', (-2.9, 9.72487281701612E-16, -36.));
#100 = CARTESIAN_POINT('', (-2.9, 1.95331164464003E-16, -0.289999999999999));
#101 = CARTESIAN_POINT('', (-2.9, 2.9, -0.289999999999999));
#102 = CARTESIAN_POINT('', (-1.67533273396573E-15, 2.9, -0.289999999999999));
#103 = CARTESIAN_POINT('', (2.9, 2.9, -0.289999999999999));
#104 = CARTESIAN_POINT('', (2.9, 1.82515094422646E-15, -0.289999999999999));
#105 = CARTESIAN_POINT('', (2.9, -2.9, -0.289999999999999));
#106 = CARTESIAN_POINT('', (3.09634617549467E-16, -2.9, -0.289999999999999));
#107 = CARTESIAN_POINT('', (-2.9, -2.9, -0.289999999999999));
#108 = CARTESIAN_POINT('', (-2.9, 1.95331164464003E-16, -0.289999999999999));
#109 = ADVANCED_FACE('', (#110), #129, .T.);
#110 = FACE_OUTER_BOUND('', #111, .T.);
#111 = EDGE_LOOP('', (#112, #120, #127, #128));
#112 = ORIENTED_EDGE('', *, *, #113, .T.);
#113 = EDGE_CURVE('', #75, #114, #116, .T.);
#114 = VERTEX_POINT('', #115);
#115 = CARTESIAN_POINT('', (-2.61, 1.5981640728873E-16, 0.));
#116 = LINE('', #117, #118);
#117 = CARTESIAN_POINT('', (-2.9, 1.95331164464003E-16, -0.289999999999999));
#118 = VECTOR('', #119, 0.410121933088197);
#119 = DIRECTION('', (0.29, -3.5514757175274E-17, 0.289999999999999));
#120 = ORIENTED_EDGE('', *, *, #121, .T.);
#121 = EDGE_CURVE('', #114, #114, #122, .T.);
#122 = CIRCLE('', #123, 2.61);
#123 = AXIS2_PLACEMENT_3D('', #124, #125, #126);
#124 = CARTESIAN_POINT('', (3.53883589099269E-16, -1.77635683940025E-15, -1.10933564796705E-31));
#125 = DIRECTION('', (2.92063358655762E-33, 6.12323399573678E-17, -1.));
#126 = DIRECTION('', (-1., 7.41828830149034E-16, 4.25032815313045E-32));
#127 = ORIENTED_EDGE('', *, *, #113, .F.);
#128 = ORIENTED_EDGE('', *, *, #82, .F.);
#129 = (
   BOUNDED_SURFACE ()
   B_SPLINE_SURFACE (1, 2, ((#130, #131, #132, #133, #134, #135, #136, #137, #138), (#139, #140, #141, #142, #143, #144, #145, #146, #147)), .UNSPECIFIED., .F., .T., .U.)
   B_SPLINE_SURFACE_WITH_KNOTS ((2, 2), (3, 2, 2, 2, 3), (0., 1.), (0., 0.25, 0.5, 0.75, 1.), .UNSPECIFIED.)
   GEOMETRIC_REPRESENTATION_ITEM ()
   RATIONAL_B_SPLINE_SURFACE (((1., 0.707106781186548, 1., 0.707106781186548, 1., 0.707106781186548, 1., 0.707106781186548, 1.), (1., 0.707106781186548, 1., 0.707106781186548, 1., 0.707106781186548, 1., 0.707106781186548, 1.)))
   REPRESENTATION_ITEM ('')
   SURFACE ()
);
#130 = CARTESIAN_POINT('', (-2.9, 2.70641511974478E-15, -0.289999999999999));
#131 = CARTESIAN_POINT('', (-2.9, 2.9, -0.289999999999976));
#132 = CARTESIAN_POINT('', (2.3276134106551E-15, 2.9, -0.289999999999976));
#133 = CARTESIAN_POINT('', (2.9, 2.9, -0.289999999999976));
#134 = CARTESIAN_POINT('', (2.9, -1.24104452336689E-15, -0.289999999999999));
#135 = CARTESIAN_POINT('', (2.9, -2.9, -0.290000000000022));
#136 = CARTESIAN_POINT('', (-1.26469866070383E-15, -2.9, -0.290000000000022));
#137 = CARTESIAN_POINT('', (-2.9, -2.9, -0.290000000000022));
#138 = CARTESIAN_POINT('', (-2.9, 2.70641511974478E-15, -0.289999999999999));
#139 = CARTESIAN_POINT('', (-2.61, 1.59816407288729E-16, -2.18952885050753E-47));
#140 = CARTESIAN_POINT('', (-2.61, 2.61, 2.09832151654155E-14));
#141 = CARTESIAN_POINT('', (2.13024042849952E-15, 2.61, 2.09832151654155E-14));
#142 = CARTESIAN_POINT('', (2.61, 2.61, 2.09832151654155E-14));
#143 = CARTESIAN_POINT('', (2.61, -3.39289727151177E-15, 2.34783559922122E-30));
#144 = CARTESIAN_POINT('', (2.61, -2.61, -2.09832151654155E-14));
#145 = CARTESIAN_POINT('', (-1.10284043572352E-15, -2.61, -2.09832151654155E-14));
#146 = CARTESIAN_POINT('', (-2.61, -2.61, -2.09832151654155E-14));
#147 = CARTESIAN_POINT('', (-2.61, 1.59816407288729E-16, -2.18952885050753E-47));
#148 = ADVANCED_FACE('', (#149), #152, .T.);
#149 = FACE_OUTER_BOUND('', #150, .T.);
#150 = EDGE_LOOP('', (#151));
#151 = ORIENTED_EDGE('', *, *, #121, .F.);
#152 = B_SPLINE_SURFACE_WITH_KNOTS('', 1, 1, ((#153, #154), (#155, #156)), .UNSPECIFIED., .F., .F., .U., (2, 2), (2, 2), (0.0454545454545454, 0.954545454545454), (0.0454545454545454, 0.954545454545454), .UNSPECIFIED.);
#153 = CARTESIAN_POINT('', (2.61, -2.61, -1.5981640728873E-16));
#154 = CARTESIAN_POINT('', (-2.61, -2.61, -1.5981640728873E-16));
#155 = CARTESIAN_POINT('', (2.61, 2.61, 1.5981640728873E-16));
#156 = CARTESIAN_POINT('', (-2.61, 2.61, 1.5981640728873E-16));
#157 = ADVANCED_FACE('', (#158), #177, .T.);
#158 = FACE_OUTER_BOUND('', #159, .T.);
#159 = EDGE_LOOP('', (#160, #169, #175, #176));
#160 = ORIENTED_EDGE('', *, *, #161, .F.);
#161 = EDGE_CURVE('', #162, #162, #164, .T.);
#162 = VERTEX_POINT('', #163);
#163 = CARTESIAN_POINT('', (-3., 5.75583995599256E-15, -91.));
#164 = CIRCLE('', #165, 3.);
#165 = AXIS2_PLACEMENT_3D('', #166, #167, #168);
#166 = CARTESIAN_POINT('', (1.13797860024079E-15, 3.77475828372553E-15, -91.));
#167 = DIRECTION('', (0., 0., -1.));
#168 = DIRECTION('', (-1., 6.60360557422342E-16, 0.));
#169 = ORIENTED_EDGE('', *, *, #170, .F.);
#170 = EDGE_CURVE('', #8, #162, #171, .T.);
#171 = LINE('', #172, #173);
#172 = CARTESIAN_POINT('', (-3., 5.69460761603519E-15, -90.));
#173 = VECTOR('', #174, 1.);
#174 = DIRECTION('', (0., 6.12323399573699E-17, -1.));
#175 = ORIENTED_EDGE('', *, *, #7, .T.);
#176 = ORIENTED_EDGE('', *, *, #170, .T.);
#177 = (
   BOUNDED_SURFACE ()
   B_SPLINE_SURFACE (2, 1, ((#178, #179), (#180, #181), (#182, #183), (#184, #185), (#186, #187), (#188, #189), (#190, #191), (#192, #193), (#194, #195)), .UNSPECIFIED., .T., .F., .U.)
   B_SPLINE_SURFACE_WITH_KNOTS ((3, 2, 2, 2, 3), (2, 2), (0., 4.7123889803847, 9.4247779607694, 14.1371669411541, 18.8495559215388), (0., 0.142857142857143), .UNSPECIFIED.)
   GEOMETRIC_REPRESENTATION_ITEM ()
   RATIONAL_B_SPLINE_SURFACE (((1., 1.), (0.707106781186548, 0.707106781186548), (1., 1.), (0.707106781186548, 0.707106781186548), (1., 1.), (0.707106781186548, 0.707106781186548), (1., 1.), (0.707106781186548, 0.707106781186548), (1., 1.)))
   REPRESENTATION_ITEM ('')
   SURFACE ()
);
#178 = CARTESIAN_POINT('', (-3., 5.69460761603519E-15, -90.));
#179 = CARTESIAN_POINT('', (-3., 2.64149429831601E-15, -91.));
#180 = CARTESIAN_POINT('', (-3., 3.00000000000001, -90.));
#181 = CARTESIAN_POINT('', (-3., 3., -91.));
#182 = CARTESIAN_POINT('', (-1.59451676143792E-15, 3.00000000000001, -90.));
#183 = CARTESIAN_POINT('', (-1.59451676143791E-15, 3., -91.));
#184 = CARTESIAN_POINT('', (3., 3.00000000000001, -90.));
#185 = CARTESIAN_POINT('', (3., 3.00000000000001, -91.));
#186 = CARTESIAN_POINT('', (3., 9.88284186107366E-15, -90.));
#187 = CARTESIAN_POINT('', (3., 6.82972854335448E-15, -91.));
#188 = CARTESIAN_POINT('', (3., -2.99999999999999, -90.));
#189 = CARTESIAN_POINT('', (3., -2.99999999999999, -91.));
#190 = CARTESIAN_POINT('', (2.96111152334476E-15, -2.99999999999999, -90.));
#191 = CARTESIAN_POINT('', (2.96111152334476E-15, -3., -91.));
#192 = CARTESIAN_POINT('', (-3., -3., -90.));
#193 = CARTESIAN_POINT('', (-3., -3., -91.));
#194 = CARTESIAN_POINT('', (-3., 5.69460761603519E-15, -90.));
#195 = CARTESIAN_POINT('', (-3., 2.64149429831601E-15, -91.));
#196 = ADVANCED_FACE('', (#197), #200, .T.);
#197 = FACE_OUTER_BOUND('', #198, .T.);
#198 = EDGE_LOOP('', (#199));
#199 = ORIENTED_EDGE('', *, *, #161, .T.);
#200 = B_SPLINE_SURFACE_WITH_KNOTS('', 1, 1, ((#201, #202), (#203, #204)), .UNSPECIFIED., .F., .F., .U., (2, 2), (2, 2), (0.497309675870333, 0.527202254560211), (0.472797745439789, 0.502690324129667), .UNSPECIFIED.);
#201 = CARTESIAN_POINT('', (-3.00000000000001, 3.00000000000006, -91.));
#202 = CARTESIAN_POINT('', (-3.00000000000001, -2.99999999999996, -91.));
#203 = CARTESIAN_POINT('', (2.99999999999999, 3.00000000000006, -91.));
#204 = CARTESIAN_POINT('', (2.99999999999999, -2.99999999999996, -91.));
#205 = DRAUGHTING_MODEL('', (#213, #321, #361, #366, #371, #376, #381), #395);
#206 = PRESENTATION_STYLE_ASSIGNMENT((#207));
#207 = SURFACE_STYLE_USAGE(.POSITIVE., #208);
#208 = SURFACE_SIDE_STYLE('', (#209));
#209 = SURFACE_STYLE_FILL_AREA(#210);
#210 = FILL_AREA_STYLE('', (#211));
#211 = FILL_AREA_STYLE_COLOUR('', #212);
#212 = COLOUR_RGB('', 0.50196078431373, 0.50196078431373, 0.50196078431373);
#213 = STYLED_ITEM('', (#206), #1);
#214 = MANIFOLD_SOLID_BREP('CUT', #215);
#215 = CLOSED_SHELL('', (#216, #233, #272));
#216 = ADVANCED_FACE('', (#217), #228, .T.);
#217 = FACE_OUTER_BOUND('', #218, .T.);
#218 = EDGE_LOOP('', (#219));
#219 = ORIENTED_EDGE('', *, *, #220, .F.);
#220 = EDGE_CURVE('', #221, #221, #223, .T.);
#221 = VERTEX_POINT('', #222);
#222 = CARTESIAN_POINT('', (-3., 5.75583995599256E-15, -91.));
#223 = CIRCLE('', #224, 3.);
#224 = AXIS2_PLACEMENT_3D('', #225, #226, #227);
#225 = CARTESIAN_POINT('', (1.13797860024079E-15, 3.77475828372553E-15, -91.));
#226 = DIRECTION('', (0., 0., -1.));
#227 = DIRECTION('', (-1., 6.60360557422342E-16, 0.));
#228 = B_SPLINE_SURFACE_WITH_KNOTS('', 1, 1, ((#229, #230), (#231, #232)), .UNSPECIFIED., .F., .F., .U., (2, 2), (2, 2), (0.472797745439789, 0.502690324129667), (0.497309675870333, 0.527202254560211), .UNSPECIFIED.);
#229 = CARTESIAN_POINT('', (-3., 3.00000000000001, -91.));
#230 = CARTESIAN_POINT('', (3., 3.00000000000001, -91.));
#231 = CARTESIAN_POINT('', (-3., -2.99999999999999, -91.));
#232 = CARTESIAN_POINT('', (3., -2.99999999999999, -91.));
#233 = ADVANCED_FACE('', (#234), #253, .T.);
#234 = FACE_OUTER_BOUND('', #235, .T.);
#235 = EDGE_LOOP('', (#236, #237, #245, #252));
#236 = ORIENTED_EDGE('', *, *, #220, .T.);
#237 = ORIENTED_EDGE('', *, *, #238, .T.);
#238 = EDGE_CURVE('', #221, #239, #241, .T.);
#239 = VERTEX_POINT('', #240);
#240 = CARTESIAN_POINT('', (-3., 6.12323399573677E-15, -97.));
#241 = LINE('', #242, #243);
#242 = CARTESIAN_POINT('', (-3., 5.75583995599256E-15, -91.));
#243 = VECTOR('', #244, 6.);
#244 = DIRECTION('', (0., 3.6739403974421E-16, -6.));
#245 = ORIENTED_EDGE('', *, *, #246, .F.);
#246 = EDGE_CURVE('', #239, #239, #247, .T.);
#247 = CIRCLE('', #248, 3.);
#248 = AXIS2_PLACEMENT_3D('', #249, #250, #251);
#249 = CARTESIAN_POINT('', (9.29811783123569E-16, 4.88498130835069E-15, -97.));
#250 = DIRECTION('', (0., 0., -1.));
#251 = DIRECTION('', (-1., 4.1275089579536E-16, 0.));
#252 = ORIENTED_EDGE('', *, *, #238, .F.);
#253 = (
   BOUNDED_SURFACE ()
   B_SPLINE_SURFACE (2, 1, ((#254, #255), (#256, #257), (#258, #259), (#260, #261), (#262, #263), (#264, #265), (#266, #267), (#268, #269), (#270, #271)), .UNSPECIFIED., .T., .F., .U.)
   B_SPLINE_SURFACE_WITH_KNOTS ((3, 2, 2, 2, 3), (2, 2), (0., 4.7123889803847, 9.4247779607694, 14.1371669411541, 18.8495559215388), (0.142857142857143, 1.), .UNSPECIFIED.)
   GEOMETRIC_REPRESENTATION_ITEM ()
   RATIONAL_B_SPLINE_SURFACE (((1., 1.), (0.707106781186548, 0.707106781186548), (1., 1.), (0.707106781186548, 0.707106781186548), (1., 1.), (0.707106781186548, 0.707106781186548), (1., 1.), (0.707106781186548, 0.707106781186548), (1., 1.)))
   REPRESENTATION_ITEM ('')
   SURFACE ()
);
#254 = CARTESIAN_POINT('', (-3., 5.75583995599256E-15, -91.));
#255 = CARTESIAN_POINT('', (-3., 6.08890686338011E-15, -97.));
#256 = CARTESIAN_POINT('', (-3., 3.00000000000001, -91.));
#257 = CARTESIAN_POINT('', (-3., 3.00000000000001, -97.));
#258 = CARTESIAN_POINT('', (1.95004031828088E-15, 3., -91.));
#259 = CARTESIAN_POINT('', (1.95004031828088E-15, 3., -97.));
#260 = CARTESIAN_POINT('', (3., 3., -91.));
#261 = CARTESIAN_POINT('', (3., 3., -97.));
#262 = CARTESIAN_POINT('', (3., 3.71538288567793E-15, -91.));
#263 = CARTESIAN_POINT('', (3., 4.04844979306548E-15, -97.));
#264 = CARTESIAN_POINT('', (3., -3., -91.));
#265 = CARTESIAN_POINT('', (3., -3., -97.));
#266 = CARTESIAN_POINT('', (2.7697728771046E-16, -3., -91.));
#267 = CARTESIAN_POINT('', (2.7697728771046E-16, -3., -97.));
#268 = CARTESIAN_POINT('', (-3., -3., -91.));
#269 = CARTESIAN_POINT('', (-3., -2.99999999999999, -97.));
#270 = CARTESIAN_POINT('', (-3., 5.75583995599256E-15, -91.));
#271 = CARTESIAN_POINT('', (-3., 6.08890686338011E-15, -97.));
#272 = ADVANCED_FACE('', (#273), #286, .T.);
#273 = FACE_OUTER_BOUND('', #274, .T.);
#274 = EDGE_LOOP('', (#275, #284, #285));
#275 = ORIENTED_EDGE('', *, *, #276, .F.);
#276 = EDGE_CURVE('', #239, #277, #279, .T.);
#277 = VERTEX_POINT('', #278);
#278 = CARTESIAN_POINT('', (5.51091059616309E-16, 6.12323399573677E-15, -100.));
#279 = CIRCLE('', #280, 2.99999999999999);
#280 = AXIS2_PLACEMENT_3D('', #281, #282, #283);
#281 = CARTESIAN_POINT('', (-1.68753899743024E-14, 5.93953697586467E-15, -97.));
#282 = DIRECTION('', (-6.12323399573679E-17, -1., -6.12323399573677E-17));
#283 = DIRECTION('', (-1., 6.12323399573679E-17, 0.));
#284 = ORIENTED_EDGE('', *, *, #246, .T.);
#285 = ORIENTED_EDGE('', *, *, #276, .T.);
#286 = (
   BOUNDED_SURFACE ()
   B_SPLINE_SURFACE (2, 2, ((#287, #288, #289), (#290, #291, #292), (#293, #294, #295), (#296, #297, #298), (#299, #300, #301), (#302, #303, #304), (#305, #306, #307), (#308, #309, #310), (#311, #312, #313)), .UNSPECIFIED., .T., .F., .U.)
   B_SPLINE_SURFACE_WITH_KNOTS ((3, 2, 2, 2, 3), (3, 3), (0., 0.25, 0.5, 0.75, 1.), (0., 1.), .UNSPECIFIED.)
   GEOMETRIC_REPRESENTATION_ITEM ()
   RATIONAL_B_SPLINE_SURFACE (((1., 0.707106781186548, 1.), (0.707106781186548, 0.5, 0.707106781186548), (1., 0.707106781186548, 1.), (0.707106781186548, 0.5, 0.707106781186548), (1., 0.707106781186548, 1.), (0.707106781186548, 0.5, 0.707106781186548), (1., 0.707106781186548, 1.), (0.707106781186548, 0.5, 0.707106781186548), (1., 0.707106781186548, 1.)))
   REPRESENTATION_ITEM ('')
   SURFACE ()
);
#287 = CARTESIAN_POINT('', (-3., 6.12323399573677E-15, -97.));
#288 = CARTESIAN_POINT('', (-3., 6.30693101560887E-15, -100.));
#289 = CARTESIAN_POINT('', (5.51091059616309E-16, 6.12323399573677E-15, -100.));
#290 = CARTESIAN_POINT('', (-3., 2.99999999999999, -97.));
#291 = CARTESIAN_POINT('', (-3., 2.99999999999999, -100.));
#292 = CARTESIAN_POINT('', (5.51091059616309E-16, 6.12323399573677E-15, -100.));
#293 = CARTESIAN_POINT('', (-1.68753899743024E-14, 2.99999999999999, -97.));
#294 = CARTESIAN_POINT('', (-1.66916929544303E-14, 2.99999999999999, -100.));
#295 = CARTESIAN_POINT('', (5.51091059616309E-16, 6.12323399573677E-15, -100.));
#296 = CARTESIAN_POINT('', (2.99999999999997, 2.99999999999999, -97.));
#297 = CARTESIAN_POINT('', (2.99999999999997, 2.99999999999999, -100.));
#298 = CARTESIAN_POINT('', (5.51091059616309E-16, 6.12323399573677E-15, -100.));
#299 = CARTESIAN_POINT('', (2.99999999999997, 6.12323399573677E-15, -97.));
#300 = CARTESIAN_POINT('', (2.99999999999997, 5.93953697586467E-15, -100.));
#301 = CARTESIAN_POINT('', (5.51091059616309E-16, 6.12323399573677E-15, -100.));
#302 = CARTESIAN_POINT('', (2.99999999999997, -2.99999999999998, -97.));
#303 = CARTESIAN_POINT('', (2.99999999999997, -2.99999999999998, -100.));
#304 = CARTESIAN_POINT('', (5.51091059616309E-16, 6.12323399573677E-15, -100.));
#305 = CARTESIAN_POINT('', (-1.65079959345582E-14, -2.99999999999998, -97.));
#306 = CARTESIAN_POINT('', (-1.66916929544303E-14, -2.99999999999998, -100.));
#307 = CARTESIAN_POINT('', (5.51091059616309E-16, 6.12323399573677E-15, -100.));
#308 = CARTESIAN_POINT('', (-3., -2.99999999999998, -97.));
#309 = CARTESIAN_POINT('', (-3., -2.99999999999998, -100.));
#310 = CARTESIAN_POINT('', (5.51091059616309E-16, 6.12323399573677E-15, -100.));
#311 = CARTESIAN_POINT('', (-3., 6.12323399573677E-15, -97.));
#312 = CARTESIAN_POINT('', (-3., 6.30693101560887E-15, -100.));
#313 = CARTESIAN_POINT('', (5.51091059616309E-16, 6.12323399573677E-15, -100.));
#314 = PRESENTATION_STYLE_ASSIGNMENT((#315));
#315 = SURFACE_STYLE_USAGE(.POSITIVE., #316);
#316 = SURFACE_SIDE_STYLE('', (#317));
#317 = SURFACE_STYLE_FILL_AREA(#318);
#318 = FILL_AREA_STYLE('', (#319));
#319 = FILL_AREA_STYLE_COLOUR('', #320);
#320 = COLOUR_RGB('', 0.8, 0.8, 0.8);
#321 = STYLED_ITEM('', (#314), #214);
#322 = TRIMMED_CURVE('cutting part line', #323, (#328), (#329), .T., .CARTESIAN.);
#323 = CIRCLE('', #324, 3.00000000000001);
#324 = AXIS2_PLACEMENT_3D('', #325, #326, #327);
#325 = CARTESIAN_POINT('', (-3.25295346215171E-14, 0., -97.));
#326 = DIRECTION('', (0., -1., 0.));
#327 = DIRECTION('', (3.7284989910328E-15, 0., -1.));
#328 = CARTESIAN_POINT('', (-2.13440376484186E-14, 0., -100.));
#329 = CARTESIAN_POINT('', (2.99999999999998, 0., -97.));
#330 = TRIMMED_CURVE('cutting part line', #331, (#335), (#336), .T., .CARTESIAN.);
#331 = LINE('', #332, #333);
#332 = CARTESIAN_POINT('', (3., 3.33016179684306E-16, -97.));
#333 = VECTOR('', #334, 6.);
#334 = DIRECTION('', (0., -3.33016179684306E-16, 6.));
#335 = CARTESIAN_POINT('', (3., 3.33016179684306E-16, -97.));
#336 = CARTESIAN_POINT('', (3., 0., -91.));
#337 = TRIMMED_CURVE('cutting part line', #338, (#342), (#343), .T., .CARTESIAN.);
#338 = LINE('', #339, #340);
#339 = CARTESIAN_POINT('', (3., 0., -91.));
#340 = VECTOR('', #341, 3.);
#341 = DIRECTION('', (-3., 0., -1.4210854715202E-14));
#342 = CARTESIAN_POINT('', (3., 0., -91.));
#343 = CARTESIAN_POINT('', (0., 0., -91.));
#344 = TRIMMED_CURVE('cutting part line', #345, (#349), (#350), .T., .CARTESIAN.);
#345 = LINE('', #346, #347);
#346 = CARTESIAN_POINT('', (0., 0., -91.));
#347 = VECTOR('', #348, 8.99999999999999);
#348 = DIRECTION('', (0., 0., -8.99999999999999));
#349 = CARTESIAN_POINT('', (0., 0., -91.));
#350 = CARTESIAN_POINT('', (0., 0., -100.));
#351 = COMPOSITE_CURVE('cutting part line', (#352, #353, #354, #355), .U.);
#352 = COMPOSITE_CURVE_SEGMENT(.CONTINUOUS., .T., #322);
#353 = COMPOSITE_CURVE_SEGMENT(.CONTINUOUS., .T., #330);
#354 = COMPOSITE_CURVE_SEGMENT(.CONTINUOUS., .T., #337);
#355 = COMPOSITE_CURVE_SEGMENT(.CONTINUOUS., .T., #344);
#356 = GEOMETRIC_SET('', (#351, #394));
#357 = PRESENTATION_STYLE_ASSIGNMENT((#358));
#358 = CURVE_STYLE('', #360, POSITIVE_LENGTH_MEASURE(1.E-6), #359);
#359 = COLOUR_RGB('', 0., 0., 1.);
#360 = DRAUGHTING_PRE_DEFINED_CURVE_FONT('continuous');
#361 = STYLED_ITEM('', (#357), #351);
#362 = PRESENTATION_STYLE_ASSIGNMENT((#363));
#363 = CURVE_STYLE('', #365, POSITIVE_LENGTH_MEASURE(1.E-6), #364);
#364 = COLOUR_RGB('', 0., 0., 1.);
#365 = DRAUGHTING_PRE_DEFINED_CURVE_FONT('continuous');
#366 = OVER_RIDING_STYLED_ITEM('', (#362), #322, #361);
#367 = PRESENTATION_STYLE_ASSIGNMENT((#368));
#368 = CURVE_STYLE('', #370, POSITIVE_LENGTH_MEASURE(1.E-6), #369);
#369 = COLOUR_RGB('', 0., 0., 1.);
#370 = DRAUGHTING_PRE_DEFINED_CURVE_FONT('continuous');
#371 = OVER_RIDING_STYLED_ITEM('', (#367), #330, #361);
#372 = PRESENTATION_STYLE_ASSIGNMENT((#373));
#373 = CURVE_STYLE('', #375, POSITIVE_LENGTH_MEASURE(1.E-6), #374);
#374 = COLOUR_RGB('', 0., 0., 1.);
#375 = DRAUGHTING_PRE_DEFINED_CURVE_FONT('continuous');
#376 = OVER_RIDING_STYLED_ITEM('', (#372), #337, #361);
#377 = PRESENTATION_STYLE_ASSIGNMENT((#378));
#378 = CURVE_STYLE('', #380, POSITIVE_LENGTH_MEASURE(1.E-6), #379);
#379 = COLOUR_RGB('', 0., 0., 1.);
#380 = DRAUGHTING_PRE_DEFINED_CURVE_FONT('continuous');
#381 = OVER_RIDING_STYLED_ITEM('', (#377), #344, #361);
#382 = AXIS2_PLACEMENT_3D('MCS', #383, #384, #385);
#383 = CARTESIAN_POINT('', (0., 0., -36.));
#384 = DIRECTION('', (0., 0., 1.));
#385 = DIRECTION('', (1., 0., 0.));
#386 = AXIS2_PLACEMENT_3D('PCS', #387, #388, #389);
#387 = CARTESIAN_POINT('', (0., 0., 0.));
#388 = DIRECTION('', (0., 0., 1.));
#389 = DIRECTION('', (1., 0., 0.));
#390 = AXIS2_PLACEMENT_3D('CIP', #391, #392, #393);
#391 = CARTESIAN_POINT('', (0., 0., -100.));
#392 = DIRECTION('', (0., 0., 1.));
#393 = DIRECTION('', (1., 0., 0.));
#394 = CARTESIAN_POINT('CRP', (3., 0., -100.));
#395 = (
   GEOMETRIC_REPRESENTATION_CONTEXT (3)
   GLOBAL_UNCERTAINTY_ASSIGNED_CONTEXT ((#397))
   GLOBAL_UNIT_ASSIGNED_CONTEXT ((#396, #398, #399))
   REPRESENTATION_CONTEXT ('', '3D')
);
#396 = (
   LENGTH_UNIT ()
   NAMED_UNIT (*)
   SI_UNIT (.MILLI., .METRE.)
);
#397 = UNCERTAINTY_MEASURE_WITH_UNIT(LENGTH_MEASURE(1.E-6), #396, 'DISTANCE_ACCURACY_VALUE', '');
#398 = (
   NAMED_UNIT (*)
   SI_UNIT ($, .STERADIAN.)
   SOLID_ANGLE_UNIT ()
);
#399 = (
   NAMED_UNIT (*)
   PLANE_ANGLE_UNIT ()
   SI_UNIT ($, .RADIAN.)
);
#400 = SHAPE_REPRESENTATION('', (), #395);
#401 = PRODUCT_DEFINITION_SHAPE('', '', #402);
#402 = PRODUCT_DEFINITION('', '', #405, #409);
#403 = APPLICATION_CONTEXT('configuration controlled 3D designs of mechanical parts and assemblies');
#404 = APPLICATION_PROTOCOL_DEFINITION('International Standard', 'automotive_design', 2002, #403);
#405 = PRODUCT_DEFINITION_FORMATION_WITH_SPECIFIED_SOURCE('', '', #406, .NOT_KNOWN.);
#406 = PRODUCT('product-name', '2B320-0600-NG       H10F', '', (#407));
#407 = PRODUCT_CONTEXT('', #403, 'mechanical');
#408 = PRODUCT_RELATED_PRODUCT_CATEGORY('detail', '', (#406));
#409 = PRODUCT_DEFINITION_CONTEXT('part definition', #403, 'design');
#410 = SHAPE_DEFINITION_REPRESENTATION(#401, #400);
#411 = CONSTRUCTIVE_GEOMETRY_REPRESENTATION('supplemental geometry', (#382, #386, #390), #395);
#412 = CONSTRUCTIVE_GEOMETRY_REPRESENTATION_RELATIONSHIP('', '', #400, #411);
#413 = SHAPE_REPRESENTATION_RELATIONSHIP('', '', #400, #414);
#414 = SHAPE_REPRESENTATION('', (#356), #395);
#415 = SHAPE_REPRESENTATION_RELATIONSHIP('', '', #400, #416);
#416 = ADVANCED_BREP_SHAPE_REPRESENTATION('', (#1, #214), #395);
ENDSEC;
END-ISO-10303-21;
