ISO-10303-21;
HEADER;
FILE_DESCRIPTION(('STEP'), '1');
FILE_NAME('C:\\Users\\ds2002\\OneDrive - Sandvik\\HomeShare\\Documents\\Batchrepair\\CorSRT2\\NEW_MILBN_SLD\\Output2\\MOD000000000000000020082297800000.stp', '2018-11-23T12:39:41', (''), (''), 'Express v3.0.0.0', 'Express Tool', 'Unknown');
FILE_SCHEMA(('AUTOMOTIVE_DESIGN'));
ENDSEC;

DATA;
#1 = MANIFOLD_SOLID_BREP('NOCUT', #2);
#2 = CLOSED_SHELL('', (#3, #50, #89, #98, #137));
#3 = ADVANCED_FACE('', (#4), #31, .T.);
#4 = FACE_OUTER_BOUND('', #5, .T.);
#5 = EDGE_LOOP('', (#6, #16, #23, #24));
#6 = ORIENTED_EDGE('', *, *, #7, .T.);
#7 = EDGE_CURVE('', #8, #10, #12, .T.);
#8 = VERTEX_POINT('', #9);
#9 = CARTESIAN_POINT('', (-1.5, 1.80635402874235E-15, -28.));
#10 = VERTEX_POINT('', #11);
#11 = CARTESIAN_POINT('', (-1.5, 1.01033360929657E-16, -0.149999999999999));
#12 = LINE('', #13, #14);
#13 = CARTESIAN_POINT('', (-1.5, 1.80635402874235E-15, -28.));
#14 = VECTOR('', #15, 27.85);
#15 = DIRECTION('', (0., -1.70532066781269E-15, 27.85));
#16 = ORIENTED_EDGE('', *, *, #17, .T.);
#17 = EDGE_CURVE('', #10, #10, #18, .T.);
#18 = CIRCLE('', #19, 1.5);
#19 = AXIS2_PLACEMENT_3D('', #20, #21, #22);
#20 = CARTESIAN_POINT('', (1.52655665885959E-16, -3.60822483003176E-16, -0.149999999999999));
#21 = DIRECTION('', (0., 0., -1.));
#22 = DIRECTION('', (-1., 3.07903895955222E-16, 0.));
#23 = ORIENTED_EDGE('', *, *, #7, .F.);
#24 = ORIENTED_EDGE('', *, *, #25, .F.);
#25 = EDGE_CURVE('', #8, #8, #26, .T.);
#26 = CIRCLE('', #27, 1.5);
#27 = AXIS2_PLACEMENT_3D('', #28, #29, #30);
#28 = CARTESIAN_POINT('', (4.09394740330526E-16, 9.43689570931383E-16, -28.));
#29 = DIRECTION('', (2.368475785867E-15, -7.7054015253353E-15, -1.));
#30 = DIRECTION('', (-1., 5.75109638540645E-16, -2.368475785867E-15));
#31 = (
   BOUNDED_SURFACE ()
   B_SPLINE_SURFACE (1, 2, ((#32, #33, #34, #35, #36, #37, #38, #39, #40), (#41, #42, #43, #44, #45, #46, #47, #48, #49)), .UNSPECIFIED., .F., .T., .U.)
   B_SPLINE_SURFACE_WITH_KNOTS ((2, 2), (3, 2, 2, 2, 3), (0., 1.), (0., 2.35619449019235, 4.71238898038469, 7.06858347057704, 9.42477796076938), .UNSPECIFIED.)
   GEOMETRIC_REPRESENTATION_ITEM ()
   RATIONAL_B_SPLINE_SURFACE (((1., 0.707106781186548, 1., 0.707106781186548, 1., 0.707106781186548, 1., 0.707106781186548, 1.), (1., 0.707106781186548, 1., 0.707106781186548, 1., 0.707106781186548, 1., 0.707106781186548, 1.)))
   REPRESENTATION_ITEM ('')
   SURFACE ()
);
#32 = CARTESIAN_POINT('', (-1.5, 1.01696735624541E-15, -28.));
#33 = CARTESIAN_POINT('', (-1.5, 1.5, -28.));
#34 = CARTESIAN_POINT('', (5.22662999882741E-16, 1.5, -28.));
#35 = CARTESIAN_POINT('', (1.5, 1.5, -28.));
#36 = CARTESIAN_POINT('', (1.5, 2.76952688251848E-16, -28.));
#37 = CARTESIAN_POINT('', (1.5, -1.5, -28.));
#38 = CARTESIAN_POINT('', (-3.36546482387189E-17, -1.5, -28.));
#39 = CARTESIAN_POINT('', (-1.5, -1.5, -28.));
#40 = CARTESIAN_POINT('', (-1.5, 1.01696735624541E-15, -28.));
#41 = CARTESIAN_POINT('', (-1.5, 1.01033360929657E-16, -0.149999999999999));
#42 = CARTESIAN_POINT('', (-1.5, 1.5, -0.149999999999999));
#43 = CARTESIAN_POINT('', (5.2266299988274E-16, 1.5, -0.149999999999999));
#44 = CARTESIAN_POINT('', (1.5, 1.5, -0.149999999999999));
#45 = CARTESIAN_POINT('', (1.5, -6.38981307063906E-16, -0.149999999999999));
#46 = CARTESIAN_POINT('', (1.5, -1.5, -0.149999999999999));
#47 = CARTESIAN_POINT('', (-3.36546482387192E-17, -1.5, -0.149999999999999));
#48 = CARTESIAN_POINT('', (-1.5, -1.5, -0.149999999999999));
#49 = CARTESIAN_POINT('', (-1.5, 1.01033360929657E-16, -0.149999999999999));
#50 = ADVANCED_FACE('', (#51), #70, .T.);
#51 = FACE_OUTER_BOUND('', #52, .T.);
#52 = EDGE_LOOP('', (#53, #61, #68, #69));
#53 = ORIENTED_EDGE('', *, *, #54, .T.);
#54 = EDGE_CURVE('', #10, #55, #57, .T.);
#55 = VERTEX_POINT('', #56);
#56 = CARTESIAN_POINT('', (-1.35, 8.26636589424463E-17, 0.));
#57 = LINE('', #58, #59);
#58 = CARTESIAN_POINT('', (-1.5, 1.01033360929657E-16, -0.149999999999999));
#59 = VECTOR('', #60, 0.212132034355963);
#60 = DIRECTION('', (0.15, -1.83697019872107E-17, 0.149999999999999));
#61 = ORIENTED_EDGE('', *, *, #62, .T.);
#62 = EDGE_CURVE('', #55, #55, #63, .T.);
#63 = CIRCLE('', #64, 1.35);
#64 = AXIS2_PLACEMENT_3D('', #65, #66, #67);
#65 = CARTESIAN_POINT('', (4.61436444609831E-16, -6.38378239159465E-16, -7.7875102531819E-16));
#66 = DIRECTION('', (-5.76852611346806E-16, 1.6649441676109E-15, -1.));
#67 = DIRECTION('', (-1., 5.34105109705119E-16, 5.76852611346807E-16));
#68 = ORIENTED_EDGE('', *, *, #54, .F.);
#69 = ORIENTED_EDGE('', *, *, #17, .F.);
#70 = (
   BOUNDED_SURFACE ()
   B_SPLINE_SURFACE (1, 2, ((#71, #72, #73, #74, #75, #76, #77, #78, #79), (#80, #81, #82, #83, #84, #85, #86, #87, #88)), .UNSPECIFIED., .F., .T., .U.)
   B_SPLINE_SURFACE_WITH_KNOTS ((2, 2), (3, 2, 2, 2, 3), (0., 1.), (0., 0.25, 0.5, 0.75, 1.), .UNSPECIFIED.)
   GEOMETRIC_REPRESENTATION_ITEM ()
   RATIONAL_B_SPLINE_SURFACE (((1., 0.707106781186548, 1., 0.707106781186548, 1., 0.707106781186548, 1., 0.707106781186548, 1.), (1., 0.707106781186548, 1., 0.707106781186548, 1., 0.707106781186548, 1., 0.707106781186548, 1.)))
   REPRESENTATION_ITEM ('')
   SURFACE ()
);
#71 = CARTESIAN_POINT('', (-1.5, 7.45646513326421E-16, -0.149999999999998));
#72 = CARTESIAN_POINT('', (-1.5, 1.5, -0.149999999999992));
#73 = CARTESIAN_POINT('', (1.08421770752944E-15, 1.5, -0.149999999999993));
#74 = CARTESIAN_POINT('', (1.5, 1.5, -0.149999999999994));
#75 = CARTESIAN_POINT('', (1.5, -6.72971795916834E-16, -0.15));
#76 = CARTESIAN_POINT('', (1.5, -1.5, -0.150000000000006));
#77 = CARTESIAN_POINT('', (-1.50703581841717E-16, -1.5, -0.150000000000005));
#78 = CARTESIAN_POINT('', (-1.5, -1.5, -0.150000000000004));
#79 = CARTESIAN_POINT('', (-1.5, 7.45646513326421E-16, -0.149999999999998));
#80 = CARTESIAN_POINT('', (-1.35, 8.2663658942446E-17, -2.95822839457879E-31));
#81 = CARTESIAN_POINT('', (-1.35, 1.35, 5.24580379135393E-15));
#82 = CARTESIAN_POINT('', (1.0998146837693E-15, 1.35, 4.46705276603574E-15));
#83 = CARTESIAN_POINT('', (1.35, 1.35, 3.68830174071755E-15));
#84 = CARTESIAN_POINT('', (1.35, -1.19409281937648E-15, -1.55750205063638E-15));
#85 = CARTESIAN_POINT('', (1.35, -1.35, -6.80330584199031E-15));
#86 = CARTESIAN_POINT('', (-1.16144766647444E-17, -1.35, -6.02455481667212E-15));
#87 = CARTESIAN_POINT('', (-1.35, -1.35, -5.24580379135393E-15));
#88 = CARTESIAN_POINT('', (-1.35, 8.2663658942446E-17, -2.95822839457879E-31));
#89 = ADVANCED_FACE('', (#90), #93, .T.);
#90 = FACE_OUTER_BOUND('', #91, .T.);
#91 = EDGE_LOOP('', (#92));
#92 = ORIENTED_EDGE('', *, *, #62, .F.);
#93 = B_SPLINE_SURFACE_WITH_KNOTS('', 1, 1, ((#94, #95), (#96, #97)), .UNSPECIFIED., .F., .F., .U., (2, 2), (2, 2), (0.0454545454545454, 0.954545454545454), (0.0454545454545454, 0.954545454545454), .UNSPECIFIED.);
#94 = CARTESIAN_POINT('', (1.35, -1.35, -8.26636589424464E-17));
#95 = CARTESIAN_POINT('', (-1.35, -1.35, -8.26636589424463E-17));
#96 = CARTESIAN_POINT('', (1.35, 1.35, 8.26636589424463E-17));
#97 = CARTESIAN_POINT('', (-1.35, 1.35, 8.26636589424464E-17));
#98 = ADVANCED_FACE('', (#99), #118, .T.);
#99 = FACE_OUTER_BOUND('', #100, .T.);
#100 = EDGE_LOOP('', (#101, #110, #116, #117));
#101 = ORIENTED_EDGE('', *, *, #102, .F.);
#102 = EDGE_CURVE('', #103, #103, #105, .T.);
#103 = VERTEX_POINT('', #104);
#104 = CARTESIAN_POINT('', (-1.5, 1.99005104861445E-15, -31.));
#105 = CIRCLE('', #106, 1.5);
#106 = AXIS2_PLACEMENT_3D('', #107, #108, #109);
#107 = CARTESIAN_POINT('', (2.4980018054066E-16, 3.88578058618805E-16, -31.));
#108 = DIRECTION('', (0., 0., -1.));
#109 = DIRECTION('', (-1., 1.0676486599971E-15, 0.));
#110 = ORIENTED_EDGE('', *, *, #111, .F.);
#111 = EDGE_CURVE('', #8, #103, #112, .T.);
#112 = LINE('', #113, #114);
#113 = CARTESIAN_POINT('', (-1.5, 1.80635402874235E-15, -28.));
#114 = VECTOR('', #115, 3.);
#115 = DIRECTION('', (0., 1.836970198721E-16, -3.));
#116 = ORIENTED_EDGE('', *, *, #25, .T.);
#117 = ORIENTED_EDGE('', *, *, #111, .T.);
#118 = (
   BOUNDED_SURFACE ()
   B_SPLINE_SURFACE (2, 1, ((#119, #120), (#121, #122), (#123, #124), (#125, #126), (#127, #128), (#129, #130), (#131, #132), (#133, #134), (#135, #136)), .UNSPECIFIED., .T., .F., .U.)
   B_SPLINE_SURFACE_WITH_KNOTS ((3, 2, 2, 2, 3), (2, 2), (0., 2.35619449019235, 4.71238898038469, 7.06858347057704, 9.42477796076938), (0., 0.352941176470588), .UNSPECIFIED.)
   GEOMETRIC_REPRESENTATION_ITEM ()
   RATIONAL_B_SPLINE_SURFACE (((1., 1.), (0.707106781186548, 0.707106781186548), (1., 1.), (0.707106781186548, 0.707106781186548), (1., 1.), (0.707106781186548, 0.707106781186548), (1., 1.), (0.707106781186548, 0.707106781186548), (1., 1.)))
   REPRESENTATION_ITEM ('')
   SURFACE ()
);
#119 = CARTESIAN_POINT('', (-1.5, 1.80635402874235E-15, -28.));
#120 = CARTESIAN_POINT('', (-1.5, 2.02839863366738E-15, -31.));
#121 = CARTESIAN_POINT('', (-1.5, 1.5, -28.));
#122 = CARTESIAN_POINT('', (-1.5, 1.5, -31.));
#123 = CARTESIAN_POINT('', (9.02654932049153E-16, 1.5, -28.));
#124 = CARTESIAN_POINT('', (9.02654932049153E-16, 1.5, -31.));
#125 = CARTESIAN_POINT('', (1.5, 1.5, -28.));
#126 = CARTESIAN_POINT('', (1.5, 1.5, -31.));
#127 = CARTESIAN_POINT('', (1.5, -5.12433984245091E-16, -28.));
#128 = CARTESIAN_POINT('', (1.5, -2.9038937932006E-16, -31.));
#129 = CARTESIAN_POINT('', (1.5, -1.5, -28.));
#130 = CARTESIAN_POINT('', (1.5, -1.5, -31.));
#131 = CARTESIAN_POINT('', (-1.23243606106619E-15, -1.5, -28.));
#132 = CARTESIAN_POINT('', (-1.23243606106619E-15, -1.5, -31.));
#133 = CARTESIAN_POINT('', (-1.5, -1.5, -28.));
#134 = CARTESIAN_POINT('', (-1.5, -1.5, -31.));
#135 = CARTESIAN_POINT('', (-1.5, 1.80635402874235E-15, -28.));
#136 = CARTESIAN_POINT('', (-1.5, 2.02839863366738E-15, -31.));
#137 = ADVANCED_FACE('', (#138), #141, .T.);
#138 = FACE_OUTER_BOUND('', #139, .T.);
#139 = EDGE_LOOP('', (#140));
#140 = ORIENTED_EDGE('', *, *, #102, .T.);
#141 = B_SPLINE_SURFACE_WITH_KNOTS('', 1, 1, ((#142, #143), (#144, #145)), .UNSPECIFIED., .F., .F., .U., (2, 2), (2, 2), (0.492773450027427, 0.532003379896911), (0.467996620103089, 0.507226549972573), .UNSPECIFIED.);
#142 = CARTESIAN_POINT('', (-1.50000000000001, 1.50000000000001, -31.));
#143 = CARTESIAN_POINT('', (-1.50000000000001, -1.49999999999999, -31.));
#144 = CARTESIAN_POINT('', (1.49999999999999, 1.50000000000001, -31.));
#145 = CARTESIAN_POINT('', (1.49999999999999, -1.49999999999999, -31.));
#146 = DRAUGHTING_MODEL('', (#154, #262, #302, #307, #312, #317, #322), #336);
#147 = PRESENTATION_STYLE_ASSIGNMENT((#148));
#148 = SURFACE_STYLE_USAGE(.POSITIVE., #149);
#149 = SURFACE_SIDE_STYLE('', (#150));
#150 = SURFACE_STYLE_FILL_AREA(#151);
#151 = FILL_AREA_STYLE('', (#152));
#152 = FILL_AREA_STYLE_COLOUR('', #153);
#153 = COLOUR_RGB('', 0.50196078431373, 0.50196078431373, 0.50196078431373);
#154 = STYLED_ITEM('', (#147), #1);
#155 = MANIFOLD_SOLID_BREP('CUT', #156);
#156 = CLOSED_SHELL('', (#157, #174, #213));
#157 = ADVANCED_FACE('', (#158), #169, .T.);
#158 = FACE_OUTER_BOUND('', #159, .T.);
#159 = EDGE_LOOP('', (#160));
#160 = ORIENTED_EDGE('', *, *, #161, .F.);
#161 = EDGE_CURVE('', #162, #162, #164, .T.);
#162 = VERTEX_POINT('', #163);
#163 = CARTESIAN_POINT('', (-1.5, 1.99005104861445E-15, -31.));
#164 = CIRCLE('', #165, 1.5);
#165 = AXIS2_PLACEMENT_3D('', #166, #167, #168);
#166 = CARTESIAN_POINT('', (2.4980018054066E-16, 3.88578058618805E-16, -31.));
#167 = DIRECTION('', (0., 0., -1.));
#168 = DIRECTION('', (-1., 1.0676486599971E-15, 0.));
#169 = B_SPLINE_SURFACE_WITH_KNOTS('', 1, 1, ((#170, #171), (#172, #173)), .UNSPECIFIED., .F., .F., .U., (2, 2), (2, 2), (0.467996620103089, 0.507226549972573), (0.492773450027427, 0.532003379896911), .UNSPECIFIED.);
#170 = CARTESIAN_POINT('', (-1.5, 1.5, -31.));
#171 = CARTESIAN_POINT('', (1.5, 1.5, -31.));
#172 = CARTESIAN_POINT('', (-1.5, -1.5, -31.));
#173 = CARTESIAN_POINT('', (1.5, -1.5, -31.));
#174 = ADVANCED_FACE('', (#175), #194, .T.);
#175 = FACE_OUTER_BOUND('', #176, .T.);
#176 = EDGE_LOOP('', (#177, #178, #186, #193));
#177 = ORIENTED_EDGE('', *, *, #161, .T.);
#178 = ORIENTED_EDGE('', *, *, #179, .T.);
#179 = EDGE_CURVE('', #162, #180, #182, .T.);
#180 = VERTEX_POINT('', #181);
#181 = CARTESIAN_POINT('', (-1.5, 2.32682891837997E-15, -36.5));
#182 = LINE('', #183, #184);
#183 = CARTESIAN_POINT('', (-1.5, 1.99005104861445E-15, -31.));
#184 = VECTOR('', #185, 5.5);
#185 = DIRECTION('', (0., 3.3677786976552E-16, -5.5));
#186 = ORIENTED_EDGE('', *, *, #187, .F.);
#187 = EDGE_CURVE('', #180, #180, #188, .T.);
#188 = CIRCLE('', #189, 1.5);
#189 = AXIS2_PLACEMENT_3D('', #190, #191, #192);
#190 = CARTESIAN_POINT('', (-2.84494650060196E-16, 1.11022302462516E-15, -36.5));
#191 = DIRECTION('', (1.30763990178864E-29, 1.61223931492663E-14, -1.));
#192 = DIRECTION('', (-1., 8.11070595836543E-16, 0.));
#193 = ORIENTED_EDGE('', *, *, #179, .F.);
#194 = (
   BOUNDED_SURFACE ()
   B_SPLINE_SURFACE (2, 1, ((#195, #196), (#197, #198), (#199, #200), (#201, #202), (#203, #204), (#205, #206), (#207, #208), (#209, #210), (#211, #212)), .UNSPECIFIED., .T., .F., .U.)
   B_SPLINE_SURFACE_WITH_KNOTS ((3, 2, 2, 2, 3), (2, 2), (0., 2.35619449019235, 4.71238898038469, 7.06858347057704, 9.42477796076938), (0.352941176470588, 1.), .UNSPECIFIED.)
   GEOMETRIC_REPRESENTATION_ITEM ()
   RATIONAL_B_SPLINE_SURFACE (((1., 1.), (0.707106781186548, 0.707106781186548), (1., 1.), (0.707106781186548, 0.707106781186548), (1., 1.), (0.707106781186548, 0.707106781186548), (1., 1.), (0.707106781186548, 0.707106781186548), (1., 1.)))
   REPRESENTATION_ITEM ('')
   SURFACE ()
);
#195 = CARTESIAN_POINT('', (-1.5, 1.99005104861445E-15, -31.));
#196 = CARTESIAN_POINT('', (-1.5, 2.323117956002E-15, -36.5));
#197 = CARTESIAN_POINT('', (-1.5, 1.5, -31.));
#198 = CARTESIAN_POINT('', (-1.5, 1.5, -36.5));
#199 = CARTESIAN_POINT('', (8.64307346996222E-16, 1.5, -31.));
#200 = CARTESIAN_POINT('', (8.64307346996222E-16, 1.5, -36.5));
#201 = CARTESIAN_POINT('', (1.5, 1.5, -31.));
#202 = CARTESIAN_POINT('', (1.5, 1.5, -36.5));
#203 = CARTESIAN_POINT('', (1.5, -2.52041794267128E-16, -31.));
#204 = CARTESIAN_POINT('', (1.5, 8.1025113120419E-17, -36.5));
#205 = CARTESIAN_POINT('', (1.5, -1.5, -31.));
#206 = CARTESIAN_POINT('', (1.5, -1.5, -36.5));
#207 = CARTESIAN_POINT('', (-1.19408847601325E-15, -1.5, -31.));
#208 = CARTESIAN_POINT('', (-1.19408847601325E-15, -1.5, -36.5));
#209 = CARTESIAN_POINT('', (-1.5, -1.5, -31.));
#210 = CARTESIAN_POINT('', (-1.5, -1.5, -36.5));
#211 = CARTESIAN_POINT('', (-1.5, 1.99005104861445E-15, -31.));
#212 = CARTESIAN_POINT('', (-1.5, 2.323117956002E-15, -36.5));
#213 = ADVANCED_FACE('', (#214), #227, .T.);
#214 = FACE_OUTER_BOUND('', #215, .T.);
#215 = EDGE_LOOP('', (#216, #225, #226));
#216 = ORIENTED_EDGE('', *, *, #217, .F.);
#217 = EDGE_CURVE('', #180, #218, #220, .T.);
#218 = VERTEX_POINT('', #219);
#219 = CARTESIAN_POINT('', (2.75545529808155E-16, 2.32682891837997E-15, -38.));
#220 = CIRCLE('', #221, 1.49999999999999);
#221 = AXIS2_PLACEMENT_3D('', #222, #223, #224);
#222 = CARTESIAN_POINT('', (-9.32587340685131E-15, 2.23498040844392E-15, -36.5));
#223 = DIRECTION('', (-6.12323399573661E-17, -1., -6.12323399573662E-17));
#224 = DIRECTION('', (-1., 6.12323399573658E-17, 4.73695157173403E-15));
#225 = ORIENTED_EDGE('', *, *, #187, .T.);
#226 = ORIENTED_EDGE('', *, *, #217, .T.);
#227 = (
   BOUNDED_SURFACE ()
   B_SPLINE_SURFACE (2, 2, ((#228, #229, #230), (#231, #232, #233), (#234, #235, #236), (#237, #238, #239), (#240, #241, #242), (#243, #244, #245), (#246, #247, #248), (#249, #250, #251), (#252, #253, #254)), .UNSPECIFIED., .T., .F., .U.)
   B_SPLINE_SURFACE_WITH_KNOTS ((3, 2, 2, 2, 3), (3, 3), (0., 0.25, 0.5, 0.75, 1.), (0., 1.), .UNSPECIFIED.)
   GEOMETRIC_REPRESENTATION_ITEM ()
   RATIONAL_B_SPLINE_SURFACE (((1., 0.707106781186548, 1.), (0.707106781186548, 0.5, 0.707106781186548), (1., 0.707106781186548, 1.), (0.707106781186548, 0.5, 0.707106781186548), (1., 0.707106781186548, 1.), (0.707106781186548, 0.5, 0.707106781186548), (1., 0.707106781186548, 1.), (0.707106781186548, 0.5, 0.707106781186548), (1., 0.707106781186548, 1.)))
   REPRESENTATION_ITEM ('')
   SURFACE ()
);
#228 = CARTESIAN_POINT('', (-1.5, 2.32682891837997E-15, -36.5));
#229 = CARTESIAN_POINT('', (-1.5, 2.41867742831602E-15, -38.));
#230 = CARTESIAN_POINT('', (2.75545529808155E-16, 2.32682891837997E-15, -38.));
#231 = CARTESIAN_POINT('', (-1.5, 1.49999999999999, -36.5));
#232 = CARTESIAN_POINT('', (-1.50000000000002, 1.49999999999999, -38.));
#233 = CARTESIAN_POINT('', (2.75545529808155E-16, 2.32682891837997E-15, -38.));
#234 = CARTESIAN_POINT('', (-9.3258734068512E-15, 1.49999999999999, -36.5));
#235 = CARTESIAN_POINT('', (-3.34176146208147E-14, 1.50000000000002, -38.));
#236 = CARTESIAN_POINT('', (2.75545529808155E-16, 2.32682891837997E-15, -38.));
#237 = CARTESIAN_POINT('', (1.49999999999998, 1.49999999999999, -36.5));
#238 = CARTESIAN_POINT('', (1.49999999999996, 1.50000000000004, -38.));
#239 = CARTESIAN_POINT('', (2.75545529808155E-16, 2.32682891837997E-15, -38.));
#240 = CARTESIAN_POINT('', (1.49999999999998, 2.32682891837975E-15, -36.5));
#241 = CARTESIAN_POINT('', (1.49999999999998, 5.06021598562427E-14, -38.));
#242 = CARTESIAN_POINT('', (2.75545529808155E-16, 2.32682891837997E-15, -38.));
#243 = CARTESIAN_POINT('', (1.49999999999998, -1.49999999999999, -36.5));
#244 = CARTESIAN_POINT('', (1.50000000000001, -1.49999999999994, -38.));
#245 = CARTESIAN_POINT('', (2.75545529808155E-16, 2.32682891837997E-15, -38.));
#246 = CARTESIAN_POINT('', (-9.14217638697933E-15, -1.49999999999999, -36.5));
#247 = CARTESIAN_POINT('', (1.49495648269842E-14, -1.49999999999996, -38.));
#248 = CARTESIAN_POINT('', (2.75545529808155E-16, 2.32682891837997E-15, -38.));
#249 = CARTESIAN_POINT('', (-1.5, -1.49999999999999, -36.5));
#250 = CARTESIAN_POINT('', (-1.49999999999998, -1.49999999999999, -38.));
#251 = CARTESIAN_POINT('', (2.75545529808155E-16, 2.32682891837997E-15, -38.));
#252 = CARTESIAN_POINT('', (-1.5, 2.32682891837997E-15, -36.5));
#253 = CARTESIAN_POINT('', (-1.5, 2.41867742831602E-15, -38.));
#254 = CARTESIAN_POINT('', (2.75545529808155E-16, 2.32682891837997E-15, -38.));
#255 = PRESENTATION_STYLE_ASSIGNMENT((#256));
#256 = SURFACE_STYLE_USAGE(.POSITIVE., #257);
#257 = SURFACE_SIDE_STYLE('', (#258));
#258 = SURFACE_STYLE_FILL_AREA(#259);
#259 = FILL_AREA_STYLE('', (#260));
#260 = FILL_AREA_STYLE_COLOUR('', #261);
#261 = COLOUR_RGB('', 0.8, 0.8, 0.8);
#262 = STYLED_ITEM('', (#255), #155);
#263 = TRIMMED_CURVE('cutting part line', #264, (#269), (#270), .T., .CARTESIAN.);
#264 = CIRCLE('', #265, 1.49999999999999);
#265 = AXIS2_PLACEMENT_3D('', #266, #267, #268);
#266 = CARTESIAN_POINT('', (-1.22124532708767E-14, 0., -36.5));
#267 = DIRECTION('', (0., -1., 0.));
#268 = DIRECTION('', (1.31376391247311E-15, 0., -1.));
#269 = CARTESIAN_POINT('', (-1.02418074021671E-14, 0., -38.));
#270 = CARTESIAN_POINT('', (1.49999999999998, 0., -36.5));
#271 = TRIMMED_CURVE('cutting part line', #272, (#276), (#277), .T., .CARTESIAN.);
#272 = LINE('', #273, #274);
#273 = CARTESIAN_POINT('', (1.5, 3.33016179684306E-16, -36.5));
#274 = VECTOR('', #275, 5.5);
#275 = DIRECTION('', (0., -3.33016179684306E-16, 5.5));
#276 = CARTESIAN_POINT('', (1.5, 3.33016179684306E-16, -36.5));
#277 = CARTESIAN_POINT('', (1.5, 0., -31.));
#278 = TRIMMED_CURVE('cutting part line', #279, (#283), (#284), .T., .CARTESIAN.);
#279 = LINE('', #280, #281);
#280 = CARTESIAN_POINT('', (1.5, 0., -31.));
#281 = VECTOR('', #282, 1.5);
#282 = DIRECTION('', (-1.5, 0., 0.));
#283 = CARTESIAN_POINT('', (1.5, 0., -31.));
#284 = CARTESIAN_POINT('', (0., 0., -31.));
#285 = TRIMMED_CURVE('cutting part line', #286, (#290), (#291), .T., .CARTESIAN.);
#286 = LINE('', #287, #288);
#287 = CARTESIAN_POINT('', (0., 0., -31.));
#288 = VECTOR('', #289, 7.);
#289 = DIRECTION('', (0., 0., -7.));
#290 = CARTESIAN_POINT('', (0., 0., -31.));
#291 = CARTESIAN_POINT('', (0., 0., -38.));
#292 = COMPOSITE_CURVE('cutting part line', (#293, #294, #295, #296), .U.);
#293 = COMPOSITE_CURVE_SEGMENT(.CONTINUOUS., .T., #263);
#294 = COMPOSITE_CURVE_SEGMENT(.CONTINUOUS., .T., #271);
#295 = COMPOSITE_CURVE_SEGMENT(.CONTINUOUS., .T., #278);
#296 = COMPOSITE_CURVE_SEGMENT(.CONTINUOUS., .T., #285);
#297 = GEOMETRIC_SET('', (#292, #335));
#298 = PRESENTATION_STYLE_ASSIGNMENT((#299));
#299 = CURVE_STYLE('', #301, POSITIVE_LENGTH_MEASURE(1.E-6), #300);
#300 = COLOUR_RGB('', 0., 0., 1.);
#301 = DRAUGHTING_PRE_DEFINED_CURVE_FONT('continuous');
#302 = STYLED_ITEM('', (#298), #292);
#303 = PRESENTATION_STYLE_ASSIGNMENT((#304));
#304 = CURVE_STYLE('', #306, POSITIVE_LENGTH_MEASURE(1.E-6), #305);
#305 = COLOUR_RGB('', 0., 0., 1.);
#306 = DRAUGHTING_PRE_DEFINED_CURVE_FONT('continuous');
#307 = OVER_RIDING_STYLED_ITEM('', (#303), #263, #302);
#308 = PRESENTATION_STYLE_ASSIGNMENT((#309));
#309 = CURVE_STYLE('', #311, POSITIVE_LENGTH_MEASURE(1.E-6), #310);
#310 = COLOUR_RGB('', 0., 0., 1.);
#311 = DRAUGHTING_PRE_DEFINED_CURVE_FONT('continuous');
#312 = OVER_RIDING_STYLED_ITEM('', (#308), #271, #302);
#313 = PRESENTATION_STYLE_ASSIGNMENT((#314));
#314 = CURVE_STYLE('', #316, POSITIVE_LENGTH_MEASURE(1.E-6), #315);
#315 = COLOUR_RGB('', 0., 0., 1.);
#316 = DRAUGHTING_PRE_DEFINED_CURVE_FONT('continuous');
#317 = OVER_RIDING_STYLED_ITEM('', (#313), #278, #302);
#318 = PRESENTATION_STYLE_ASSIGNMENT((#319));
#319 = CURVE_STYLE('', #321, POSITIVE_LENGTH_MEASURE(1.E-6), #320);
#320 = COLOUR_RGB('', 0., 0., 1.);
#321 = DRAUGHTING_PRE_DEFINED_CURVE_FONT('continuous');
#322 = OVER_RIDING_STYLED_ITEM('', (#318), #285, #302);
#323 = AXIS2_PLACEMENT_3D('MCS', #324, #325, #326);
#324 = CARTESIAN_POINT('', (0., 0., -28.));
#325 = DIRECTION('', (0., 0., 1.));
#326 = DIRECTION('', (1., 0., 0.));
#327 = AXIS2_PLACEMENT_3D('PCS', #328, #329, #330);
#328 = CARTESIAN_POINT('', (0., 0., 0.));
#329 = DIRECTION('', (0., 0., 1.));
#330 = DIRECTION('', (1., 0., 0.));
#331 = AXIS2_PLACEMENT_3D('CIP', #332, #333, #334);
#332 = CARTESIAN_POINT('', (0., 0., -38.));
#333 = DIRECTION('', (0., 0., 1.));
#334 = DIRECTION('', (1., 0., 0.));
#335 = CARTESIAN_POINT('CRP', (1.5, 0., -38.));
#336 = (
   GEOMETRIC_REPRESENTATION_CONTEXT (3)
   GLOBAL_UNCERTAINTY_ASSIGNED_CONTEXT ((#338))
   GLOBAL_UNIT_ASSIGNED_CONTEXT ((#337, #339, #340))
   REPRESENTATION_CONTEXT ('', '3D')
);
#337 = (
   LENGTH_UNIT ()
   NAMED_UNIT (*)
   SI_UNIT (.MILLI., .METRE.)
);
#338 = UNCERTAINTY_MEASURE_WITH_UNIT(LENGTH_MEASURE(1.E-6), #337, 'DISTANCE_ACCURACY_VALUE', '');
#339 = (
   NAMED_UNIT (*)
   SI_UNIT ($, .STERADIAN.)
   SOLID_ANGLE_UNIT ()
);
#340 = (
   NAMED_UNIT (*)
   PLANE_ANGLE_UNIT ()
   SI_UNIT ($, .RADIAN.)
);
#341 = SHAPE_REPRESENTATION('', (), #336);
#342 = PRODUCT_DEFINITION_SHAPE('', '', #343);
#343 = PRODUCT_DEFINITION('', '', #346, #350);
#344 = APPLICATION_CONTEXT('configuration controlled 3D designs of mechanical parts and assemblies');
#345 = APPLICATION_PROTOCOL_DEFINITION('International Standard', 'automotive_design', 2002, #344);
#346 = PRODUCT_DEFINITION_FORMATION_WITH_SPECIFIED_SOURCE('', '', #347, .NOT_KNOWN.);
#347 = PRODUCT('product-name', '2B230-0300-NA       N20C', '', (#348));
#348 = PRODUCT_CONTEXT('', #344, 'mechanical');
#349 = PRODUCT_RELATED_PRODUCT_CATEGORY('detail', '', (#347));
#350 = PRODUCT_DEFINITION_CONTEXT('part definition', #344, 'design');
#351 = SHAPE_DEFINITION_REPRESENTATION(#342, #341);
#352 = CONSTRUCTIVE_GEOMETRY_REPRESENTATION('supplemental geometry', (#323, #327, #331), #336);
#353 = CONSTRUCTIVE_GEOMETRY_REPRESENTATION_RELATIONSHIP('', '', #341, #352);
#354 = SHAPE_REPRESENTATION_RELATIONSHIP('', '', #341, #355);
#355 = SHAPE_REPRESENTATION('', (#297), #336);
#356 = SHAPE_REPRESENTATION_RELATIONSHIP('', '', #341, #357);
#357 = ADVANCED_BREP_SHAPE_REPRESENTATION('', (#1, #155), #336);
ENDSEC;
END-ISO-10303-21;
