ISO-10303-21;
HEADER;
FILE_DESCRIPTION(('STEP'), '1');
FILE_NAME('C:\\Users\\ds2002\\OneDrive - Sandvik\\HomeShare\\Documents\\Batchrepair\\CorSRT2\\NEW_MILBN_SLD\\Output2\\MOD000000000000000020082227100000.stp', '2018-11-23T12:39:30', (''), (''), 'Express v3.0.0.0', 'Express Tool', 'Unknown');
FILE_SCHEMA(('AUTOMOTIVE_DESIGN'));
ENDSEC;

DATA;
#1 = MANIFOLD_SOLID_BREP('NOCUT', #2);
#2 = CLOSED_SHELL('', (#3, #50, #59, #98));
#3 = ADVANCED_FACE('', (#4), #31, .T.);
#4 = FACE_OUTER_BOUND('', #5, .T.);
#5 = EDGE_LOOP('', (#6, #16, #23, #24));
#6 = ORIENTED_EDGE('', *, *, #7, .T.);
#7 = EDGE_CURVE('', #8, #10, #12, .T.);
#8 = VERTEX_POINT('', #9);
#9 = CARTESIAN_POINT('', (-9.525, 6.4156184190332E-16, -0.952500000000001));
#10 = VERTEX_POINT('', #11);
#11 = CARTESIAN_POINT('', (-8.5725, 5.24914234284534E-16, 0.));
#12 = LINE('', #13, #14);
#13 = CARTESIAN_POINT('', (-9.525, 6.4156184190332E-16, -0.952500000000001));
#14 = VECTOR('', #15, 1.34703841816037);
#15 = DIRECTION('', (0.952500000000001, -1.16647607618786E-16, 0.952500000000001));
#16 = ORIENTED_EDGE('', *, *, #17, .T.);
#17 = EDGE_CURVE('', #10, #10, #18, .T.);
#18 = CIRCLE('', #19, 8.5725);
#19 = AXIS2_PLACEMENT_3D('', #20, #21, #22);
#20 = CARTESIAN_POINT('', (4.16333634234434E-16, 4.44089209850063E-15, 2.83496887813801E-31));
#21 = DIRECTION('', (5.09914260327739E-33, 6.12323399573676E-17, -1.));
#22 = DIRECTION('', (-1., -7.01736343115104E-16, -4.80681009253414E-32));
#23 = ORIENTED_EDGE('', *, *, #7, .F.);
#24 = ORIENTED_EDGE('', *, *, #25, .F.);
#25 = EDGE_CURVE('', #8, #8, #26, .T.);
#26 = CIRCLE('', #27, 9.525);
#27 = AXIS2_PLACEMENT_3D('', #28, #29, #30);
#28 = CARTESIAN_POINT('', (-3.60822483003176E-16, -2.66453525910038E-15, -0.952500000000001));
#29 = DIRECTION('', (2.3311769545935E-17, -3.61693232088461E-17, -1.));
#30 = DIRECTION('', (-1., 3.47096808504325E-16, -2.3311769545935E-17));
#31 = (
   BOUNDED_SURFACE ()
   B_SPLINE_SURFACE (1, 2, ((#32, #33, #34, #35, #36, #37, #38, #39, #40), (#41, #42, #43, #44, #45, #46, #47, #48, #49)), .UNSPECIFIED., .F., .T., .U.)
   B_SPLINE_SURFACE_WITH_KNOTS ((2, 2), (3, 2, 2, 2, 3), (0., 1.), (0., 0.25, 0.5, 0.75, 1.), .UNSPECIFIED.)
   GEOMETRIC_REPRESENTATION_ITEM ()
   RATIONAL_B_SPLINE_SURFACE (((1., 0.707106781186548, 1., 0.707106781186548, 1., 0.707106781186548, 1., 0.707106781186548, 1.), (1., 0.707106781186548, 1., 0.707106781186548, 1., 0.707106781186548, 1., 0.707106781186548, 1.)))
   REPRESENTATION_ITEM ('')
   SURFACE ()
);
#32 = CARTESIAN_POINT('', (-9.52500000000001, 3.71653412981382E-15, -0.952500000000002));
#33 = CARTESIAN_POINT('', (-9.525, 9.52500000000001, -0.952499999999978));
#34 = CARTESIAN_POINT('', (3.82718548211062E-15, 9.525, -0.952499999999978));
#35 = CARTESIAN_POINT('', (9.52500000000001, 9.52499999999999, -0.952499999999978));
#36 = CARTESIAN_POINT('', (9.525, -1.0099574621077E-14, -0.952500000000002));
#37 = CARTESIAN_POINT('', (9.52499999999999, -9.52500000000001, -0.952500000000027));
#38 = CARTESIAN_POINT('', (-8.82244719259238E-15, -9.52500000000001, -0.952500000000027));
#39 = CARTESIAN_POINT('', (-9.52500000000001, -9.525, -0.952500000000027));
#40 = CARTESIAN_POINT('', (-9.52500000000001, 3.71653412981382E-15, -0.952500000000002));
#41 = CARTESIAN_POINT('', (-8.57250000000001, 5.24914234284538E-16, 2.18952885050753E-46));
#42 = CARTESIAN_POINT('', (-8.5725, 8.5725, 2.19824158875781E-14));
#43 = CARTESIAN_POINT('', (3.13638004456607E-15, 8.5725, 2.19824158875781E-14));
#44 = CARTESIAN_POINT('', (8.57250000000001, 8.57249999999999, 2.19824158875781E-14));
#45 = CARTESIAN_POINT('', (8.5725, -1.19095836415172E-14, 1.95251242678014E-30));
#46 = CARTESIAN_POINT('', (8.57249999999999, -8.57250000000001, -2.19824158875781E-14));
#47 = CARTESIAN_POINT('', (-8.24828936266662E-15, -8.57250000000001, -2.19824158875781E-14));
#48 = CARTESIAN_POINT('', (-8.57250000000001, -8.5725, -2.19824158875781E-14));
#49 = CARTESIAN_POINT('', (-8.57250000000001, 5.24914234284538E-16, 2.18952885050753E-46));
#50 = ADVANCED_FACE('', (#51), #54, .T.);
#51 = FACE_OUTER_BOUND('', #52, .T.);
#52 = EDGE_LOOP('', (#53));
#53 = ORIENTED_EDGE('', *, *, #17, .F.);
#54 = B_SPLINE_SURFACE_WITH_KNOTS('', 1, 1, ((#55, #56), (#57, #58)), .UNSPECIFIED., .F., .F., .U., (2, 2), (2, 2), (4.7631803397877, 21.9081803397877), (4.7631803397877, 21.9081803397877), .UNSPECIFIED.);
#55 = CARTESIAN_POINT('', (8.5725, -8.5725, 1.36859404809175E-14));
#56 = CARTESIAN_POINT('', (-8.5725, -8.5725, -5.24914234284522E-16));
#57 = CARTESIAN_POINT('', (8.5725, 8.5725, 5.24914234284537E-16));
#58 = CARTESIAN_POINT('', (-8.5725, 8.5725, -1.36859404809175E-14));
#59 = ADVANCED_FACE('', (#60), #79, .T.);
#60 = FACE_OUTER_BOUND('', #61, .T.);
#61 = EDGE_LOOP('', (#62, #71, #77, #78));
#62 = ORIENTED_EDGE('', *, *, #63, .F.);
#63 = EDGE_CURVE('', #64, #64, #66, .T.);
#64 = VERTEX_POINT('', #65);
#65 = CARTESIAN_POINT('', (-9.525, 4.47149162538677E-15, -63.5));
#66 = CIRCLE('', #67, 9.525);
#67 = AXIS2_PLACEMENT_3D('', #68, #69, #70);
#68 = CARTESIAN_POINT('', (-1.58206781009085E-15, 3.10862446895044E-15, -63.5));
#69 = DIRECTION('', (-2.58583366486697E-31, 2.5389595510657E-15, -1.));
#70 = DIRECTION('', (-1., -1.01846193799409E-16, 0.));
#71 = ORIENTED_EDGE('', *, *, #72, .T.);
#72 = EDGE_CURVE('', #64, #8, #73, .T.);
#73 = LINE('', #74, #75);
#74 = CARTESIAN_POINT('', (-9.525, 4.47149162538677E-15, -63.5));
#75 = VECTOR('', #76, 62.5475);
#76 = DIRECTION('', (0., -3.82992978348345E-15, 62.5475));
#77 = ORIENTED_EDGE('', *, *, #25, .T.);
#78 = ORIENTED_EDGE('', *, *, #72, .F.);
#79 = (
   BOUNDED_SURFACE ()
   B_SPLINE_SURFACE (1, 2, ((#80, #81, #82, #83, #84, #85, #86, #87, #88), (#89, #90, #91, #92, #93, #94, #95, #96, #97)), .UNSPECIFIED., .F., .T., .U.)
   B_SPLINE_SURFACE_WITH_KNOTS ((2, 2), (3, 2, 2, 2, 3), (-0.234957302927094, 1.), (0., 0.25, 0.5, 0.75, 1.), .UNSPECIFIED.)
   GEOMETRIC_REPRESENTATION_ITEM ()
   RATIONAL_B_SPLINE_SURFACE (((1., 0.707106781186548, 1., 0.707106781186548, 1., 0.707106781186548, 1., 0.707106781186548, 1.), (1., 0.707106781186548, 1., 0.707106781186548, 1., 0.707106781186548, 1., 0.707106781186548, 1.)))
   REPRESENTATION_ITEM ('')
   SURFACE ()
);
#80 = CARTESIAN_POINT('', (-9.52500000000001, 3.97223091577879E-15, -63.5));
#81 = CARTESIAN_POINT('', (-9.525, 9.525, -63.5));
#82 = CARTESIAN_POINT('', (-2.89671981340123E-15, 9.525, -63.5));
#83 = CARTESIAN_POINT('', (9.525, 9.525, -63.5));
#84 = CARTESIAN_POINT('', (9.52499999999999, -3.24984404944099E-15, -63.5));
#85 = CARTESIAN_POINT('', (9.52499999999999, -9.525, -63.5));
#86 = CARTESIAN_POINT('', (-8.95231870243316E-15, -9.525, -63.5));
#87 = CARTESIAN_POINT('', (-9.52500000000001, -9.525, -63.5));
#88 = CARTESIAN_POINT('', (-9.52500000000001, 3.97223091577879E-15, -63.5));
#89 = CARTESIAN_POINT('', (-9.525, 6.41561841903319E-16, -0.952500000000001));
#90 = CARTESIAN_POINT('', (-9.525, 9.525, -0.9525));
#91 = CARTESIAN_POINT('', (6.58088407348219E-15, 9.525, -0.952500000000002));
#92 = CARTESIAN_POINT('', (9.52500000000001, 9.525, -0.952500000000003));
#93 = CARTESIAN_POINT('', (9.52500000000001, -6.58051312331647E-15, -0.952500000000004));
#94 = CARTESIAN_POINT('', (9.525, -9.52500000000001, -0.952500000000004));
#95 = CARTESIAN_POINT('', (5.25285184450255E-16, -9.52500000000001, -0.952500000000003));
#96 = CARTESIAN_POINT('', (-9.525, -9.525, -0.952500000000002));
#97 = CARTESIAN_POINT('', (-9.525, 6.41561841903319E-16, -0.952500000000001));
#98 = ADVANCED_FACE('', (#99), #102, .T.);
#99 = FACE_OUTER_BOUND('', #100, .T.);
#100 = EDGE_LOOP('', (#101));
#101 = ORIENTED_EDGE('', *, *, #63, .T.);
#102 = B_SPLINE_SURFACE_WITH_KNOTS('', 1, 1, ((#103, #104), (#105, #106)), .UNSPECIFIED., .F., .F., .U., (2, 2), (2, 2), (97.967457891634, 117.017457891634), (93.204956844759, 112.254956844759), .UNSPECIFIED.);
#103 = CARTESIAN_POINT('', (-9.525, 9.52500000000001, -63.5));
#104 = CARTESIAN_POINT('', (-9.525, -9.52500000000001, -63.5));
#105 = CARTESIAN_POINT('', (9.52500000000001, 9.52500000000001, -63.5));
#106 = CARTESIAN_POINT('', (9.52500000000001, -9.52500000000001, -63.5));
#107 = DRAUGHTING_MODEL('', (#115, #223, #263, #268, #273, #278, #283), #297);
#108 = PRESENTATION_STYLE_ASSIGNMENT((#109));
#109 = SURFACE_STYLE_USAGE(.POSITIVE., #110);
#110 = SURFACE_SIDE_STYLE('', (#111));
#111 = SURFACE_STYLE_FILL_AREA(#112);
#112 = FILL_AREA_STYLE('', (#113));
#113 = FILL_AREA_STYLE_COLOUR('', #114);
#114 = COLOUR_RGB('', 0.50196078431373, 0.50196078431373, 0.50196078431373);
#115 = STYLED_ITEM('', (#108), #1);
#116 = MANIFOLD_SOLID_BREP('CUT', #117);
#117 = CLOSED_SHELL('', (#118, #135, #174));
#118 = ADVANCED_FACE('', (#119), #130, .T.);
#119 = FACE_OUTER_BOUND('', #120, .T.);
#120 = EDGE_LOOP('', (#121));
#121 = ORIENTED_EDGE('', *, *, #122, .F.);
#122 = EDGE_CURVE('', #123, #123, #125, .T.);
#123 = VERTEX_POINT('', #124);
#124 = CARTESIAN_POINT('', (-9.525, 4.47149162538677E-15, -63.5));
#125 = CIRCLE('', #126, 9.525);
#126 = AXIS2_PLACEMENT_3D('', #127, #128, #129);
#127 = CARTESIAN_POINT('', (-1.58206781009085E-15, 3.10862446895044E-15, -63.5));
#128 = DIRECTION('', (-2.58583366486697E-31, 2.5389595510657E-15, -1.));
#129 = DIRECTION('', (-1., -1.01846193799409E-16, 0.));
#130 = B_SPLINE_SURFACE_WITH_KNOTS('', 1, 1, ((#131, #132), (#133, #134)), .UNSPECIFIED., .F., .F., .U., (2, 2), (2, 2), (93.204956844759, 112.254956844759), (97.967457891634, 117.017457891634), .UNSPECIFIED.);
#131 = CARTESIAN_POINT('', (-9.52500000000001, 9.52500000000001, -63.5));
#132 = CARTESIAN_POINT('', (9.52500000000001, 9.52500000000001, -63.5));
#133 = CARTESIAN_POINT('', (-9.52500000000001, -9.52500000000001, -63.5));
#134 = CARTESIAN_POINT('', (9.52500000000001, -9.52500000000001, -63.5));
#135 = ADVANCED_FACE('', (#136), #155, .T.);
#136 = FACE_OUTER_BOUND('', #137, .T.);
#137 = EDGE_LOOP('', (#138, #139, #147, #154));
#138 = ORIENTED_EDGE('', *, *, #122, .T.);
#139 = ORIENTED_EDGE('', *, *, #140, .F.);
#140 = EDGE_CURVE('', #141, #123, #143, .T.);
#141 = VERTEX_POINT('', #142);
#142 = CARTESIAN_POINT('', (-9.525, 6.22120573966855E-15, -92.075));
#143 = LINE('', #144, #145);
#144 = CARTESIAN_POINT('', (-9.525, 6.22120573966855E-15, -92.075));
#145 = VECTOR('', #146, 28.575);
#146 = DIRECTION('', (0., -1.74971411428178E-15, 28.575));
#147 = ORIENTED_EDGE('', *, *, #148, .F.);
#148 = EDGE_CURVE('', #141, #141, #149, .T.);
#149 = CIRCLE('', #150, 9.52500000000001);
#150 = AXIS2_PLACEMENT_3D('', #151, #152, #153);
#151 = CARTESIAN_POINT('', (-3.33066907387547E-16, 3.99680288865056E-15, -92.075));
#152 = DIRECTION('', (0., 0., -1.));
#153 = DIRECTION('', (-1., 2.33533107718424E-16, 0.));
#154 = ORIENTED_EDGE('', *, *, #140, .T.);
#155 = (
   BOUNDED_SURFACE ()
   B_SPLINE_SURFACE (1, 2, ((#156, #157, #158, #159, #160, #161, #162, #163, #164), (#165, #166, #167, #168, #169, #170, #171, #172, #173)), .UNSPECIFIED., .F., .T., .U.)
   B_SPLINE_SURFACE_WITH_KNOTS ((2, 2), (3, 2, 2, 2, 3), (-0.799150994619675, -0.234957302927094), (0., 0.25, 0.5, 0.75, 1.), .UNSPECIFIED.)
   GEOMETRIC_REPRESENTATION_ITEM ()
   RATIONAL_B_SPLINE_SURFACE (((1., 0.707106781186548, 1., 0.707106781186548, 1., 0.707106781186548, 1., 0.707106781186548, 1.), (1., 0.707106781186548, 1., 0.707106781186548, 1., 0.707106781186548, 1., 0.707106781186548, 1.)))
   REPRESENTATION_ITEM ('')
   SURFACE ()
);
#156 = CARTESIAN_POINT('', (-9.525, 7.13602688448715E-15, -92.075));
#157 = CARTESIAN_POINT('', (-9.525, 9.52500000000001, -92.075));
#158 = CARTESIAN_POINT('', (6.91361132939639E-15, 9.525, -92.075));
#159 = CARTESIAN_POINT('', (9.52500000000001, 9.525, -92.075));
#160 = CARTESIAN_POINT('', (9.52500000000001, -1.0845694999486E-15, -92.075));
#161 = CARTESIAN_POINT('', (9.525, -9.525, -92.075));
#162 = CARTESIAN_POINT('', (-1.40508978851498E-16, -9.525, -92.075));
#163 = CARTESIAN_POINT('', (-9.525, -9.525, -92.075));
#164 = CARTESIAN_POINT('', (-9.525, 7.13602688448715E-15, -92.075));
#165 = CARTESIAN_POINT('', (-9.525, 4.47149162538677E-15, -63.5));
#166 = CARTESIAN_POINT('', (-9.525, 9.52500000000001, -63.5));
#167 = CARTESIAN_POINT('', (6.91361132939639E-15, 9.525, -63.5));
#168 = CARTESIAN_POINT('', (9.52500000000001, 9.525, -63.5));
#169 = CARTESIAN_POINT('', (9.52500000000001, -3.74910475904898E-15, -63.5));
#170 = CARTESIAN_POINT('', (9.525, -9.52500000000001, -63.5));
#171 = CARTESIAN_POINT('', (-1.40508978851499E-16, -9.525, -63.5));
#172 = CARTESIAN_POINT('', (-9.525, -9.525, -63.5));
#173 = CARTESIAN_POINT('', (-9.525, 4.47149162538677E-15, -63.5));
#174 = ADVANCED_FACE('', (#175), #188, .T.);
#175 = FACE_OUTER_BOUND('', #176, .T.);
#176 = EDGE_LOOP('', (#177, #186, #187));
#177 = ORIENTED_EDGE('', *, *, #178, .F.);
#178 = EDGE_CURVE('', #141, #179, #181, .T.);
#179 = VERTEX_POINT('', #180);
#180 = CARTESIAN_POINT('', (7.96696305218266E-15, 6.22120573966855E-15, -101.6));
#181 = CIRCLE('', #182, 9.52499999999999);
#182 = AXIS2_PLACEMENT_3D('', #183, #184, #185);
#183 = CARTESIAN_POINT('', (-7.105427357601E-15, 5.63796770157462E-15, -92.075));
#184 = DIRECTION('', (-6.12323399573679E-17, -1., -6.12323399573679E-17));
#185 = DIRECTION('', (-1., 6.12323399573679E-17, 0.));
#186 = ORIENTED_EDGE('', *, *, #148, .T.);
#187 = ORIENTED_EDGE('', *, *, #178, .T.);
#188 = (
   BOUNDED_SURFACE ()
   B_SPLINE_SURFACE (2, 2, ((#189, #190, #191), (#192, #193, #194), (#195, #196, #197), (#198, #199, #200), (#201, #202, #203), (#204, #205, #206), (#207, #208, #209), (#210, #211, #212), (#213, #214, #215)), .UNSPECIFIED., .T., .F., .U.)
   B_SPLINE_SURFACE_WITH_KNOTS ((3, 2, 2, 2, 3), (3, 3), (0., 0.25, 0.5, 0.75, 1.), (0., 1.), .UNSPECIFIED.)
   GEOMETRIC_REPRESENTATION_ITEM ()
   RATIONAL_B_SPLINE_SURFACE (((1., 0.707106781186548, 1.), (0.707106781186548, 0.5, 0.707106781186548), (1., 0.707106781186548, 1.), (0.707106781186548, 0.5, 0.707106781186548), (1., 0.707106781186548, 1.), (0.707106781186548, 0.5, 0.707106781186548), (1., 0.707106781186548, 1.), (0.707106781186548, 0.5, 0.707106781186548), (1., 0.707106781186548, 1.)))
   REPRESENTATION_ITEM ('')
   SURFACE ()
);
#189 = CARTESIAN_POINT('', (-9.525, 6.22120573966855E-15, -92.075));
#190 = CARTESIAN_POINT('', (-9.52499999999999, 6.80444377776248E-15, -101.6));
#191 = CARTESIAN_POINT('', (7.96696305218266E-15, 6.22120573966855E-15, -101.6));
#192 = CARTESIAN_POINT('', (-9.525, 9.52500000000001, -92.075));
#193 = CARTESIAN_POINT('', (-9.52499999999994, 9.52500000000002, -101.6));
#194 = CARTESIAN_POINT('', (7.96696305218266E-15, 6.22120573966855E-15, -101.6));
#195 = CARTESIAN_POINT('', (8.88178419700142E-15, 9.52500000000001, -92.075));
#196 = CARTESIAN_POINT('', (6.99082861023091E-14, 9.52499999999997, -101.6));
#197 = CARTESIAN_POINT('', (7.96696305218266E-15, 6.22120573966855E-15, -101.6));
#198 = CARTESIAN_POINT('', (9.52500000000002, 9.52500000000001, -92.075));
#199 = CARTESIAN_POINT('', (9.52500000000008, 9.52499999999993, -101.6));
#200 = CARTESIAN_POINT('', (7.96696305218266E-15, 6.22120573966855E-15, -101.6));
#201 = CARTESIAN_POINT('', (9.52500000000002, 6.22120573966839E-15, -92.075));
#202 = CARTESIAN_POINT('', (9.52500000000004, -8.6826850602449E-14, -101.6));
#203 = CARTESIAN_POINT('', (7.96696305218266E-15, 6.22120573966855E-15, -101.6));
#204 = CARTESIAN_POINT('', (9.52500000000002, -9.525, -92.0749999999999));
#205 = CARTESIAN_POINT('', (9.52499999999999, -9.5250000000001, -101.6));
#206 = CARTESIAN_POINT('', (7.96696305218266E-15, 6.22120573966855E-15, -101.6));
#207 = CARTESIAN_POINT('', (1.0048260273189E-14, -9.525, -92.0749999999999));
#208 = CARTESIAN_POINT('', (-2.25565322017147E-14, -9.52500000000005, -101.6));
#209 = CARTESIAN_POINT('', (7.96696305218266E-15, 6.22120573966855E-15, -101.6));
#210 = CARTESIAN_POINT('', (-9.525, -9.52500000000001, -92.075));
#211 = CARTESIAN_POINT('', (-9.52500000000003, -9.52500000000001, -101.6));
#212 = CARTESIAN_POINT('', (7.96696305218266E-15, 6.22120573966855E-15, -101.6));
#213 = CARTESIAN_POINT('', (-9.525, 6.22120573966855E-15, -92.075));
#214 = CARTESIAN_POINT('', (-9.52499999999999, 6.80444377776248E-15, -101.6));
#215 = CARTESIAN_POINT('', (7.96696305218266E-15, 6.22120573966855E-15, -101.6));
#216 = PRESENTATION_STYLE_ASSIGNMENT((#217));
#217 = SURFACE_STYLE_USAGE(.POSITIVE., #218);
#218 = SURFACE_SIDE_STYLE('', (#219));
#219 = SURFACE_STYLE_FILL_AREA(#220);
#220 = FILL_AREA_STYLE('', (#221));
#221 = FILL_AREA_STYLE_COLOUR('', #222);
#222 = COLOUR_RGB('', 0.8, 0.8, 0.8);
#223 = STYLED_ITEM('', (#216), #116);
#224 = TRIMMED_CURVE('cutting part line', #225, (#229), (#230), .T., .CARTESIAN.);
#225 = LINE('', #226, #227);
#226 = CARTESIAN_POINT('', (-7.1426059649271E-31, -3.88825358729285E-15, -63.5));
#227 = VECTOR('', #228, 9.525);
#228 = DIRECTION('', (9.525, -1.74971411428177E-15, 0.));
#229 = CARTESIAN_POINT('', (-7.1426059649271E-31, -3.88825358729285E-15, -63.5));
#230 = CARTESIAN_POINT('', (9.525, -5.63796770157462E-15, -63.5));
#231 = TRIMMED_CURVE('cutting part line', #232, (#236), (#237), .T., .CARTESIAN.);
#232 = LINE('', #233, #234);
#233 = CARTESIAN_POINT('', (9.525, -5.63796770157462E-15, -63.5));
#234 = VECTOR('', #235, 28.575);
#235 = DIRECTION('', (0., -1.74971411428178E-15, -28.575));
#236 = CARTESIAN_POINT('', (9.525, -5.63796770157462E-15, -63.5));
#237 = CARTESIAN_POINT('', (9.525, -7.3876818158564E-15, -92.075));
#238 = TRIMMED_CURVE('cutting part line', #239, (#244), (#245), .T., .CARTESIAN.);
#239 = CIRCLE('', #240, 9.52500000000001);
#240 = AXIS2_PLACEMENT_3D('', #241, #242, #243);
#241 = CARTESIAN_POINT('', (-5.32907051820075E-15, -5.63796770157462E-15, -92.075));
#242 = DIRECTION('', (1.83697019872103E-16, 1., -6.12323399573678E-17));
#243 = DIRECTION('', (1., -1.83697019872103E-16, -2.98390650187968E-15));
#244 = CARTESIAN_POINT('', (9.52500000000001, -7.38768181585641E-15, -92.075));
#245 = CARTESIAN_POINT('', (-9.90281842949067E-15, -6.22120573966855E-15, -101.6));
#246 = TRIMMED_CURVE('cutting part line', #247, (#251), (#252), .T., .CARTESIAN.);
#247 = LINE('', #248, #249);
#248 = CARTESIAN_POINT('', (-1.14281695438834E-30, -6.22120573966855E-15, -101.6));
#249 = VECTOR('', #250, 38.1);
#250 = DIRECTION('', (4.28556357895625E-31, 2.3329521523757E-15, 38.1));
#251 = CARTESIAN_POINT('', (-1.14281695438834E-30, -6.22120573966855E-15, -101.6));
#252 = CARTESIAN_POINT('', (-7.1426059649271E-31, -3.88825358729285E-15, -63.5));
#253 = COMPOSITE_CURVE('cutting part line', (#254, #255, #256, #257), .U.);
#254 = COMPOSITE_CURVE_SEGMENT(.CONTINUOUS., .T., #224);
#255 = COMPOSITE_CURVE_SEGMENT(.CONTINUOUS., .T., #231);
#256 = COMPOSITE_CURVE_SEGMENT(.CONTINUOUS., .T., #238);
#257 = COMPOSITE_CURVE_SEGMENT(.CONTINUOUS., .T., #246);
#258 = GEOMETRIC_SET('', (#253, #296));
#259 = PRESENTATION_STYLE_ASSIGNMENT((#260));
#260 = CURVE_STYLE('', #262, POSITIVE_LENGTH_MEASURE(1.E-6), #261);
#261 = COLOUR_RGB('', 0., 0., 1.);
#262 = DRAUGHTING_PRE_DEFINED_CURVE_FONT('continuous');
#263 = STYLED_ITEM('', (#259), #253);
#264 = PRESENTATION_STYLE_ASSIGNMENT((#265));
#265 = CURVE_STYLE('', #267, POSITIVE_LENGTH_MEASURE(1.E-6), #266);
#266 = COLOUR_RGB('', 0., 0., 1.);
#267 = DRAUGHTING_PRE_DEFINED_CURVE_FONT('continuous');
#268 = OVER_RIDING_STYLED_ITEM('', (#264), #224, #263);
#269 = PRESENTATION_STYLE_ASSIGNMENT((#270));
#270 = CURVE_STYLE('', #272, POSITIVE_LENGTH_MEASURE(1.E-6), #271);
#271 = COLOUR_RGB('', 0., 0., 1.);
#272 = DRAUGHTING_PRE_DEFINED_CURVE_FONT('continuous');
#273 = OVER_RIDING_STYLED_ITEM('', (#269), #231, #263);
#274 = PRESENTATION_STYLE_ASSIGNMENT((#275));
#275 = CURVE_STYLE('', #277, POSITIVE_LENGTH_MEASURE(1.E-6), #276);
#276 = COLOUR_RGB('', 0., 0., 1.);
#277 = DRAUGHTING_PRE_DEFINED_CURVE_FONT('continuous');
#278 = OVER_RIDING_STYLED_ITEM('', (#274), #238, #263);
#279 = PRESENTATION_STYLE_ASSIGNMENT((#280));
#280 = CURVE_STYLE('', #282, POSITIVE_LENGTH_MEASURE(1.E-6), #281);
#281 = COLOUR_RGB('', 0., 0., 1.);
#282 = DRAUGHTING_PRE_DEFINED_CURVE_FONT('continuous');
#283 = OVER_RIDING_STYLED_ITEM('', (#279), #246, #263);
#284 = AXIS2_PLACEMENT_3D('CIP', #285, #286, #287);
#285 = CARTESIAN_POINT('', (3.80938984796112E-31, 6.22120573966855E-15, -101.6));
#286 = DIRECTION('', (-3.74939945665465E-33, -6.12323399573677E-17, 1.));
#287 = DIRECTION('', (1., -6.12323399573677E-17, 0.));
#288 = AXIS2_PLACEMENT_3D('MCS', #289, #290, #291);
#289 = CARTESIAN_POINT('', (1.9346901196338E-31, 3.15958874180017E-15, -51.6));
#290 = DIRECTION('', (-3.74939945665465E-33, -6.12323399573677E-17, 1.));
#291 = DIRECTION('', (1., -6.12323399573677E-17, 0.));
#292 = AXIS2_PLACEMENT_3D('PCS', #293, #294, #295);
#293 = CARTESIAN_POINT('', (0., 0., 0.));
#294 = DIRECTION('', (0., 0., 1.));
#295 = DIRECTION('', (1., 0., 0.));
#296 = CARTESIAN_POINT('CRP', (9.525, 0., -101.6));
#297 = (
   GEOMETRIC_REPRESENTATION_CONTEXT (3)
   GLOBAL_UNCERTAINTY_ASSIGNED_CONTEXT ((#299))
   GLOBAL_UNIT_ASSIGNED_CONTEXT ((#298, #300, #301))
   REPRESENTATION_CONTEXT ('', '3D')
);
#298 = (
   LENGTH_UNIT ()
   NAMED_UNIT (*)
   SI_UNIT (.MILLI., .METRE.)
);
#299 = UNCERTAINTY_MEASURE_WITH_UNIT(LENGTH_MEASURE(1.E-6), #298, 'DISTANCE_ACCURACY_VALUE', '');
#300 = (
   NAMED_UNIT (*)
   SI_UNIT ($, .STERADIAN.)
   SOLID_ANGLE_UNIT ()
);
#301 = (
   NAMED_UNIT (*)
   PLANE_ANGLE_UNIT ()
   SI_UNIT ($, .RADIAN.)
);
#302 = SHAPE_REPRESENTATION('', (), #297);
#303 = PRODUCT_DEFINITION_SHAPE('', '', #304);
#304 = PRODUCT_DEFINITION('', '', #307, #311);
#305 = APPLICATION_CONTEXT('configuration controlled 3D designs of mechanical parts and assemblies');
#306 = APPLICATION_PROTOCOL_DEFINITION('International Standard', 'automotive_design', 2002, #305);
#307 = PRODUCT_DEFINITION_FORMATION_WITH_SPECIFIED_SOURCE('', '', #308, .NOT_KNOWN.);
#308 = PRODUCT('NONE', '1B232-1905-XA       1620', '', (#309));
#309 = PRODUCT_CONTEXT('', #305, 'mechanical');
#310 = PRODUCT_RELATED_PRODUCT_CATEGORY('detail', '', (#308));
#311 = PRODUCT_DEFINITION_CONTEXT('part definition', #305, 'design');
#312 = SHAPE_DEFINITION_REPRESENTATION(#303, #302);
#313 = CONSTRUCTIVE_GEOMETRY_REPRESENTATION('supplemental geometry', (#284, #288, #292), #297);
#314 = CONSTRUCTIVE_GEOMETRY_REPRESENTATION_RELATIONSHIP('', '', #302, #313);
#315 = SHAPE_REPRESENTATION_RELATIONSHIP('', '', #302, #316);
#316 = SHAPE_REPRESENTATION('', (#258), #297);
#317 = SHAPE_REPRESENTATION_RELATIONSHIP('', '', #302, #318);
#318 = ADVANCED_BREP_SHAPE_REPRESENTATION('', (#1, #116), #297);
ENDSEC;
END-ISO-10303-21;
