ISO-10303-21;
HEADER;
FILE_DESCRIPTION(('STEP'), '1');
FILE_NAME('C:\\Users\\ds2002\\OneDrive - Sandvik\\HomeShare\\Documents\\Batchrepair\\CorSRT2\\NEW_MILBN_SLD\\Output2\\MOD000000000000000020082226000000.stp', '2018-11-23T12:39:04', (''), (''), 'Express v3.0.0.0', 'Express Tool', 'Unknown');
FILE_SCHEMA(('AUTOMOTIVE_DESIGN'));
ENDSEC;

DATA;
#1 = MANIFOLD_SOLID_BREP('NOCUT', #2);
#2 = CLOSED_SHELL('', (#3, #50, #59, #98));
#3 = ADVANCED_FACE('', (#4), #31, .T.);
#4 = FACE_OUTER_BOUND('', #5, .T.);
#5 = EDGE_LOOP('', (#6, #16, #23, #24));
#6 = ORIENTED_EDGE('', *, *, #7, .T.);
#7 = EDGE_CURVE('', #8, #10, #12, .T.);
#8 = VERTEX_POINT('', #9);
#9 = CARTESIAN_POINT('', (-6.35, 4.27707894602213E-16, -0.634999999999998));
#10 = VERTEX_POINT('', #11);
#11 = CARTESIAN_POINT('', (-5.715, 3.49942822856356E-16, 0.));
#12 = LINE('', #13, #14);
#13 = CARTESIAN_POINT('', (-6.35, 4.27707894602213E-16, -0.634999999999998));
#14 = VECTOR('', #15, 0.898025612106914);
#15 = DIRECTION('', (0.635, -7.7765071745857E-17, 0.634999999999998));
#16 = ORIENTED_EDGE('', *, *, #17, .T.);
#17 = EDGE_CURVE('', #10, #10, #18, .T.);
#18 = CIRCLE('', #19, 5.715);
#19 = AXIS2_PLACEMENT_3D('', #20, #21, #22);
#20 = CARTESIAN_POINT('', (-6.93889390390723E-16, -1.33226762955019E-15, -5.54667823983524E-32));
#21 = DIRECTION('', (8.31826769960494E-33, 6.12323399573676E-17, -1.));
#22 = DIRECTION('', (-1., 2.94350035416718E-16, 9.70547373549474E-33));
#23 = ORIENTED_EDGE('', *, *, #7, .F.);
#24 = ORIENTED_EDGE('', *, *, #25, .F.);
#25 = EDGE_CURVE('', #8, #8, #26, .T.);
#26 = CIRCLE('', #27, 6.35);
#27 = AXIS2_PLACEMENT_3D('', #28, #29, #30);
#28 = CARTESIAN_POINT('', (3.21964677141295E-15, -9.99200722162641E-16, -0.634999999999998));
#29 = DIRECTION('', (1.74838271594513E-17, -5.68804246456846E-17, -1.));
#30 = DIRECTION('', (-1., 2.24710018388166E-16, -1.74838271594513E-17));
#31 = (
   BOUNDED_SURFACE ()
   B_SPLINE_SURFACE (1, 2, ((#32, #33, #34, #35, #36, #37, #38, #39, #40), (#41, #42, #43, #44, #45, #46, #47, #48, #49)), .UNSPECIFIED., .F., .T., .U.)
   B_SPLINE_SURFACE_WITH_KNOTS ((2, 2), (3, 2, 2, 2, 3), (0., 1.), (0., 0.25, 0.5, 0.75, 1.), .UNSPECIFIED.)
   GEOMETRIC_REPRESENTATION_ITEM ()
   RATIONAL_B_SPLINE_SURFACE (((1., 0.707106781186548, 1., 0.707106781186548, 1., 0.707106781186548, 1., 0.707106781186548, 1.), (1., 0.707106781186548, 1., 0.707106781186548, 1., 0.707106781186548, 1., 0.707106781186548, 1.)))
   REPRESENTATION_ITEM ('')
   SURFACE ()
);
#32 = CARTESIAN_POINT('', (-6.35, -1.37519566928624E-15, -0.634999999999996));
#33 = CARTESIAN_POINT('', (-6.35, 6.35, -0.635000000000015));
#34 = CARTESIAN_POINT('', (3.30872697993429E-15, 6.35, -0.635000000000017));
#35 = CARTESIAN_POINT('', (6.35, 6.35, -0.635000000000019));
#36 = CARTESIAN_POINT('', (6.35, -3.84235794623103E-15, -0.635));
#37 = CARTESIAN_POINT('', (6.35, -6.35, -0.634999999999981));
#38 = CARTESIAN_POINT('', (1.61921542044808E-15, -6.35, -0.634999999999979));
#39 = CARTESIAN_POINT('', (-6.35, -6.35, -0.634999999999977));
#40 = CARTESIAN_POINT('', (-6.35, -1.37519566928624E-15, -0.634999999999996));
#41 = CARTESIAN_POINT('', (-5.715, 3.49942822856355E-16, -3.94430452610506E-31));
#42 = CARTESIAN_POINT('', (-5.715, 5.715, -1.6986412276765E-14));
#43 = CARTESIAN_POINT('', (3.35842464949109E-15, 5.715, -1.85439143274014E-14));
#44 = CARTESIAN_POINT('', (5.71500000000001, 5.715, -2.01014163780378E-14));
#45 = CARTESIAN_POINT('', (5.715, -1.87050322639396E-15, -3.11500410127276E-15));
#46 = CARTESIAN_POINT('', (5.715, -5.715, 1.38714081754922E-14));
#47 = CARTESIAN_POINT('', (1.8378642459535E-15, -5.715, 1.54289102261286E-14));
#48 = CARTESIAN_POINT('', (-5.715, -5.715, 1.6986412276765E-14));
#49 = CARTESIAN_POINT('', (-5.715, 3.49942822856355E-16, -3.94430452610506E-31));
#50 = ADVANCED_FACE('', (#51), #54, .T.);
#51 = FACE_OUTER_BOUND('', #52, .T.);
#52 = EDGE_LOOP('', (#53));
#53 = ORIENTED_EDGE('', *, *, #17, .F.);
#54 = B_SPLINE_SURFACE_WITH_KNOTS('', 1, 1, ((#55, #56), (#57, #58)), .UNSPECIFIED., .F., .F., .U., (2, 2), (2, 2), (3.17545355985846, 14.6054535598585), (3.17545355985846, 14.6054535598585), .UNSPECIFIED.);
#55 = CARTESIAN_POINT('', (5.715, -5.715, -2.16662248956594E-14));
#56 = CARTESIAN_POINT('', (-5.715, -5.715, -7.4553701804574E-15));
#57 = CARTESIAN_POINT('', (5.715, 5.715, -6.75548453474466E-15));
#58 = CARTESIAN_POINT('', (-5.715, 5.715, 7.45537018045732E-15));
#59 = ADVANCED_FACE('', (#60), #79, .T.);
#60 = FACE_OUTER_BOUND('', #61, .T.);
#61 = EDGE_LOOP('', (#62, #71, #77, #78));
#62 = ORIENTED_EDGE('', *, *, #63, .F.);
#63 = EDGE_CURVE('', #64, #64, #66, .T.);
#64 = VERTEX_POINT('', #65);
#65 = CARTESIAN_POINT('', (-6.35, 5.0547296634807E-15, -76.2));
#66 = CIRCLE('', #67, 6.35);
#67 = AXIS2_PLACEMENT_3D('', #68, #69, #70);
#68 = CARTESIAN_POINT('', (9.71445146547012E-16, 5.99520433297585E-15, -76.2));
#69 = DIRECTION('', (0., 0., -1.));
#70 = DIRECTION('', (-1., -1.4810624716459E-16, 0.));
#71 = ORIENTED_EDGE('', *, *, #72, .F.);
#72 = EDGE_CURVE('', #8, #64, #73, .T.);
#73 = LINE('', #74, #75);
#74 = CARTESIAN_POINT('', (-6.35, 4.27707894602213E-16, -0.634999999999998));
#75 = VECTOR('', #76, 75.565);
#76 = DIRECTION('', (0., 4.62702176887849E-15, -75.565));
#77 = ORIENTED_EDGE('', *, *, #25, .T.);
#78 = ORIENTED_EDGE('', *, *, #72, .T.);
#79 = (
   BOUNDED_SURFACE ()
   B_SPLINE_SURFACE (1, 2, ((#80, #81, #82, #83, #84, #85, #86, #87, #88), (#89, #90, #91, #92, #93, #94, #95, #96, #97)), .UNSPECIFIED., .F., .T., .U.)
   B_SPLINE_SURFACE_WITH_KNOTS ((2, 2), (3, 2, 2, 2, 3), (-0.691816858838017, 1.), (0., 0.25, 0.5, 0.75, 1.), .UNSPECIFIED.)
   GEOMETRIC_REPRESENTATION_ITEM ()
   RATIONAL_B_SPLINE_SURFACE (((1., 0.707106781186548, 1., 0.707106781186548, 1., 0.707106781186548, 1., 0.707106781186548, 1.), (1., 0.707106781186548, 1., 0.707106781186548, 1., 0.707106781186548, 1., 0.707106781186548, 1.)))
   REPRESENTATION_ITEM ('')
   SURFACE ()
);
#80 = CARTESIAN_POINT('', (-6.35, 2.87019854877756E-15, -76.2));
#81 = CARTESIAN_POINT('', (-6.35, 6.35, -76.2));
#82 = CARTESIAN_POINT('', (-4.92936549932465E-15, 6.35, -76.2));
#83 = CARTESIAN_POINT('', (6.34999999999999, 6.35000000000001, -76.2));
#84 = CARTESIAN_POINT('', (6.35, 9.23172701985761E-15, -76.2));
#85 = CARTESIAN_POINT('', (6.35, -6.34999999999999, -76.2));
#86 = CARTESIAN_POINT('', (2.20981368921397E-15, -6.34999999999999, -76.2));
#87 = CARTESIAN_POINT('', (-6.35, -6.35, -76.2));
#88 = CARTESIAN_POINT('', (-6.35, 2.87019854877756E-15, -76.2));
#89 = CARTESIAN_POINT('', (-6.35, 4.27707894602212E-16, -0.634999999999998));
#90 = CARTESIAN_POINT('', (-6.35, 6.35, -0.634999999999998));
#91 = CARTESIAN_POINT('', (-4.92936549932465E-15, 6.35, -0.634999999999998));
#92 = CARTESIAN_POINT('', (6.34999999999999, 6.35000000000001, -0.634999999999998));
#93 = CARTESIAN_POINT('', (6.35, 6.78923636568227E-15, -0.634999999999998));
#94 = CARTESIAN_POINT('', (6.35, -6.34999999999999, -0.634999999999998));
#95 = CARTESIAN_POINT('', (2.20981368921397E-15, -6.35, -0.634999999999998));
#96 = CARTESIAN_POINT('', (-6.35, -6.35, -0.634999999999998));
#97 = CARTESIAN_POINT('', (-6.35, 4.27707894602212E-16, -0.634999999999998));
#98 = ADVANCED_FACE('', (#99), #102, .T.);
#99 = FACE_OUTER_BOUND('', #100, .T.);
#100 = EDGE_LOOP('', (#101));
#101 = ORIENTED_EDGE('', *, *, #63, .T.);
#102 = B_SPLINE_SURFACE_WITH_KNOTS('', 1, 1, ((#103, #104), (#105, #106)), .UNSPECIFIED., .F., .F., .U., (2, 2), (2, 2), (100.000292646555, 112.700292646555), (93.650290709055, 106.350290709055), .UNSPECIFIED.);
#103 = CARTESIAN_POINT('', (-6.35, 6.35000000000001, -76.2));
#104 = CARTESIAN_POINT('', (-6.35, -6.34999999999999, -76.2));
#105 = CARTESIAN_POINT('', (6.34999999999999, 6.35000000000001, -76.2));
#106 = CARTESIAN_POINT('', (6.34999999999999, -6.34999999999999, -76.2));
#107 = DRAUGHTING_MODEL('', (#115, #223, #263, #268, #273, #278, #283), #297);
#108 = PRESENTATION_STYLE_ASSIGNMENT((#109));
#109 = SURFACE_STYLE_USAGE(.POSITIVE., #110);
#110 = SURFACE_SIDE_STYLE('', (#111));
#111 = SURFACE_STYLE_FILL_AREA(#112);
#112 = FILL_AREA_STYLE('', (#113));
#113 = FILL_AREA_STYLE_COLOUR('', #114);
#114 = COLOUR_RGB('', 0.50196078431373, 0.50196078431373, 0.50196078431373);
#115 = STYLED_ITEM('', (#108), #1);
#116 = MANIFOLD_SOLID_BREP('CUT', #117);
#117 = CLOSED_SHELL('', (#118, #135, #174));
#118 = ADVANCED_FACE('', (#119), #130, .T.);
#119 = FACE_OUTER_BOUND('', #120, .T.);
#120 = EDGE_LOOP('', (#121));
#121 = ORIENTED_EDGE('', *, *, #122, .F.);
#122 = EDGE_CURVE('', #123, #123, #125, .T.);
#123 = VERTEX_POINT('', #124);
#124 = CARTESIAN_POINT('', (-6.35, 5.0547296634807E-15, -76.2));
#125 = CIRCLE('', #126, 6.35);
#126 = AXIS2_PLACEMENT_3D('', #127, #128, #129);
#127 = CARTESIAN_POINT('', (9.71445146547012E-16, 5.99520433297585E-15, -76.2));
#128 = DIRECTION('', (0., 0., -1.));
#129 = DIRECTION('', (-1., -1.4810624716459E-16, 0.));
#130 = B_SPLINE_SURFACE_WITH_KNOTS('', 1, 1, ((#131, #132), (#133, #134)), .UNSPECIFIED., .F., .F., .U., (2, 2), (2, 2), (93.650290709055, 106.350290709055), (100.000292646555, 112.700292646555), .UNSPECIFIED.);
#131 = CARTESIAN_POINT('', (-6.34999999999999, 6.35000000000001, -76.2));
#132 = CARTESIAN_POINT('', (6.34999999999999, 6.35000000000001, -76.2));
#133 = CARTESIAN_POINT('', (-6.34999999999999, -6.34999999999999, -76.2));
#134 = CARTESIAN_POINT('', (6.34999999999999, -6.34999999999999, -76.2));
#135 = ADVANCED_FACE('', (#136), #155, .T.);
#136 = FACE_OUTER_BOUND('', #137, .T.);
#137 = EDGE_LOOP('', (#138, #139, #147, #154));
#138 = ORIENTED_EDGE('', *, *, #122, .T.);
#139 = ORIENTED_EDGE('', *, *, #140, .T.);
#140 = EDGE_CURVE('', #123, #141, #143, .T.);
#141 = VERTEX_POINT('', #142);
#142 = CARTESIAN_POINT('', (-6.35, 6.22120573966855E-15, -95.25));
#143 = LINE('', #144, #145);
#144 = CARTESIAN_POINT('', (-6.35, 5.0547296634807E-15, -76.2));
#145 = VECTOR('', #146, 19.05);
#146 = DIRECTION('', (0., 1.16647607618786E-15, -19.05));
#147 = ORIENTED_EDGE('', *, *, #148, .F.);
#148 = EDGE_CURVE('', #141, #141, #149, .T.);
#149 = CIRCLE('', #150, 6.35000000000002);
#150 = AXIS2_PLACEMENT_3D('', #151, #152, #153);
#151 = CARTESIAN_POINT('', (3.05311331771918E-16, 7.32747196252603E-15, -95.25));
#152 = DIRECTION('', (0., 0., -1.));
#153 = DIRECTION('', (-1., -1.74215153205901E-16, 0.));
#154 = ORIENTED_EDGE('', *, *, #140, .F.);
#155 = (
   BOUNDED_SURFACE ()
   B_SPLINE_SURFACE (1, 2, ((#156, #157, #158, #159, #160, #161, #162, #163, #164), (#165, #166, #167, #168, #169, #170, #171, #172, #173)), .UNSPECIFIED., .F., .T., .U.)
   B_SPLINE_SURFACE_WITH_KNOTS ((2, 2), (3, 2, 2, 2, 3), (-1.11832531064592, -0.691816858838016), (0., 0.25, 0.5, 0.75, 1.), .UNSPECIFIED.)
   GEOMETRIC_REPRESENTATION_ITEM ()
   RATIONAL_B_SPLINE_SURFACE (((1., 0.707106781186548, 1., 0.707106781186548, 1., 0.707106781186548, 1., 0.707106781186548, 1.), (1., 0.707106781186548, 1., 0.707106781186548, 1., 0.707106781186548, 1., 0.707106781186548, 1.)))
   REPRESENTATION_ITEM ('')
   SURFACE ()
);
#156 = CARTESIAN_POINT('', (-6.35, 7.83028722504359E-15, -95.25));
#157 = CARTESIAN_POINT('', (-6.35, 6.35000000000001, -95.25));
#158 = CARTESIAN_POINT('', (-3.0223901407778E-15, 6.35000000000001, -95.25));
#159 = CARTESIAN_POINT('', (6.35, 6.35000000000001, -95.25));
#160 = CARTESIAN_POINT('', (6.35, 1.13770657011926E-14, -95.25));
#161 = CARTESIAN_POINT('', (6.35, -6.34999999999999, -95.25));
#162 = CARTESIAN_POINT('', (1.30203905282976E-15, -6.34999999999999, -95.25));
#163 = CARTESIAN_POINT('', (-6.35, -6.34999999999999, -95.25));
#164 = CARTESIAN_POINT('', (-6.35, 7.83028722504359E-15, -95.25));
#165 = CARTESIAN_POINT('', (-6.35, 5.0547296634807E-15, -76.2));
#166 = CARTESIAN_POINT('', (-6.35, 6.35, -76.2));
#167 = CARTESIAN_POINT('', (-3.02239014077779E-15, 6.35000000000001, -76.2));
#168 = CARTESIAN_POINT('', (6.35, 6.35000000000001, -76.2));
#169 = CARTESIAN_POINT('', (6.35, 8.60150813962969E-15, -76.2));
#170 = CARTESIAN_POINT('', (6.35, -6.34999999999999, -76.2));
#171 = CARTESIAN_POINT('', (1.30203905282976E-15, -6.34999999999999, -76.2));
#172 = CARTESIAN_POINT('', (-6.35, -6.35, -76.2));
#173 = CARTESIAN_POINT('', (-6.35, 5.0547296634807E-15, -76.2));
#174 = ADVANCED_FACE('', (#175), #188, .T.);
#175 = FACE_OUTER_BOUND('', #176, .T.);
#176 = EDGE_LOOP('', (#177, #186, #187));
#177 = ORIENTED_EDGE('', *, *, #178, .F.);
#178 = EDGE_CURVE('', #141, #179, #181, .T.);
#179 = VERTEX_POINT('', #180);
#180 = CARTESIAN_POINT('', (1.03324931323284E-15, 6.22120573966855E-15, -101.6));
#181 = CIRCLE('', #182, 6.35000000000007);
#182 = AXIS2_PLACEMENT_3D('', #183, #184, #185);
#183 = CARTESIAN_POINT('', (7.19424519957101E-14, 5.83238038093925E-15, -95.2499999999999));
#184 = DIRECTION('', (-6.12323399573693E-17, -1., -6.12323399573691E-17));
#185 = DIRECTION('', (-1., 6.12323399573698E-17, -8.95171950563896E-15));
#186 = ORIENTED_EDGE('', *, *, #148, .T.);
#187 = ORIENTED_EDGE('', *, *, #178, .T.);
#188 = (
   BOUNDED_SURFACE ()
   B_SPLINE_SURFACE (2, 2, ((#189, #190, #191), (#192, #193, #194), (#195, #196, #197), (#198, #199, #200), (#201, #202, #203), (#204, #205, #206), (#207, #208, #209), (#210, #211, #212), (#213, #214, #215)), .UNSPECIFIED., .T., .F., .U.)
   B_SPLINE_SURFACE_WITH_KNOTS ((3, 2, 2, 2, 3), (3, 3), (0., 0.25, 0.5, 0.75, 1.), (0., 1.), .UNSPECIFIED.)
   GEOMETRIC_REPRESENTATION_ITEM ()
   RATIONAL_B_SPLINE_SURFACE (((1., 0.707106781186547, 1.), (0.707106781186548, 0.5, 0.707106781186548), (1., 0.707106781186547, 1.), (0.707106781186548, 0.5, 0.707106781186548), (1., 0.707106781186547, 1.), (0.707106781186548, 0.5, 0.707106781186548), (1., 0.707106781186547, 1.), (0.707106781186548, 0.5, 0.707106781186548), (1., 0.707106781186547, 1.)))
   REPRESENTATION_ITEM ('')
   SURFACE ()
);
#189 = CARTESIAN_POINT('', (-6.35, 6.22120573966855E-15, -95.25));
#190 = CARTESIAN_POINT('', (-6.35000000000001, 6.61003109839784E-15, -101.6));
#191 = CARTESIAN_POINT('', (1.03324931323284E-15, 6.22120573966855E-15, -101.6));
#192 = CARTESIAN_POINT('', (-6.35, 6.35000000000002, -95.25));
#193 = CARTESIAN_POINT('', (-6.34999999999996, 6.35000000000003, -101.6));
#194 = CARTESIAN_POINT('', (1.03324931323284E-15, 6.22120573966855E-15, -101.6));
#195 = CARTESIAN_POINT('', (1.50990331349021E-14, 6.35000000000002, -95.25));
#196 = CARTESIAN_POINT('', (6.38550379414307E-14, 6.34999999999998, -101.6));
#197 = CARTESIAN_POINT('', (1.03324931323284E-15, 6.22120573966855E-15, -101.6));
#198 = CARTESIAN_POINT('', (6.35000000000003, 6.35000000000002, -95.25));
#199 = CARTESIAN_POINT('', (6.35000000000009, 6.34999999999994, -101.6));
#200 = CARTESIAN_POINT('', (1.03324931323284E-15, 6.22120573966855E-15, -101.6));
#201 = CARTESIAN_POINT('', (6.35000000000003, 6.22120573966853E-15, -95.25));
#202 = CARTESIAN_POINT('', (6.35000000000004, -9.09019785146593E-14, -101.6));
#203 = CARTESIAN_POINT('', (1.03324931323284E-15, 6.22120573966855E-15, -101.6));
#204 = CARTESIAN_POINT('', (6.35000000000003, -6.35000000000001, -95.25));
#205 = CARTESIAN_POINT('', (6.34999999999999, -6.35000000000012, -101.6));
#206 = CARTESIAN_POINT('', (1.03324931323284E-15, 6.22120573966855E-15, -101.6));
#207 = CARTESIAN_POINT('', (1.58766838523607E-14, -6.35000000000001, -95.25));
#208 = CARTESIAN_POINT('', (-3.28793209541679E-14, -6.35000000000007, -101.6));
#209 = CARTESIAN_POINT('', (1.03324931323284E-15, 6.22120573966855E-15, -101.6));
#210 = CARTESIAN_POINT('', (-6.35, -6.35000000000001, -95.25));
#211 = CARTESIAN_POINT('', (-6.35000000000006, -6.35000000000002, -101.6));
#212 = CARTESIAN_POINT('', (1.03324931323284E-15, 6.22120573966855E-15, -101.6));
#213 = CARTESIAN_POINT('', (-6.35, 6.22120573966855E-15, -95.25));
#214 = CARTESIAN_POINT('', (-6.35000000000001, 6.61003109839784E-15, -101.6));
#215 = CARTESIAN_POINT('', (1.03324931323284E-15, 6.22120573966855E-15, -101.6));
#216 = PRESENTATION_STYLE_ASSIGNMENT((#217));
#217 = SURFACE_STYLE_USAGE(.POSITIVE., #218);
#218 = SURFACE_SIDE_STYLE('', (#219));
#219 = SURFACE_STYLE_FILL_AREA(#220);
#220 = FILL_AREA_STYLE('', (#221));
#221 = FILL_AREA_STYLE_COLOUR('', #222);
#222 = COLOUR_RGB('', 0.8, 0.8, 0.8);
#223 = STYLED_ITEM('', (#216), #116);
#224 = TRIMMED_CURVE('cutting part line', #225, (#229), (#230), .T., .CARTESIAN.);
#225 = LINE('', #226, #227);
#226 = CARTESIAN_POINT('', (-8.57112715791252E-31, -4.66590430475142E-15, -76.2));
#227 = VECTOR('', #228, 6.35);
#228 = DIRECTION('', (6.35, -1.16647607618785E-15, 0.));
#229 = CARTESIAN_POINT('', (-8.57112715791252E-31, -4.66590430475142E-15, -76.2));
#230 = CARTESIAN_POINT('', (6.35, -5.83238038093927E-15, -76.2));
#231 = TRIMMED_CURVE('cutting part line', #232, (#236), (#237), .T., .CARTESIAN.);
#232 = LINE('', #233, #234);
#233 = CARTESIAN_POINT('', (6.35, -5.83238038093927E-15, -76.2));
#234 = VECTOR('', #235, 19.05);
#235 = DIRECTION('', (0., -1.16647607618785E-15, -19.05));
#236 = CARTESIAN_POINT('', (6.35, -5.83238038093927E-15, -76.2));
#237 = CARTESIAN_POINT('', (6.35, -6.99885645712712E-15, -95.25));
#238 = TRIMMED_CURVE('cutting part line', #239, (#244), (#245), .T., .CARTESIAN.);
#239 = CIRCLE('', #240, 6.34999999999993);
#240 = AXIS2_PLACEMENT_3D('', #241, #242, #243);
#241 = CARTESIAN_POINT('', (7.63833440942108E-14, -5.83238038093929E-15, -95.25));
#242 = DIRECTION('', (1.83697019872102E-16, 1., -6.12323399573675E-17));
#243 = DIRECTION('', (1., -1.83697019872102E-16, 4.47585975281958E-15));
#244 = CARTESIAN_POINT('', (6.35000000000001, -6.99885645712712E-15, -95.25));
#245 = CARTESIAN_POINT('', (-5.54864212200942E-16, -6.22120573966855E-15, -101.6));
#246 = TRIMMED_CURVE('cutting part line', #247, (#251), (#252), .T., .CARTESIAN.);
#247 = LINE('', #248, #249);
#248 = CARTESIAN_POINT('', (-1.14281695438834E-30, -6.22120573966855E-15, -101.6));
#249 = VECTOR('', #250, 25.4);
#250 = DIRECTION('', (2.85704238597083E-31, 1.55530143491713E-15, 25.4));
#251 = CARTESIAN_POINT('', (-1.14281695438834E-30, -6.22120573966855E-15, -101.6));
#252 = CARTESIAN_POINT('', (-8.57112715791252E-31, -4.66590430475142E-15, -76.2));
#253 = COMPOSITE_CURVE('cutting part line', (#254, #255, #256, #257), .U.);
#254 = COMPOSITE_CURVE_SEGMENT(.CONTINUOUS., .T., #224);
#255 = COMPOSITE_CURVE_SEGMENT(.CONTINUOUS., .T., #231);
#256 = COMPOSITE_CURVE_SEGMENT(.CONTINUOUS., .T., #238);
#257 = COMPOSITE_CURVE_SEGMENT(.CONTINUOUS., .T., #246);
#258 = GEOMETRIC_SET('', (#253, #296));
#259 = PRESENTATION_STYLE_ASSIGNMENT((#260));
#260 = CURVE_STYLE('', #262, POSITIVE_LENGTH_MEASURE(1.E-6), #261);
#261 = COLOUR_RGB('', 0., 0., 1.);
#262 = DRAUGHTING_PRE_DEFINED_CURVE_FONT('continuous');
#263 = STYLED_ITEM('', (#259), #253);
#264 = PRESENTATION_STYLE_ASSIGNMENT((#265));
#265 = CURVE_STYLE('', #267, POSITIVE_LENGTH_MEASURE(1.E-6), #266);
#266 = COLOUR_RGB('', 0., 0., 1.);
#267 = DRAUGHTING_PRE_DEFINED_CURVE_FONT('continuous');
#268 = OVER_RIDING_STYLED_ITEM('', (#264), #224, #263);
#269 = PRESENTATION_STYLE_ASSIGNMENT((#270));
#270 = CURVE_STYLE('', #272, POSITIVE_LENGTH_MEASURE(1.E-6), #271);
#271 = COLOUR_RGB('', 0., 0., 1.);
#272 = DRAUGHTING_PRE_DEFINED_CURVE_FONT('continuous');
#273 = OVER_RIDING_STYLED_ITEM('', (#269), #231, #263);
#274 = PRESENTATION_STYLE_ASSIGNMENT((#275));
#275 = CURVE_STYLE('', #277, POSITIVE_LENGTH_MEASURE(1.E-6), #276);
#276 = COLOUR_RGB('', 0., 0., 1.);
#277 = DRAUGHTING_PRE_DEFINED_CURVE_FONT('continuous');
#278 = OVER_RIDING_STYLED_ITEM('', (#274), #238, #263);
#279 = PRESENTATION_STYLE_ASSIGNMENT((#280));
#280 = CURVE_STYLE('', #282, POSITIVE_LENGTH_MEASURE(1.E-6), #281);
#281 = COLOUR_RGB('', 0., 0., 1.);
#282 = DRAUGHTING_PRE_DEFINED_CURVE_FONT('continuous');
#283 = OVER_RIDING_STYLED_ITEM('', (#279), #246, #263);
#284 = AXIS2_PLACEMENT_3D('CIP', #285, #286, #287);
#285 = CARTESIAN_POINT('', (3.80938984796112E-31, 6.22120573966855E-15, -101.6));
#286 = DIRECTION('', (-3.74939945665465E-33, -6.12323399573677E-17, 1.));
#287 = DIRECTION('', (1., -6.12323399573677E-17, 0.));
#288 = AXIS2_PLACEMENT_3D('MCS', #289, #290, #291);
#289 = CARTESIAN_POINT('', (1.69847795386455E-31, 2.77382500006875E-15, -45.3));
#290 = DIRECTION('', (-3.74939945665465E-33, -6.12323399573677E-17, 1.));
#291 = DIRECTION('', (1., -6.12323399573677E-17, 0.));
#292 = AXIS2_PLACEMENT_3D('PCS', #293, #294, #295);
#293 = CARTESIAN_POINT('', (0., 0., 0.));
#294 = DIRECTION('', (0., 0., 1.));
#295 = DIRECTION('', (1., 0., 0.));
#296 = CARTESIAN_POINT('CRP', (6.35, 0., -101.6));
#297 = (
   GEOMETRIC_REPRESENTATION_CONTEXT (3)
   GLOBAL_UNCERTAINTY_ASSIGNED_CONTEXT ((#299))
   GLOBAL_UNIT_ASSIGNED_CONTEXT ((#298, #300, #301))
   REPRESENTATION_CONTEXT ('', '3D')
);
#298 = (
   LENGTH_UNIT ()
   NAMED_UNIT (*)
   SI_UNIT (.MILLI., .METRE.)
);
#299 = UNCERTAINTY_MEASURE_WITH_UNIT(LENGTH_MEASURE(1.E-6), #298, 'DISTANCE_ACCURACY_VALUE', '');
#300 = (
   NAMED_UNIT (*)
   SI_UNIT ($, .STERADIAN.)
   SOLID_ANGLE_UNIT ()
);
#301 = (
   NAMED_UNIT (*)
   PLANE_ANGLE_UNIT ()
   SI_UNIT ($, .RADIAN.)
);
#302 = SHAPE_REPRESENTATION('', (), #297);
#303 = PRODUCT_DEFINITION_SHAPE('', '', #304);
#304 = PRODUCT_DEFINITION('', '', #307, #311);
#305 = APPLICATION_CONTEXT('configuration controlled 3D designs of mechanical parts and assemblies');
#306 = APPLICATION_PROTOCOL_DEFINITION('International Standard', 'automotive_design', 2002, #305);
#307 = PRODUCT_DEFINITION_FORMATION_WITH_SPECIFIED_SOURCE('', '', #308, .NOT_KNOWN.);
#308 = PRODUCT('NONE', '1B231-1270-XA       1620', '', (#309));
#309 = PRODUCT_CONTEXT('', #305, 'mechanical');
#310 = PRODUCT_RELATED_PRODUCT_CATEGORY('detail', '', (#308));
#311 = PRODUCT_DEFINITION_CONTEXT('part definition', #305, 'design');
#312 = SHAPE_DEFINITION_REPRESENTATION(#303, #302);
#313 = CONSTRUCTIVE_GEOMETRY_REPRESENTATION('supplemental geometry', (#284, #288, #292), #297);
#314 = CONSTRUCTIVE_GEOMETRY_REPRESENTATION_RELATIONSHIP('', '', #302, #313);
#315 = SHAPE_REPRESENTATION_RELATIONSHIP('', '', #302, #316);
#316 = SHAPE_REPRESENTATION('', (#258), #297);
#317 = SHAPE_REPRESENTATION_RELATIONSHIP('', '', #302, #318);
#318 = ADVANCED_BREP_SHAPE_REPRESENTATION('', (#1, #116), #297);
ENDSEC;
END-ISO-10303-21;
