ISO-10303-21;
HEADER;
FILE_DESCRIPTION(('STEP'), '1');
FILE_NAME('C:\\Users\\ds2002\\OneDrive - Sandvik\\HomeShare\\Documents\\Batchrepair\\CorSRT2\\NEW_MILBN_SLD\\Output2\\MOD000000000000000020082225700000.stp', '2018-11-23T12:39:00', (''), (''), 'Express v3.0.0.0', 'Express Tool', 'Unknown');
FILE_SCHEMA(('AUTOMOTIVE_DESIGN'));
ENDSEC;

DATA;
#1 = MANIFOLD_SOLID_BREP('NOCUT', #2);
#2 = CLOSED_SHELL('', (#3, #50, #59, #98));
#3 = ADVANCED_FACE('', (#4), #31, .T.);
#4 = FACE_OUTER_BOUND('', #5, .T.);
#5 = EDGE_LOOP('', (#6, #16, #23, #24));
#6 = ORIENTED_EDGE('', *, *, #7, .T.);
#7 = EDGE_CURVE('', #8, #10, #12, .T.);
#8 = VERTEX_POINT('', #9);
#9 = CARTESIAN_POINT('', (-3.175, 2.13853947301107E-16, -0.317500000000003));
#10 = VERTEX_POINT('', #11);
#11 = CARTESIAN_POINT('', (-2.8575, 1.74971411428178E-16, 0.));
#12 = LINE('', #13, #14);
#13 = CARTESIAN_POINT('', (-3.175, 2.13853947301107E-16, -0.317500000000003));
#14 = VECTOR('', #15, 0.44901280605346);
#15 = DIRECTION('', (0.3175, -3.8882535872929E-17, 0.317500000000003));
#16 = ORIENTED_EDGE('', *, *, #17, .T.);
#17 = EDGE_CURVE('', #10, #10, #18, .T.);
#18 = CIRCLE('', #19, 2.8575);
#19 = AXIS2_PLACEMENT_3D('', #20, #21, #22);
#20 = CARTESIAN_POINT('', (-3.46944695195361E-16, -6.66133814775094E-16, -2.77333911991762E-32));
#21 = DIRECTION('', (8.31826769960494E-33, 6.12323399573676E-17, -1.));
#22 = DIRECTION('', (-1., 2.94350035416718E-16, 9.70547373549474E-33));
#23 = ORIENTED_EDGE('', *, *, #7, .F.);
#24 = ORIENTED_EDGE('', *, *, #25, .F.);
#25 = EDGE_CURVE('', #8, #8, #26, .T.);
#26 = CIRCLE('', #27, 3.17500000000001);
#27 = AXIS2_PLACEMENT_3D('', #28, #29, #30);
#28 = CARTESIAN_POINT('', (5.41233724504764E-16, 4.9960036108132E-16, -0.317500000000003));
#29 = DIRECTION('', (5.24514814783537E-17, 7.87931949724616E-18, -1.));
#30 = DIRECTION('', (-1., -3.34928230311427E-16, -5.24514814783537E-17));
#31 = (
   BOUNDED_SURFACE ()
   B_SPLINE_SURFACE (1, 2, ((#32, #33, #34, #35, #36, #37, #38, #39, #40), (#41, #42, #43, #44, #45, #46, #47, #48, #49)), .UNSPECIFIED., .F., .T., .U.)
   B_SPLINE_SURFACE_WITH_KNOTS ((2, 2), (3, 2, 2, 2, 3), (0., 1.), (0., 0.25, 0.5, 0.75, 1.), .UNSPECIFIED.)
   GEOMETRIC_REPRESENTATION_ITEM ()
   RATIONAL_B_SPLINE_SURFACE (((1., 0.707106781186548, 1., 0.707106781186548, 1., 0.707106781186548, 1., 0.707106781186548, 1.), (1., 0.707106781186548, 1., 0.707106781186548, 1., 0.707106781186548, 1., 0.707106781186548, 1.)))
   REPRESENTATION_ITEM ('')
   SURFACE ()
);
#32 = CARTESIAN_POINT('', (-3.175, -6.87597834643122E-16, -0.317500000000003));
#33 = CARTESIAN_POINT('', (-3.175, 3.175, -0.317500000000012));
#34 = CARTESIAN_POINT('', (1.74089138166917E-15, 3.175, -0.317500000000012));
#35 = CARTESIAN_POINT('', (3.175, 3.175, -0.317500000000012));
#36 = CARTESIAN_POINT('', (3.175, -1.92117897311552E-15, -0.317500000000003));
#37 = CARTESIAN_POINT('', (3.175, -3.175, -0.317499999999993));
#38 = CARTESIAN_POINT('', (8.96135601926058E-16, -3.175, -0.317499999999993));
#39 = CARTESIAN_POINT('', (-3.175, -3.175, -0.317499999999993));
#40 = CARTESIAN_POINT('', (-3.175, -6.87597834643122E-16, -0.317500000000003));
#41 = CARTESIAN_POINT('', (-2.8575, 1.74971411428178E-16, 0.));
#42 = CARTESIAN_POINT('', (-2.8575, 2.8575, -8.49320613838237E-15));
#43 = CARTESIAN_POINT('', (1.67921232474555E-15, 2.8575, -8.49320613838237E-15));
#44 = CARTESIAN_POINT('', (2.8575, 2.8575, -8.49320613838237E-15));
#45 = CARTESIAN_POINT('', (2.8575, -9.35251613196978E-16, -1.09558455358522E-30));
#46 = CARTESIAN_POINT('', (2.8575, -2.8575, 8.49320613838237E-15));
#47 = CARTESIAN_POINT('', (9.18932122976749E-16, -2.8575, 8.49320613838237E-15));
#48 = CARTESIAN_POINT('', (-2.8575, -2.8575, 8.49320613838237E-15));
#49 = CARTESIAN_POINT('', (-2.8575, 1.74971411428178E-16, 0.));
#50 = ADVANCED_FACE('', (#51), #54, .T.);
#51 = FACE_OUTER_BOUND('', #52, .T.);
#52 = EDGE_LOOP('', (#53));
#53 = ORIENTED_EDGE('', *, *, #17, .F.);
#54 = B_SPLINE_SURFACE_WITH_KNOTS('', 1, 1, ((#55, #56), (#57, #58)), .UNSPECIFIED., .F., .F., .U., (2, 2), (2, 2), (1.58772677992923, 7.30272677992923), (1.58772677992923, 7.30272677992923), .UNSPECIFIED.);
#55 = CARTESIAN_POINT('', (2.8575, -2.8575, 6.93045594617286E-15));
#56 = CARTESIAN_POINT('', (-2.8575, -2.8575, -7.28039876902917E-15));
#57 = CARTESIAN_POINT('', (2.8575, 2.8575, 7.28039876902922E-15));
#58 = CARTESIAN_POINT('', (-2.8575, 2.8575, -6.93045594617282E-15));
#59 = ADVANCED_FACE('', (#60), #79, .T.);
#60 = FACE_OUTER_BOUND('', #61, .T.);
#61 = EDGE_LOOP('', (#62, #71, #77, #78));
#62 = ORIENTED_EDGE('', *, *, #63, .F.);
#63 = EDGE_CURVE('', #64, #64, #66, .T.);
#64 = VERTEX_POINT('', #65);
#65 = CARTESIAN_POINT('', (-3.175, 4.08266626665749E-15, -63.5));
#66 = CIRCLE('', #67, 3.17499999999999);
#67 = AXIS2_PLACEMENT_3D('', #68, #69, #70);
#68 = CARTESIAN_POINT('', (6.52256026967279E-16, -2.22044604925031E-16, -63.5));
#69 = DIRECTION('', (0., 0., -1.));
#70 = DIRECTION('', (-1., 1.35581444774253E-15, 0.));
#71 = ORIENTED_EDGE('', *, *, #72, .F.);
#72 = EDGE_CURVE('', #8, #64, #73, .T.);
#73 = LINE('', #74, #75);
#74 = CARTESIAN_POINT('', (-3.175, 2.13853947301107E-16, -0.317500000000003));
#75 = VECTOR('', #76, 63.1825);
#76 = DIRECTION('', (0., 3.86881231935638E-15, -63.1825));
#77 = ORIENTED_EDGE('', *, *, #25, .T.);
#78 = ORIENTED_EDGE('', *, *, #72, .T.);
#79 = (
   BOUNDED_SURFACE ()
   B_SPLINE_SURFACE (1, 2, ((#80, #81, #82, #83, #84, #85, #86, #87, #88), (#89, #90, #91, #92, #93, #94, #95, #96, #97)), .UNSPECIFIED., .F., .T., .U.)
   B_SPLINE_SURFACE_WITH_KNOTS ((2, 2), (3, 2, 2, 2, 3), (-0.77068591046031, 1.), (0., 0.25, 0.5, 0.75, 1.), .UNSPECIFIED.)
   GEOMETRIC_REPRESENTATION_ITEM ()
   RATIONAL_B_SPLINE_SURFACE (((1., 0.707106781186548, 1., 0.707106781186548, 1., 0.707106781186548, 1., 0.707106781186548, 1.), (1., 0.707106781186548, 1., 0.707106781186548, 1., 0.707106781186548, 1., 0.707106781186548, 1.)))
   REPRESENTATION_ITEM ('')
   SURFACE ()
);
#80 = CARTESIAN_POINT('', (-3.175, 3.54452302117658E-15, -63.5));
#81 = CARTESIAN_POINT('', (-3.175, 3.175, -63.5));
#82 = CARTESIAN_POINT('', (4.24672671924646E-16, 3.175, -63.5));
#83 = CARTESIAN_POINT('', (3.175, 3.17500000000001, -63.5));
#84 = CARTESIAN_POINT('', (3.175, 7.05835416410415E-15, -63.5));
#85 = CARTESIAN_POINT('', (3.175, -3.17499999999999, -63.5));
#86 = CARTESIAN_POINT('', (4.3273291735815E-15, -3.17499999999999, -63.5));
#87 = CARTESIAN_POINT('', (-3.17499999999999, -3.17499999999999, -63.5));
#88 = CARTESIAN_POINT('', (-3.175, 3.54452302117658E-15, -63.5));
#89 = CARTESIAN_POINT('', (-3.175, 2.13853947301108E-16, -0.317500000000003));
#90 = CARTESIAN_POINT('', (-3.175, 3.175, -0.317500000000003));
#91 = CARTESIAN_POINT('', (-1.78467114707941E-15, 3.175, -0.317500000000003));
#92 = CARTESIAN_POINT('', (3.175, 3.175, -0.317500000000003));
#93 = CARTESIAN_POINT('', (3.175, 3.72768509022868E-15, -0.317500000000003));
#94 = CARTESIAN_POINT('', (3.175, -3.17499999999999, -0.317500000000003));
#95 = CARTESIAN_POINT('', (2.11798535457744E-15, -3.175, -0.317500000000003));
#96 = CARTESIAN_POINT('', (-3.175, -3.175, -0.317500000000003));
#97 = CARTESIAN_POINT('', (-3.175, 2.13853947301108E-16, -0.317500000000003));
#98 = ADVANCED_FACE('', (#99), #102, .T.);
#99 = FACE_OUTER_BOUND('', #100, .T.);
#100 = EDGE_LOOP('', (#101));
#101 = ORIENTED_EDGE('', *, *, #63, .T.);
#102 = B_SPLINE_SURFACE_WITH_KNOTS('', 1, 1, ((#103, #104), (#105, #106)), .UNSPECIFIED., .F., .F., .U., (2, 2), (2, 2), (75.6690135321249, 82.0190135321249), (71.4356776154583, 77.7856776154583), .UNSPECIFIED.);
#103 = CARTESIAN_POINT('', (-3.175, 3.175, -63.5));
#104 = CARTESIAN_POINT('', (-3.175, -3.175, -63.5));
#105 = CARTESIAN_POINT('', (3.17499999999999, 3.175, -63.5));
#106 = CARTESIAN_POINT('', (3.17499999999999, -3.175, -63.5));
#107 = DRAUGHTING_MODEL('', (#115, #223, #263, #268, #273, #278, #283), #297);
#108 = PRESENTATION_STYLE_ASSIGNMENT((#109));
#109 = SURFACE_STYLE_USAGE(.POSITIVE., #110);
#110 = SURFACE_SIDE_STYLE('', (#111));
#111 = SURFACE_STYLE_FILL_AREA(#112);
#112 = FILL_AREA_STYLE('', (#113));
#113 = FILL_AREA_STYLE_COLOUR('', #114);
#114 = COLOUR_RGB('', 0.50196078431373, 0.50196078431373, 0.50196078431373);
#115 = STYLED_ITEM('', (#108), #1);
#116 = MANIFOLD_SOLID_BREP('CUT', #117);
#117 = CLOSED_SHELL('', (#118, #135, #174));
#118 = ADVANCED_FACE('', (#119), #130, .T.);
#119 = FACE_OUTER_BOUND('', #120, .T.);
#120 = EDGE_LOOP('', (#121));
#121 = ORIENTED_EDGE('', *, *, #122, .F.);
#122 = EDGE_CURVE('', #123, #123, #125, .T.);
#123 = VERTEX_POINT('', #124);
#124 = CARTESIAN_POINT('', (-3.175, 4.08266626665749E-15, -63.5));
#125 = CIRCLE('', #126, 3.17499999999999);
#126 = AXIS2_PLACEMENT_3D('', #127, #128, #129);
#127 = CARTESIAN_POINT('', (6.52256026967279E-16, -2.22044604925031E-16, -63.5));
#128 = DIRECTION('', (0., 0., -1.));
#129 = DIRECTION('', (-1., 1.35581444774253E-15, 0.));
#130 = B_SPLINE_SURFACE_WITH_KNOTS('', 1, 1, ((#131, #132), (#133, #134)), .UNSPECIFIED., .F., .F., .U., (2, 2), (2, 2), (71.4356776154583, 77.7856776154583), (75.6690135321249, 82.0190135321249), .UNSPECIFIED.);
#131 = CARTESIAN_POINT('', (-3.17499999999998, 3.175, -63.5));
#132 = CARTESIAN_POINT('', (3.17499999999998, 3.175, -63.5));
#133 = CARTESIAN_POINT('', (-3.17499999999998, -3.175, -63.5));
#134 = CARTESIAN_POINT('', (3.17499999999998, -3.175, -63.5));
#135 = ADVANCED_FACE('', (#136), #155, .T.);
#136 = FACE_OUTER_BOUND('', #137, .T.);
#137 = EDGE_LOOP('', (#138, #139, #147, #154));
#138 = ORIENTED_EDGE('', *, *, #122, .T.);
#139 = ORIENTED_EDGE('', *, *, #140, .T.);
#140 = EDGE_CURVE('', #123, #141, #143, .T.);
#141 = VERTEX_POINT('', #142);
#142 = CARTESIAN_POINT('', (-3.175, 4.66590430475142E-15, -73.025));
#143 = LINE('', #144, #145);
#144 = CARTESIAN_POINT('', (-3.175, 4.08266626665749E-15, -63.5));
#145 = VECTOR('', #146, 9.52500000000001);
#146 = DIRECTION('', (0., 5.8323803809393E-16, -9.52500000000001));
#147 = ORIENTED_EDGE('', *, *, #148, .F.);
#148 = EDGE_CURVE('', #141, #141, #149, .T.);
#149 = CIRCLE('', #150, 3.17500000000001);
#150 = AXIS2_PLACEMENT_3D('', #151, #152, #153);
#151 = CARTESIAN_POINT('', (-9.29811783123569E-16, 8.82627304576999E-15, -73.025));
#152 = DIRECTION('', (0., 0., -1.));
#153 = DIRECTION('', (-1., -1.31035235937593E-15, 0.));
#154 = ORIENTED_EDGE('', *, *, #140, .F.);
#155 = (
   BOUNDED_SURFACE ()
   B_SPLINE_SURFACE (1, 2, ((#156, #157, #158, #159, #160, #161, #162, #163, #164), (#165, #166, #167, #168, #169, #170, #171, #172, #173)), .UNSPECIFIED., .F., .T., .U.)
   B_SPLINE_SURFACE_WITH_KNOTS ((2, 2), (3, 2, 2, 2, 3), (-1.03762348490156, -0.77068591046031), (0., 0.25, 0.5, 0.75, 1.), .UNSPECIFIED.)
   GEOMETRIC_REPRESENTATION_ITEM ()
   RATIONAL_B_SPLINE_SURFACE (((1., 0.707106781186548, 1., 0.707106781186548, 1., 0.707106781186548, 1., 0.707106781186548, 1.), (1., 0.707106781186548, 1., 0.707106781186548, 1., 0.707106781186548, 1., 0.707106781186548, 1.)))
   REPRESENTATION_ITEM ('')
   SURFACE ()
);
#156 = CARTESIAN_POINT('', (-3.175, 4.58226662773881E-15, -73.025));
#157 = CARTESIAN_POINT('', (-3.175, 3.175, -73.025));
#158 = CARTESIAN_POINT('', (-5.11005147784334E-16, 3.175, -73.025));
#159 = CARTESIAN_POINT('', (3.175, 3.17500000000001, -73.025));
#160 = CARTESIAN_POINT('', (3.175, 7.01981127970455E-15, -73.025));
#161 = CARTESIAN_POINT('', (3.175, -3.17499999999999, -73.025));
#162 = CARTESIAN_POINT('', (2.31536486291069E-15, -3.17499999999999, -73.025));
#163 = CARTESIAN_POINT('', (-3.175, -3.17499999999999, -73.025));
#164 = CARTESIAN_POINT('', (-3.175, 4.58226662773881E-15, -73.025));
#165 = CARTESIAN_POINT('', (-3.175, 4.08266626665749E-15, -63.5));
#166 = CARTESIAN_POINT('', (-3.175, 3.175, -63.5));
#167 = CARTESIAN_POINT('', (-5.11005147784334E-16, 3.175, -63.5));
#168 = CARTESIAN_POINT('', (3.175, 3.175, -63.5));
#169 = CARTESIAN_POINT('', (3.175, 6.52021091862323E-15, -63.5));
#170 = CARTESIAN_POINT('', (3.175, -3.17499999999999, -63.5));
#171 = CARTESIAN_POINT('', (2.31536486291069E-15, -3.17499999999999, -63.5));
#172 = CARTESIAN_POINT('', (-3.175, -3.17499999999999, -63.5));
#173 = CARTESIAN_POINT('', (-3.175, 4.08266626665749E-15, -63.5));
#174 = ADVANCED_FACE('', (#175), #188, .T.);
#175 = FACE_OUTER_BOUND('', #176, .T.);
#176 = EDGE_LOOP('', (#177, #186, #187));
#177 = ORIENTED_EDGE('', *, *, #178, .F.);
#178 = EDGE_CURVE('', #141, #179, #181, .T.);
#179 = VERTEX_POINT('', #180);
#180 = CARTESIAN_POINT('', (-7.49029591456261E-16, 4.66590430475142E-15, -76.2));
#181 = CIRCLE('', #182, 3.17499999999998);
#182 = AXIS2_PLACEMENT_3D('', #183, #184, #185);
#183 = CARTESIAN_POINT('', (-1.28785870856518E-14, 4.47149162538678E-15, -73.025));
#184 = DIRECTION('', (-6.12323399573664E-17, -1., -6.12323399573662E-17));
#185 = DIRECTION('', (-1., 6.12323399573661E-17, 4.47585975281955E-15));
#186 = ORIENTED_EDGE('', *, *, #148, .T.);
#187 = ORIENTED_EDGE('', *, *, #178, .T.);
#188 = (
   BOUNDED_SURFACE ()
   B_SPLINE_SURFACE (2, 2, ((#189, #190, #191), (#192, #193, #194), (#195, #196, #197), (#198, #199, #200), (#201, #202, #203), (#204, #205, #206), (#207, #208, #209), (#210, #211, #212), (#213, #214, #215)), .UNSPECIFIED., .T., .F., .U.)
   B_SPLINE_SURFACE_WITH_KNOTS ((3, 2, 2, 2, 3), (3, 3), (0., 0.25, 0.5, 0.75, 1.), (0., 1.), .UNSPECIFIED.)
   GEOMETRIC_REPRESENTATION_ITEM ()
   RATIONAL_B_SPLINE_SURFACE (((1., 0.707106781186548, 1.), (0.707106781186548, 0.5, 0.707106781186548), (1., 0.707106781186548, 1.), (0.707106781186548, 0.5, 0.707106781186548), (1., 0.707106781186548, 1.), (0.707106781186548, 0.5, 0.707106781186548), (1., 0.707106781186548, 1.), (0.707106781186548, 0.5, 0.707106781186548), (1., 0.707106781186548, 1.)))
   REPRESENTATION_ITEM ('')
   SURFACE ()
);
#189 = CARTESIAN_POINT('', (-3.175, 4.66590430475142E-15, -73.025));
#190 = CARTESIAN_POINT('', (-3.175, 4.86031698411606E-15, -76.2));
#191 = CARTESIAN_POINT('', (-7.49029591456261E-16, 4.66590430475142E-15, -76.2));
#192 = CARTESIAN_POINT('', (-3.175, 3.17499999999998, -73.025));
#193 = CARTESIAN_POINT('', (-3.175, 3.17499999999998, -76.2));
#194 = CARTESIAN_POINT('', (-7.49029591456261E-16, 4.66590430475142E-15, -76.2));
#195 = CARTESIAN_POINT('', (-2.70894418008538E-14, 3.17499999999998, -73.025));
#196 = CARTESIAN_POINT('', (-2.68950291214892E-14, 3.17499999999998, -76.2));
#197 = CARTESIAN_POINT('', (-7.49029591456261E-16, 4.66590430475142E-15, -76.2));
#198 = CARTESIAN_POINT('', (3.17499999999995, 3.17499999999998, -73.025));
#199 = CARTESIAN_POINT('', (3.17499999999995, 3.17499999999998, -76.2));
#200 = CARTESIAN_POINT('', (-7.49029591456261E-16, 4.66590430475142E-15, -76.2));
#201 = CARTESIAN_POINT('', (3.17499999999995, 4.66590430475142E-15, -73.025));
#202 = CARTESIAN_POINT('', (3.17499999999995, 4.47149162538678E-15, -76.2));
#203 = CARTESIAN_POINT('', (-7.49029591456261E-16, 4.66590430475142E-15, -76.2));
#204 = CARTESIAN_POINT('', (3.17499999999995, -3.17499999999997, -73.025));
#205 = CARTESIAN_POINT('', (3.17499999999995, -3.17499999999997, -76.2));
#206 = CARTESIAN_POINT('', (-7.49029591456261E-16, 4.66590430475142E-15, -76.2));
#207 = CARTESIAN_POINT('', (-2.67006164421245E-14, -3.17499999999997, -73.025));
#208 = CARTESIAN_POINT('', (-2.68950291214892E-14, -3.17499999999997, -76.2));
#209 = CARTESIAN_POINT('', (-7.49029591456261E-16, 4.66590430475142E-15, -76.2));
#210 = CARTESIAN_POINT('', (-3.175, -3.17499999999997, -73.025));
#211 = CARTESIAN_POINT('', (-3.175, -3.17499999999997, -76.2));
#212 = CARTESIAN_POINT('', (-7.49029591456261E-16, 4.66590430475142E-15, -76.2));
#213 = CARTESIAN_POINT('', (-3.175, 4.66590430475142E-15, -73.025));
#214 = CARTESIAN_POINT('', (-3.175, 4.86031698411606E-15, -76.2));
#215 = CARTESIAN_POINT('', (-7.49029591456261E-16, 4.66590430475142E-15, -76.2));
#216 = PRESENTATION_STYLE_ASSIGNMENT((#217));
#217 = SURFACE_STYLE_USAGE(.POSITIVE., #218);
#218 = SURFACE_SIDE_STYLE('', (#219));
#219 = SURFACE_STYLE_FILL_AREA(#220);
#220 = FILL_AREA_STYLE('', (#221));
#221 = FILL_AREA_STYLE_COLOUR('', #222);
#222 = COLOUR_RGB('', 0.8, 0.8, 0.8);
#223 = STYLED_ITEM('', (#216), #116);
#224 = TRIMMED_CURVE('cutting part line', #225, (#229), (#230), .T., .CARTESIAN.);
#225 = LINE('', #226, #227);
#226 = CARTESIAN_POINT('', (-7.1426059649271E-31, -3.88825358729285E-15, -63.5));
#227 = VECTOR('', #228, 3.175);
#228 = DIRECTION('', (3.175, -5.83238038093925E-16, 0.));
#229 = CARTESIAN_POINT('', (-7.1426059649271E-31, -3.88825358729285E-15, -63.5));
#230 = CARTESIAN_POINT('', (3.175, -4.47149162538677E-15, -63.5));
#231 = TRIMMED_CURVE('cutting part line', #232, (#236), (#237), .T., .CARTESIAN.);
#232 = LINE('', #233, #234);
#233 = CARTESIAN_POINT('', (3.175, -4.47149162538677E-15, -63.5));
#234 = VECTOR('', #235, 9.52500000000001);
#235 = DIRECTION('', (0., -5.8323803809393E-16, -9.52500000000001));
#236 = CARTESIAN_POINT('', (3.175, -4.47149162538677E-15, -63.5));
#237 = CARTESIAN_POINT('', (3.175, -5.0547296634807E-15, -73.025));
#238 = TRIMMED_CURVE('cutting part line', #239, (#244), (#245), .T., .CARTESIAN.);
#239 = CIRCLE('', #240, 3.175);
#240 = AXIS2_PLACEMENT_3D('', #241, #242, #243);
#241 = CARTESIAN_POINT('', (-2.66453525910038E-15, -4.47149162538678E-15, -73.025));
#242 = DIRECTION('', (1.83697019872103E-16, 1., -6.12323399573675E-17));
#243 = DIRECTION('', (1., -1.83697019872103E-16, 0.));
#244 = CARTESIAN_POINT('', (3.17499999999999, -5.0547296634807E-15, -73.025));
#245 = CARTESIAN_POINT('', (-3.55147717824812E-16, -4.66590430475142E-15, -76.2));
#246 = TRIMMED_CURVE('cutting part line', #247, (#251), (#252), .T., .CARTESIAN.);
#247 = LINE('', #248, #249);
#248 = CARTESIAN_POINT('', (-8.57112715791252E-31, -4.66590430475142E-15, -76.2));
#249 = VECTOR('', #250, 12.7);
#250 = DIRECTION('', (1.42852119298542E-31, 7.7765071745857E-16, 12.7));
#251 = CARTESIAN_POINT('', (-8.57112715791252E-31, -4.66590430475142E-15, -76.2));
#252 = CARTESIAN_POINT('', (-7.1426059649271E-31, -3.88825358729285E-15, -63.5));
#253 = COMPOSITE_CURVE('cutting part line', (#254, #255, #256, #257), .U.);
#254 = COMPOSITE_CURVE_SEGMENT(.CONTINUOUS., .T., #224);
#255 = COMPOSITE_CURVE_SEGMENT(.CONTINUOUS., .T., #231);
#256 = COMPOSITE_CURVE_SEGMENT(.CONTINUOUS., .T., #238);
#257 = COMPOSITE_CURVE_SEGMENT(.CONTINUOUS., .T., #246);
#258 = GEOMETRIC_SET('', (#253, #296));
#259 = PRESENTATION_STYLE_ASSIGNMENT((#260));
#260 = CURVE_STYLE('', #262, POSITIVE_LENGTH_MEASURE(1.E-6), #261);
#261 = COLOUR_RGB('', 0., 0., 1.);
#262 = DRAUGHTING_PRE_DEFINED_CURVE_FONT('continuous');
#263 = STYLED_ITEM('', (#259), #253);
#264 = PRESENTATION_STYLE_ASSIGNMENT((#265));
#265 = CURVE_STYLE('', #267, POSITIVE_LENGTH_MEASURE(1.E-6), #266);
#266 = COLOUR_RGB('', 0., 0., 1.);
#267 = DRAUGHTING_PRE_DEFINED_CURVE_FONT('continuous');
#268 = OVER_RIDING_STYLED_ITEM('', (#264), #224, #263);
#269 = PRESENTATION_STYLE_ASSIGNMENT((#270));
#270 = CURVE_STYLE('', #272, POSITIVE_LENGTH_MEASURE(1.E-6), #271);
#271 = COLOUR_RGB('', 0., 0., 1.);
#272 = DRAUGHTING_PRE_DEFINED_CURVE_FONT('continuous');
#273 = OVER_RIDING_STYLED_ITEM('', (#269), #231, #263);
#274 = PRESENTATION_STYLE_ASSIGNMENT((#275));
#275 = CURVE_STYLE('', #277, POSITIVE_LENGTH_MEASURE(1.E-6), #276);
#276 = COLOUR_RGB('', 0., 0., 1.);
#277 = DRAUGHTING_PRE_DEFINED_CURVE_FONT('continuous');
#278 = OVER_RIDING_STYLED_ITEM('', (#274), #238, #263);
#279 = PRESENTATION_STYLE_ASSIGNMENT((#280));
#280 = CURVE_STYLE('', #282, POSITIVE_LENGTH_MEASURE(1.E-6), #281);
#281 = COLOUR_RGB('', 0., 0., 1.);
#282 = DRAUGHTING_PRE_DEFINED_CURVE_FONT('continuous');
#283 = OVER_RIDING_STYLED_ITEM('', (#279), #246, #263);
#284 = AXIS2_PLACEMENT_3D('CIP', #285, #286, #287);
#285 = CARTESIAN_POINT('', (2.85704238597084E-31, 4.66590430475142E-15, -76.2));
#286 = DIRECTION('', (-3.74939945665465E-33, -6.12323399573677E-17, 1.));
#287 = DIRECTION('', (1., -6.12323399573677E-17, 0.));
#288 = AXIS2_PLACEMENT_3D('MCS', #289, #290, #291);
#289 = CARTESIAN_POINT('', (1.34978380439567E-31, 2.20436423846524E-15, -36.));
#290 = DIRECTION('', (-3.74939945665465E-33, -6.12323399573677E-17, 1.));
#291 = DIRECTION('', (1., -6.12323399573677E-17, 0.));
#292 = AXIS2_PLACEMENT_3D('PCS', #293, #294, #295);
#293 = CARTESIAN_POINT('', (0., 0., 0.));
#294 = DIRECTION('', (0., 0., 1.));
#295 = DIRECTION('', (1., 0., 0.));
#296 = CARTESIAN_POINT('CRP', (3.175, 0., -76.2));
#297 = (
   GEOMETRIC_REPRESENTATION_CONTEXT (3)
   GLOBAL_UNCERTAINTY_ASSIGNED_CONTEXT ((#299))
   GLOBAL_UNIT_ASSIGNED_CONTEXT ((#298, #300, #301))
   REPRESENTATION_CONTEXT ('', '3D')
);
#298 = (
   LENGTH_UNIT ()
   NAMED_UNIT (*)
   SI_UNIT (.MILLI., .METRE.)
);
#299 = UNCERTAINTY_MEASURE_WITH_UNIT(LENGTH_MEASURE(1.E-6), #298, 'DISTANCE_ACCURACY_VALUE', '');
#300 = (
   NAMED_UNIT (*)
   SI_UNIT ($, .STERADIAN.)
   SOLID_ANGLE_UNIT ()
);
#301 = (
   NAMED_UNIT (*)
   PLANE_ANGLE_UNIT ()
   SI_UNIT ($, .RADIAN.)
);
#302 = SHAPE_REPRESENTATION('', (), #297);
#303 = PRODUCT_DEFINITION_SHAPE('', '', #304);
#304 = PRODUCT_DEFINITION('', '', #307, #311);
#305 = APPLICATION_CONTEXT('configuration controlled 3D designs of mechanical parts and assemblies');
#306 = APPLICATION_PROTOCOL_DEFINITION('International Standard', 'automotive_design', 2002, #305);
#307 = PRODUCT_DEFINITION_FORMATION_WITH_SPECIFIED_SOURCE('', '', #308, .NOT_KNOWN.);
#308 = PRODUCT('NONE', '1B231-0635-XA       1620', '', (#309));
#309 = PRODUCT_CONTEXT('', #305, 'mechanical');
#310 = PRODUCT_RELATED_PRODUCT_CATEGORY('detail', '', (#308));
#311 = PRODUCT_DEFINITION_CONTEXT('part definition', #305, 'design');
#312 = SHAPE_DEFINITION_REPRESENTATION(#303, #302);
#313 = CONSTRUCTIVE_GEOMETRY_REPRESENTATION('supplemental geometry', (#284, #288, #292), #297);
#314 = CONSTRUCTIVE_GEOMETRY_REPRESENTATION_RELATIONSHIP('', '', #302, #313);
#315 = SHAPE_REPRESENTATION_RELATIONSHIP('', '', #302, #316);
#316 = SHAPE_REPRESENTATION('', (#258), #297);
#317 = SHAPE_REPRESENTATION_RELATIONSHIP('', '', #302, #318);
#318 = ADVANCED_BREP_SHAPE_REPRESENTATION('', (#1, #116), #297);
ENDSEC;
END-ISO-10303-21;
