ISO-10303-21;
HEADER;
FILE_DESCRIPTION(('STEP'), '1');
FILE_NAME('C:\\Users\\ds2002\\OneDrive - Sandvik\\HomeShare\\Documents\\Batchrepair\\CorSRT2\\NEW_MILBN_SLD\\Output2\\MOD000000000000000020082225300000.stp', '2018-11-23T12:39:12', (''), (''), 'Express v3.0.0.0', 'Express Tool', 'Unknown');
FILE_SCHEMA(('AUTOMOTIVE_DESIGN'));
ENDSEC;

DATA;
#1 = MANIFOLD_SOLID_BREP('NOCUT', #2);
#2 = CLOSED_SHELL('', (#3, #50, #97, #106, #137, #176));
#3 = ADVANCED_FACE('', (#4), #31, .T.);
#4 = FACE_OUTER_BOUND('', #5, .T.);
#5 = EDGE_LOOP('', (#6, #16, #23, #24));
#6 = ORIENTED_EDGE('', *, *, #7, .F.);
#7 = EDGE_CURVE('', #8, #10, #12, .T.);
#8 = VERTEX_POINT('', #9);
#9 = CARTESIAN_POINT('', (-3.175, 4.06735818166815E-15, -63.25));
#10 = VERTEX_POINT('', #11);
#11 = CARTESIAN_POINT('', (-1.19, 4.15522658950697E-15, -66.67));
#12 = LINE('', #13, #14);
#13 = CARTESIAN_POINT('', (-3.175, 4.06735818166815E-15, -63.25));
#14 = VECTOR('', #15, 3.95431726091876);
#15 = DIRECTION('', (1.985, 8.786840783882E-17, -3.42));
#16 = ORIENTED_EDGE('', *, *, #17, .T.);
#17 = EDGE_CURVE('', #8, #8, #18, .T.);
#18 = CIRCLE('', #19, 3.175);
#19 = AXIS2_PLACEMENT_3D('', #20, #21, #22);
#20 = CARTESIAN_POINT('', (1.02695629777827E-15, 2.94209101525666E-15, -63.25));
#21 = DIRECTION('', (0., 0., -1.));
#22 = DIRECTION('', (-1., 3.54414855562672E-16, 0.));
#23 = ORIENTED_EDGE('', *, *, #7, .T.);
#24 = ORIENTED_EDGE('', *, *, #25, .F.);
#25 = EDGE_CURVE('', #10, #10, #26, .T.);
#26 = CIRCLE('', #27, 1.19);
#27 = AXIS2_PLACEMENT_3D('', #28, #29, #30);
#28 = CARTESIAN_POINT('', (3.98986399474666E-16, 1.58206781009085E-15, -66.67));
#29 = DIRECTION('', (0., 0., -1.));
#30 = DIRECTION('', (-1., 2.16231830203035E-15, 0.));
#31 = (
   BOUNDED_SURFACE ()
   B_SPLINE_SURFACE (2, 1, ((#32, #33), (#34, #35), (#36, #37), (#38, #39), (#40, #41), (#42, #43), (#44, #45), (#46, #47), (#48, #49)), .UNSPECIFIED., .T., .F., .U.)
   B_SPLINE_SURFACE_WITH_KNOTS ((3, 2, 2, 2, 3), (2, 2), (0., 0.25, 0.5, 0.75, 1.), (0., 1.), .UNSPECIFIED.)
   GEOMETRIC_REPRESENTATION_ITEM ()
   RATIONAL_B_SPLINE_SURFACE (((1., 1.), (0.707106781186548, 0.707106781186548), (1., 1.), (0.707106781186548, 0.707106781186548), (1., 1.), (0.707106781186548, 0.707106781186548), (1., 1.), (0.707106781186548, 0.707106781186548), (1., 1.)))
   REPRESENTATION_ITEM ('')
   SURFACE ()
);
#32 = CARTESIAN_POINT('', (-3.175, 4.06735818166815E-15, -63.25));
#33 = CARTESIAN_POINT('', (-1.19, 2.39873743417453E-15, -66.67));
#34 = CARTESIAN_POINT('', (-3.175, 3.175, -63.25));
#35 = CARTESIAN_POINT('', (-1.19, 1.19, -66.67));
#36 = CARTESIAN_POINT('', (4.40030143900046E-15, 3.175, -63.25));
#37 = CARTESIAN_POINT('', (1.90953731539083E-15, 1.19, -66.67));
#38 = CARTESIAN_POINT('', (3.175, 3.175, -63.25));
#39 = CARTESIAN_POINT('', (1.19, 1.19, -66.67));
#40 = CARTESIAN_POINT('', (3.175, -3.9005774278639E-15, -63.25));
#41 = CARTESIAN_POINT('', (1.19, -5.87669928138264E-16, -66.67));
#42 = CARTESIAN_POINT('', (3.175, -3.175, -63.25));
#43 = CARTESIAN_POINT('', (1.19, -1.19, -66.67));
#44 = CARTESIAN_POINT('', (-3.1788088118023E-15, -3.175, -63.25));
#45 = CARTESIAN_POINT('', (-9.31137077823429E-16, -1.19, -66.67));
#46 = CARTESIAN_POINT('', (-3.175, -3.175, -63.25));
#47 = CARTESIAN_POINT('', (-1.19, -1.19, -66.67));
#48 = CARTESIAN_POINT('', (-3.175, 4.06735818166815E-15, -63.25));
#49 = CARTESIAN_POINT('', (-1.19, 2.39873743417453E-15, -66.67));
#50 = ADVANCED_FACE('', (#51), #78, .T.);
#51 = FACE_OUTER_BOUND('', #52, .T.);
#52 = EDGE_LOOP('', (#53, #63, #70, #71));
#53 = ORIENTED_EDGE('', *, *, #54, .T.);
#54 = EDGE_CURVE('', #55, #57, #59, .T.);
#55 = VERTEX_POINT('', #56);
#56 = CARTESIAN_POINT('', (-3.175, 2.13853947301107E-16, -0.31750000000001));
#57 = VERTEX_POINT('', #58);
#58 = CARTESIAN_POINT('', (-2.8575, 1.74971411428178E-16, 0.));
#59 = LINE('', #60, #61);
#60 = CARTESIAN_POINT('', (-3.175, 2.13853947301107E-16, -0.31750000000001));
#61 = VECTOR('', #62, 0.449012806053465);
#62 = DIRECTION('', (0.3175, -3.8882535872929E-17, 0.31750000000001));
#63 = ORIENTED_EDGE('', *, *, #64, .T.);
#64 = EDGE_CURVE('', #57, #57, #65, .T.);
#65 = CIRCLE('', #66, 2.8575);
#66 = AXIS2_PLACEMENT_3D('', #67, #68, #69);
#67 = CARTESIAN_POINT('', (-3.46944695195361E-16, -6.66133814775094E-16, -2.77333911991762E-32));
#68 = DIRECTION('', (8.31826769960494E-33, 6.12323399573676E-17, -1.));
#69 = DIRECTION('', (-1., 2.94350035416718E-16, 9.70547373549474E-33));
#70 = ORIENTED_EDGE('', *, *, #54, .F.);
#71 = ORIENTED_EDGE('', *, *, #72, .F.);
#72 = EDGE_CURVE('', #55, #55, #73, .T.);
#73 = CIRCLE('', #74, 3.17500000000001);
#74 = AXIS2_PLACEMENT_3D('', #75, #76, #77);
#75 = CARTESIAN_POINT('', (5.41233724504764E-16, 4.9960036108132E-16, -0.31750000000001));
#76 = DIRECTION('', (5.24514814783537E-17, 7.87931949724616E-18, -1.));
#77 = DIRECTION('', (-1., -3.34928230311427E-16, -5.24514814783537E-17));
#78 = (
   BOUNDED_SURFACE ()
   B_SPLINE_SURFACE (1, 2, ((#79, #80, #81, #82, #83, #84, #85, #86, #87), (#88, #89, #90, #91, #92, #93, #94, #95, #96)), .UNSPECIFIED., .F., .T., .U.)
   B_SPLINE_SURFACE_WITH_KNOTS ((2, 2), (3, 2, 2, 2, 3), (0., 1.), (0., 0.25, 0.5, 0.75, 1.), .UNSPECIFIED.)
   GEOMETRIC_REPRESENTATION_ITEM ()
   RATIONAL_B_SPLINE_SURFACE (((1., 0.707106781186548, 1., 0.707106781186548, 1., 0.707106781186548, 1., 0.707106781186548, 1.), (1., 0.707106781186548, 1., 0.707106781186548, 1., 0.707106781186548, 1., 0.707106781186548, 1.)))
   REPRESENTATION_ITEM ('')
   SURFACE ()
);
#79 = CARTESIAN_POINT('', (-3.175, -6.87597834643122E-16, -0.31750000000001));
#80 = CARTESIAN_POINT('', (-3.175, 3.175, -0.317500000000019));
#81 = CARTESIAN_POINT('', (1.74089138166917E-15, 3.175, -0.317500000000019));
#82 = CARTESIAN_POINT('', (3.175, 3.175, -0.317500000000019));
#83 = CARTESIAN_POINT('', (3.175, -1.92117897311552E-15, -0.31750000000001));
#84 = CARTESIAN_POINT('', (3.175, -3.175, -0.3175));
#85 = CARTESIAN_POINT('', (8.96135601926058E-16, -3.175, -0.3175));
#86 = CARTESIAN_POINT('', (-3.175, -3.175, -0.3175));
#87 = CARTESIAN_POINT('', (-3.175, -6.87597834643122E-16, -0.31750000000001));
#88 = CARTESIAN_POINT('', (-2.8575, 1.74971411428178E-16, 0.));
#89 = CARTESIAN_POINT('', (-2.8575, 2.8575, -8.49320613838219E-15));
#90 = CARTESIAN_POINT('', (1.67921232474555E-15, 2.8575, -8.49320613838219E-15));
#91 = CARTESIAN_POINT('', (2.8575, 2.8575, -8.49320613838219E-15));
#92 = CARTESIAN_POINT('', (2.8575, -9.35251613196978E-16, -1.09558455358519E-30));
#93 = CARTESIAN_POINT('', (2.8575, -2.8575, 8.49320613838219E-15));
#94 = CARTESIAN_POINT('', (9.18932122976749E-16, -2.8575, 8.49320613838219E-15));
#95 = CARTESIAN_POINT('', (-2.8575, -2.8575, 8.49320613838219E-15));
#96 = CARTESIAN_POINT('', (-2.8575, 1.74971411428178E-16, 0.));
#97 = ADVANCED_FACE('', (#98), #101, .T.);
#98 = FACE_OUTER_BOUND('', #99, .T.);
#99 = EDGE_LOOP('', (#100));
#100 = ORIENTED_EDGE('', *, *, #64, .F.);
#101 = B_SPLINE_SURFACE_WITH_KNOTS('', 1, 1, ((#102, #103), (#104, #105)), .UNSPECIFIED., .F., .F., .U., (2, 2), (2, 2), (1.58772677992923, 7.30272677992923), (1.58772677992923, 7.30272677992923), .UNSPECIFIED.);
#102 = CARTESIAN_POINT('', (2.8575, -2.8575, 6.93045594617286E-15));
#103 = CARTESIAN_POINT('', (-2.8575, -2.8575, -7.28039876902917E-15));
#104 = CARTESIAN_POINT('', (2.8575, 2.8575, 7.28039876902922E-15));
#105 = CARTESIAN_POINT('', (-2.8575, 2.8575, -6.93045594617282E-15));
#106 = ADVANCED_FACE('', (#107), #118, .T.);
#107 = FACE_OUTER_BOUND('', #108, .T.);
#108 = EDGE_LOOP('', (#109, #115, #116, #117));
#109 = ORIENTED_EDGE('', *, *, #110, .T.);
#110 = EDGE_CURVE('', #8, #55, #111, .T.);
#111 = LINE('', #112, #113);
#112 = CARTESIAN_POINT('', (-3.175, 4.06735818166815E-15, -63.25));
#113 = VECTOR('', #114, 62.9325);
#114 = DIRECTION('', (0., -3.85350423436704E-15, 62.9325));
#115 = ORIENTED_EDGE('', *, *, #72, .T.);
#116 = ORIENTED_EDGE('', *, *, #110, .F.);
#117 = ORIENTED_EDGE('', *, *, #17, .F.);
#118 = (
   BOUNDED_SURFACE ()
   B_SPLINE_SURFACE (1, 2, ((#119, #120, #121, #122, #123, #124, #125, #126, #127), (#128, #129, #130, #131, #132, #133, #134, #135, #136)), .UNSPECIFIED., .F., .T., .U.)
   B_SPLINE_SURFACE_WITH_KNOTS ((2, 2), (3, 2, 2, 2, 3), (0., 1.), (0., 4.9872783375738, 9.97455667514761, 14.9618350127214, 19.9491133502952), .UNSPECIFIED.)
   GEOMETRIC_REPRESENTATION_ITEM ()
   RATIONAL_B_SPLINE_SURFACE (((1., 0.707106781186548, 1., 0.707106781186548, 1., 0.707106781186548, 1., 0.707106781186548, 1.), (1., 0.707106781186548, 1., 0.707106781186548, 1., 0.707106781186548, 1., 0.707106781186548, 1.)))
   REPRESENTATION_ITEM ('')
   SURFACE ()
);
#119 = CARTESIAN_POINT('', (-3.175, 4.71025719703299E-15, -63.25));
#120 = CARTESIAN_POINT('', (-3.17499999999999, 3.17500000000001, -63.25));
#121 = CARTESIAN_POINT('', (7.12285798541413E-15, 3.175, -63.25));
#122 = CARTESIAN_POINT('', (3.17500000000001, 3.175, -63.25));
#123 = CARTESIAN_POINT('', (3.17500000000001, 8.43795773440136E-18, -63.25));
#124 = CARTESIAN_POINT('', (3.175, -3.175, -63.25));
#125 = CARTESIAN_POINT('', (2.80986410484483E-15, -3.175, -63.25));
#126 = CARTESIAN_POINT('', (-3.175, -3.175, -63.25));
#127 = CARTESIAN_POINT('', (-3.175, 4.71025719703299E-15, -63.25));
#128 = CARTESIAN_POINT('', (-3.175, 2.13853947301106E-16, -0.31750000000001));
#129 = CARTESIAN_POINT('', (-3.175, 3.175, -0.31750000000001));
#130 = CARTESIAN_POINT('', (3.82195512727762E-15, 3.175, -0.31750000000001));
#131 = CARTESIAN_POINT('', (3.175, 3.175, -0.317500000000009));
#132 = CARTESIAN_POINT('', (3.175, -4.48796529199748E-15, -0.31750000000001));
#133 = CARTESIAN_POINT('', (3.175, -3.175, -0.31750000000001));
#134 = CARTESIAN_POINT('', (-4.91038753291676E-16, -3.175, -0.31750000000001));
#135 = CARTESIAN_POINT('', (-3.175, -3.175, -0.31750000000001));
#136 = CARTESIAN_POINT('', (-3.175, 2.13853947301106E-16, -0.31750000000001));
#137 = ADVANCED_FACE('', (#138), #157, .T.);
#138 = FACE_OUTER_BOUND('', #139, .T.);
#139 = EDGE_LOOP('', (#140, #149, #155, #156));
#140 = ORIENTED_EDGE('', *, *, #141, .F.);
#141 = EDGE_CURVE('', #142, #142, #144, .T.);
#142 = VERTEX_POINT('', #143);
#143 = CARTESIAN_POINT('', (-1.19, 4.44712115408374E-15, -71.437));
#144 = CIRCLE('', #145, 1.19);
#145 = AXIS2_PLACEMENT_3D('', #146, #147, #148);
#146 = CARTESIAN_POINT('', (3.85108611666851E-16, 1.83186799063151E-15, -71.437));
#147 = DIRECTION('', (1.19418947186571E-14, -3.88507639932874E-14, -1.));
#148 = DIRECTION('', (-1., 2.19769173399347E-15, -1.19418947186571E-14));
#149 = ORIENTED_EDGE('', *, *, #150, .F.);
#150 = EDGE_CURVE('', #10, #142, #151, .T.);
#151 = LINE('', #152, #153);
#152 = CARTESIAN_POINT('', (-1.19, 4.15522658950697E-15, -66.67));
#153 = VECTOR('', #154, 4.767);
#154 = DIRECTION('', (0., 2.9189456457677E-16, -4.767));
#155 = ORIENTED_EDGE('', *, *, #25, .T.);
#156 = ORIENTED_EDGE('', *, *, #150, .T.);
#157 = (
   BOUNDED_SURFACE ()
   B_SPLINE_SURFACE (2, 1, ((#158, #159), (#160, #161), (#162, #163), (#164, #165), (#166, #167), (#168, #169), (#170, #171), (#172, #173), (#174, #175)), .UNSPECIFIED., .T., .F., .U.)
   B_SPLINE_SURFACE_WITH_KNOTS ((3, 2, 2, 2, 3), (2, 2), (0., 1.86924762888593, 3.73849525777186, 5.60774288665778, 7.47699051554371), (0., 0.571582733812951), .UNSPECIFIED.)
   GEOMETRIC_REPRESENTATION_ITEM ()
   RATIONAL_B_SPLINE_SURFACE (((1., 1.), (0.707106781186548, 0.707106781186548), (1., 1.), (0.707106781186548, 0.707106781186548), (1., 1.), (0.707106781186548, 0.707106781186548), (1., 1.), (0.707106781186548, 0.707106781186548), (1., 1.)))
   REPRESENTATION_ITEM ('')
   SURFACE ()
);
#158 = CARTESIAN_POINT('', (-1.19, 4.15522658950697E-15, -66.67));
#159 = CARTESIAN_POINT('', (-1.19, 3.87767083335068E-15, -71.437));
#160 = CARTESIAN_POINT('', (-1.19, 1.19, -66.67));
#161 = CARTESIAN_POINT('', (-1.19, 1.19, -71.437));
#162 = CARTESIAN_POINT('', (2.22273653871057E-15, 1.19, -66.67));
#163 = CARTESIAN_POINT('', (2.22273653871057E-15, 1.19, -71.437));
#164 = CARTESIAN_POINT('', (1.19, 1.19, -66.67));
#165 = CARTESIAN_POINT('', (1.19, 1.19, -71.437));
#166 = CARTESIAN_POINT('', (1.19, -2.90246487914161E-16, -66.67));
#167 = CARTESIAN_POINT('', (1.19, -5.6780224407045E-16, -71.437));
#168 = CARTESIAN_POINT('', (1.19, -1.19, -66.67));
#169 = CARTESIAN_POINT('', (1.19, -1.19, -71.437));
#170 = CARTESIAN_POINT('', (-2.07700356961203E-15, -1.19, -66.67));
#171 = CARTESIAN_POINT('', (-2.07700356961203E-15, -1.19, -71.437));
#172 = CARTESIAN_POINT('', (-1.19, -1.19, -66.67));
#173 = CARTESIAN_POINT('', (-1.19, -1.19, -71.437));
#174 = CARTESIAN_POINT('', (-1.19, 4.15522658950697E-15, -66.67));
#175 = CARTESIAN_POINT('', (-1.19, 3.87767083335068E-15, -71.437));
#176 = ADVANCED_FACE('', (#177), #180, .T.);
#177 = FACE_OUTER_BOUND('', #178, .T.);
#178 = EDGE_LOOP('', (#179));
#179 = ORIENTED_EDGE('', *, *, #141, .T.);
#180 = B_SPLINE_SURFACE_WITH_KNOTS('', 1, 1, ((#181, #182), (#183, #184)), .UNSPECIFIED., .F., .F., .U., (2, 2), (2, 2), (78.315430589392, 80.695430589392), (72.7592605581913, 75.1392605581913), .UNSPECIFIED.);
#181 = CARTESIAN_POINT('', (-1.19, 1.19, -71.437));
#182 = CARTESIAN_POINT('', (-1.19, -1.19, -71.437));
#183 = CARTESIAN_POINT('', (1.19, 1.19, -71.437));
#184 = CARTESIAN_POINT('', (1.19, -1.19, -71.437));
#185 = DRAUGHTING_MODEL('', (#193, #301, #341, #346, #351, #356, #361), #375);
#186 = PRESENTATION_STYLE_ASSIGNMENT((#187));
#187 = SURFACE_STYLE_USAGE(.POSITIVE., #188);
#188 = SURFACE_SIDE_STYLE('', (#189));
#189 = SURFACE_STYLE_FILL_AREA(#190);
#190 = FILL_AREA_STYLE('', (#191));
#191 = FILL_AREA_STYLE_COLOUR('', #192);
#192 = COLOUR_RGB('', 0.50196078431373, 0.50196078431373, 0.50196078431373);
#193 = STYLED_ITEM('', (#186), #1);
#194 = MANIFOLD_SOLID_BREP('CUT', #195);
#195 = CLOSED_SHELL('', (#196, #213, #252));
#196 = ADVANCED_FACE('', (#197), #208, .T.);
#197 = FACE_OUTER_BOUND('', #198, .T.);
#198 = EDGE_LOOP('', (#199));
#199 = ORIENTED_EDGE('', *, *, #200, .F.);
#200 = EDGE_CURVE('', #201, #201, #203, .T.);
#201 = VERTEX_POINT('', #202);
#202 = CARTESIAN_POINT('', (-1.19, 4.44712115408374E-15, -71.437));
#203 = CIRCLE('', #204, 1.19);
#204 = AXIS2_PLACEMENT_3D('', #205, #206, #207);
#205 = CARTESIAN_POINT('', (3.85108611666851E-16, 1.83186799063151E-15, -71.437));
#206 = DIRECTION('', (1.19418947186571E-14, -3.88507639932874E-14, -1.));
#207 = DIRECTION('', (-1., 2.19769173399347E-15, -1.19418947186571E-14));
#208 = B_SPLINE_SURFACE_WITH_KNOTS('', 1, 1, ((#209, #210), (#211, #212)), .UNSPECIFIED., .F., .F., .U., (2, 2), (2, 2), (72.7592605581913, 75.1392605581913), (78.315430589392, 80.695430589392), .UNSPECIFIED.);
#209 = CARTESIAN_POINT('', (-1.19, 1.19, -71.437));
#210 = CARTESIAN_POINT('', (1.19, 1.19, -71.437));
#211 = CARTESIAN_POINT('', (-1.19, -1.19, -71.437));
#212 = CARTESIAN_POINT('', (1.19, -1.19, -71.437));
#213 = ADVANCED_FACE('', (#214), #233, .T.);
#214 = FACE_OUTER_BOUND('', #215, .T.);
#215 = EDGE_LOOP('', (#216, #217, #225, #232));
#216 = ORIENTED_EDGE('', *, *, #200, .T.);
#217 = ORIENTED_EDGE('', *, *, #218, .T.);
#218 = EDGE_CURVE('', #201, #219, #221, .T.);
#219 = VERTEX_POINT('', #220);
#220 = CARTESIAN_POINT('', (-1.19, 4.66590430475142E-15, -75.01));
#221 = LINE('', #222, #223);
#222 = CARTESIAN_POINT('', (-1.19, 4.44712115408374E-15, -71.437));
#223 = VECTOR('', #224, 3.57300000000001);
#224 = DIRECTION('', (0., 2.1878315066768E-16, -3.57300000000001));
#225 = ORIENTED_EDGE('', *, *, #226, .F.);
#226 = EDGE_CURVE('', #219, #219, #227, .T.);
#227 = CIRCLE('', #228, 1.19);
#228 = AXIS2_PLACEMENT_3D('', #229, #230, #231);
#229 = CARTESIAN_POINT('', (3.85108611666851E-16, 2.05391259555654E-15, -75.01));
#230 = DIRECTION('', (0., 0., -1.));
#231 = DIRECTION('', (-1., 2.19495101613015E-15, 0.));
#232 = ORIENTED_EDGE('', *, *, #218, .F.);
#233 = (
   BOUNDED_SURFACE ()
   B_SPLINE_SURFACE (2, 1, ((#234, #235), (#236, #237), (#238, #239), (#240, #241), (#242, #243), (#244, #245), (#246, #247), (#248, #249), (#250, #251)), .UNSPECIFIED., .T., .F., .U.)
   B_SPLINE_SURFACE_WITH_KNOTS ((3, 2, 2, 2, 3), (2, 2), (0., 1.86924762888593, 3.73849525777186, 5.60774288665778, 7.47699051554371), (0.571582733812951, 1.), .UNSPECIFIED.)
   GEOMETRIC_REPRESENTATION_ITEM ()
   RATIONAL_B_SPLINE_SURFACE (((1., 1.), (0.707106781186548, 0.707106781186548), (1., 1.), (0.707106781186548, 0.707106781186548), (1., 1.), (0.707106781186548, 0.707106781186548), (1., 1.), (0.707106781186548, 0.707106781186548), (1., 1.)))
   REPRESENTATION_ITEM ('')
   SURFACE ()
);
#234 = CARTESIAN_POINT('', (-1.19, 4.44712115408374E-15, -71.437));
#235 = CARTESIAN_POINT('', (-1.19, 4.72467691024003E-15, -75.01));
#236 = CARTESIAN_POINT('', (-1.19, 1.19, -71.437));
#237 = CARTESIAN_POINT('', (-1.19, 1.19, -75.01));
#238 = CARTESIAN_POINT('', (2.85116745762684E-15, 1.19, -71.437));
#239 = CARTESIAN_POINT('', (2.85116745762684E-15, 1.19, -75.01));
#240 = CARTESIAN_POINT('', (1.19, 1.19, -71.437));
#241 = CARTESIAN_POINT('', (1.19, 1.19, -75.01));
#242 = CARTESIAN_POINT('', (1.19, -1.13725256480351E-15, -71.437));
#243 = CARTESIAN_POINT('', (1.19, -8.59696808647219E-16, -75.01));
#244 = CARTESIAN_POINT('', (1.19, -1.19, -71.437));
#245 = CARTESIAN_POINT('', (1.19, -1.19, -75.01));
#246 = CARTESIAN_POINT('', (-2.58747329216188E-15, -1.19, -71.437));
#247 = CARTESIAN_POINT('', (-2.58747329216188E-15, -1.19, -75.01));
#248 = CARTESIAN_POINT('', (-1.19, -1.19, -71.437));
#249 = CARTESIAN_POINT('', (-1.19, -1.19, -75.01));
#250 = CARTESIAN_POINT('', (-1.19, 4.44712115408374E-15, -71.437));
#251 = CARTESIAN_POINT('', (-1.19, 4.72467691024003E-15, -75.01));
#252 = ADVANCED_FACE('', (#253), #266, .T.);
#253 = FACE_OUTER_BOUND('', #254, .T.);
#254 = EDGE_LOOP('', (#255, #264, #265));
#255 = ORIENTED_EDGE('', *, *, #256, .F.);
#256 = EDGE_CURVE('', #219, #257, #259, .T.);
#257 = VERTEX_POINT('', #258);
#258 = CARTESIAN_POINT('', (1.07577151185287E-16, 4.66590430475142E-15, -76.2));
#259 = CIRCLE('', #260, 1.19);
#260 = AXIS2_PLACEMENT_3D('', #261, #262, #263);
#261 = CARTESIAN_POINT('', (-3.33066907387547E-15, 4.59303782020216E-15, -75.01));
#262 = DIRECTION('', (-6.12323399573592E-17, -1., -6.12323399573596E-17));
#263 = DIRECTION('', (-1., 6.12323399573592E-17, 0.));
#264 = ORIENTED_EDGE('', *, *, #226, .T.);
#265 = ORIENTED_EDGE('', *, *, #256, .T.);
#266 = (
   BOUNDED_SURFACE ()
   B_SPLINE_SURFACE (2, 2, ((#267, #268, #269), (#270, #271, #272), (#273, #274, #275), (#276, #277, #278), (#279, #280, #281), (#282, #283, #284), (#285, #286, #287), (#288, #289, #290), (#291, #292, #293)), .UNSPECIFIED., .T., .F., .U.)
   B_SPLINE_SURFACE_WITH_KNOTS ((3, 2, 2, 2, 3), (3, 3), (0., 0.25, 0.5, 0.75, 1.), (0., 1.), .UNSPECIFIED.)
   GEOMETRIC_REPRESENTATION_ITEM ()
   RATIONAL_B_SPLINE_SURFACE (((1., 0.707106781186548, 1.), (0.707106781186548, 0.5, 0.707106781186548), (1., 0.707106781186548, 1.), (0.707106781186548, 0.5, 0.707106781186548), (1., 0.707106781186548, 1.), (0.707106781186548, 0.5, 0.707106781186548), (1., 0.707106781186548, 1.), (0.707106781186548, 0.5, 0.707106781186548), (1., 0.707106781186548, 1.)))
   REPRESENTATION_ITEM ('')
   SURFACE ()
);
#267 = CARTESIAN_POINT('', (-1.19, 4.66590430475142E-15, -75.01));
#268 = CARTESIAN_POINT('', (-1.19, 4.73877078930068E-15, -76.2));
#269 = CARTESIAN_POINT('', (1.07577151185287E-16, 4.66590430475142E-15, -76.2));
#270 = CARTESIAN_POINT('', (-1.19, 1.19, -75.01));
#271 = CARTESIAN_POINT('', (-1.19, 1.19, -76.2));
#272 = CARTESIAN_POINT('', (1.07577151185287E-16, 4.66590430475142E-15, -76.2));
#273 = CARTESIAN_POINT('', (-3.55271367880051E-15, 1.19, -75.01));
#274 = CARTESIAN_POINT('', (-3.47984719425125E-15, 1.19, -76.2));
#275 = CARTESIAN_POINT('', (1.07577151185287E-16, 4.66590430475142E-15, -76.2));
#276 = CARTESIAN_POINT('', (1.18999999999999, 1.19, -75.01));
#277 = CARTESIAN_POINT('', (1.18999999999999, 1.19, -76.2));
#278 = CARTESIAN_POINT('', (1.07577151185287E-16, 4.66590430475142E-15, -76.2));
#279 = CARTESIAN_POINT('', (1.18999999999999, 4.66590430475143E-15, -75.01));
#280 = CARTESIAN_POINT('', (1.18999999999999, 4.59303782020217E-15, -76.2));
#281 = CARTESIAN_POINT('', (1.07577151185287E-16, 4.66590430475142E-15, -76.2));
#282 = CARTESIAN_POINT('', (1.18999999999999, -1.18999999999999, -75.01));
#283 = CARTESIAN_POINT('', (1.18999999999999, -1.18999999999999, -76.2));
#284 = CARTESIAN_POINT('', (1.07577151185287E-16, 4.66590430475142E-15, -76.2));
#285 = CARTESIAN_POINT('', (-3.40698070970196E-15, -1.18999999999999, -75.01));
#286 = CARTESIAN_POINT('', (-3.47984719425122E-15, -1.18999999999999, -76.2));
#287 = CARTESIAN_POINT('', (1.07577151185287E-16, 4.66590430475142E-15, -76.2));
#288 = CARTESIAN_POINT('', (-1.19, -1.18999999999999, -75.01));
#289 = CARTESIAN_POINT('', (-1.19, -1.18999999999999, -76.2));
#290 = CARTESIAN_POINT('', (1.07577151185287E-16, 4.66590430475142E-15, -76.2));
#291 = CARTESIAN_POINT('', (-1.19, 4.66590430475142E-15, -75.01));
#292 = CARTESIAN_POINT('', (-1.19, 4.73877078930068E-15, -76.2));
#293 = CARTESIAN_POINT('', (1.07577151185287E-16, 4.66590430475142E-15, -76.2));
#294 = PRESENTATION_STYLE_ASSIGNMENT((#295));
#295 = SURFACE_STYLE_USAGE(.POSITIVE., #296);
#296 = SURFACE_SIDE_STYLE('', (#297));
#297 = SURFACE_STYLE_FILL_AREA(#298);
#298 = FILL_AREA_STYLE('', (#299));
#299 = FILL_AREA_STYLE_COLOUR('', #300);
#300 = COLOUR_RGB('', 0.8, 0.8, 0.8);
#301 = STYLED_ITEM('', (#294), #194);
#302 = TRIMMED_CURVE('cutting part line', #303, (#307), (#308), .T., .CARTESIAN.);
#303 = LINE('', #304, #305);
#304 = CARTESIAN_POINT('', (-8.03537546955113E-31, -4.37425466953447E-15, -71.437));
#305 = VECTOR('', #306, 1.19);
#306 = DIRECTION('', (1.19, -2.18599453647805E-16, 0.));
#307 = CARTESIAN_POINT('', (-8.03537546955113E-31, -4.37425466953447E-15, -71.437));
#308 = CARTESIAN_POINT('', (1.19, -4.59285412318227E-15, -71.437));
#309 = TRIMMED_CURVE('cutting part line', #310, (#314), (#315), .T., .CARTESIAN.);
#310 = LINE('', #311, #312);
#311 = CARTESIAN_POINT('', (1.19, -4.59285412318227E-15, -71.437));
#312 = VECTOR('', #313, 3.57300000000001);
#313 = DIRECTION('', (0., -2.1878315066768E-16, -3.57300000000001));
#314 = CARTESIAN_POINT('', (1.19, -4.59285412318227E-15, -71.437));
#315 = CARTESIAN_POINT('', (1.19, -4.81163727384996E-15, -75.01));
#316 = TRIMMED_CURVE('cutting part line', #317, (#322), (#323), .T., .CARTESIAN.);
#317 = CIRCLE('', #318, 1.19);
#318 = AXIS2_PLACEMENT_3D('', #319, #320, #321);
#319 = CARTESIAN_POINT('', (3.33066907387547E-15, -4.59303782020216E-15, -75.01));
#320 = DIRECTION('', (1.83697019872096E-16, 1., -6.12323399573607E-17));
#321 = DIRECTION('', (1., -1.83697019872096E-16, 0.));
#322 = CARTESIAN_POINT('', (1.19, -4.81163727384996E-15, -75.01));
#323 = CARTESIAN_POINT('', (-2.95727559626269E-16, -4.66590430475142E-15, -76.2));
#324 = TRIMMED_CURVE('cutting part line', #325, (#329), (#330), .T., .CARTESIAN.);
#325 = LINE('', #326, #327);
#326 = CARTESIAN_POINT('', (-8.57112715791252E-31, -4.66590430475142E-15, -76.2));
#327 = VECTOR('', #328, 4.76300000000001);
#328 = DIRECTION('', (5.35751688361391E-32, 2.9164963521695E-16, 4.76300000000001));
#329 = CARTESIAN_POINT('', (-8.57112715791252E-31, -4.66590430475142E-15, -76.2));
#330 = CARTESIAN_POINT('', (-8.03537546955113E-31, -4.37425466953447E-15, -71.437));
#331 = COMPOSITE_CURVE('cutting part line', (#332, #333, #334, #335), .U.);
#332 = COMPOSITE_CURVE_SEGMENT(.CONTINUOUS., .T., #302);
#333 = COMPOSITE_CURVE_SEGMENT(.CONTINUOUS., .T., #309);
#334 = COMPOSITE_CURVE_SEGMENT(.CONTINUOUS., .T., #316);
#335 = COMPOSITE_CURVE_SEGMENT(.CONTINUOUS., .T., #324);
#336 = GEOMETRIC_SET('', (#331, #374));
#337 = PRESENTATION_STYLE_ASSIGNMENT((#338));
#338 = CURVE_STYLE('', #340, POSITIVE_LENGTH_MEASURE(1.E-6), #339);
#339 = COLOUR_RGB('', 0., 0., 1.);
#340 = DRAUGHTING_PRE_DEFINED_CURVE_FONT('continuous');
#341 = STYLED_ITEM('', (#337), #331);
#342 = PRESENTATION_STYLE_ASSIGNMENT((#343));
#343 = CURVE_STYLE('', #345, POSITIVE_LENGTH_MEASURE(1.E-6), #344);
#344 = COLOUR_RGB('', 0., 0., 1.);
#345 = DRAUGHTING_PRE_DEFINED_CURVE_FONT('continuous');
#346 = OVER_RIDING_STYLED_ITEM('', (#342), #302, #341);
#347 = PRESENTATION_STYLE_ASSIGNMENT((#348));
#348 = CURVE_STYLE('', #350, POSITIVE_LENGTH_MEASURE(1.E-6), #349);
#349 = COLOUR_RGB('', 0., 0., 1.);
#350 = DRAUGHTING_PRE_DEFINED_CURVE_FONT('continuous');
#351 = OVER_RIDING_STYLED_ITEM('', (#347), #309, #341);
#352 = PRESENTATION_STYLE_ASSIGNMENT((#353));
#353 = CURVE_STYLE('', #355, POSITIVE_LENGTH_MEASURE(1.E-6), #354);
#354 = COLOUR_RGB('', 0., 0., 1.);
#355 = DRAUGHTING_PRE_DEFINED_CURVE_FONT('continuous');
#356 = OVER_RIDING_STYLED_ITEM('', (#352), #316, #341);
#357 = PRESENTATION_STYLE_ASSIGNMENT((#358));
#358 = CURVE_STYLE('', #360, POSITIVE_LENGTH_MEASURE(1.E-6), #359);
#359 = COLOUR_RGB('', 0., 0., 1.);
#360 = DRAUGHTING_PRE_DEFINED_CURVE_FONT('continuous');
#361 = OVER_RIDING_STYLED_ITEM('', (#357), #324, #341);
#362 = AXIS2_PLACEMENT_3D('CIP', #363, #364, #365);
#363 = CARTESIAN_POINT('', (2.85704238597084E-31, 4.66590430475142E-15, -76.2));
#364 = DIRECTION('', (-3.74939945665465E-33, -6.12323399573677E-17, 1.));
#365 = DIRECTION('', (1., -6.12323399573677E-17, 0.));
#366 = AXIS2_PLACEMENT_3D('MCS', #367, #368, #369);
#367 = CARTESIAN_POINT('', (1.34978380439567E-31, 2.20436423846524E-15, -36.));
#368 = DIRECTION('', (-3.74939945665465E-33, -6.12323399573677E-17, 1.));
#369 = DIRECTION('', (1., -6.12323399573677E-17, 0.));
#370 = AXIS2_PLACEMENT_3D('PCS', #371, #372, #373);
#371 = CARTESIAN_POINT('', (0., 0., 0.));
#372 = DIRECTION('', (0., 0., 1.));
#373 = DIRECTION('', (1., 0., 0.));
#374 = CARTESIAN_POINT('CRP', (1.19, 0., -76.2));
#375 = (
   GEOMETRIC_REPRESENTATION_CONTEXT (3)
   GLOBAL_UNCERTAINTY_ASSIGNED_CONTEXT ((#377))
   GLOBAL_UNIT_ASSIGNED_CONTEXT ((#376, #378, #379))
   REPRESENTATION_CONTEXT ('', '3D')
);
#376 = (
   LENGTH_UNIT ()
   NAMED_UNIT (*)
   SI_UNIT (.MILLI., .METRE.)
);
#377 = UNCERTAINTY_MEASURE_WITH_UNIT(LENGTH_MEASURE(1.E-6), #376, 'DISTANCE_ACCURACY_VALUE', '');
#378 = (
   NAMED_UNIT (*)
   SI_UNIT ($, .STERADIAN.)
   SOLID_ANGLE_UNIT ()
);
#379 = (
   NAMED_UNIT (*)
   PLANE_ANGLE_UNIT ()
   SI_UNIT ($, .RADIAN.)
);
#380 = SHAPE_REPRESENTATION('', (), #375);
#381 = PRODUCT_DEFINITION_SHAPE('', '', #382);
#382 = PRODUCT_DEFINITION('', '', #385, #389);
#383 = APPLICATION_CONTEXT('configuration controlled 3D designs of mechanical parts and assemblies');
#384 = APPLICATION_PROTOCOL_DEFINITION('International Standard', 'automotive_design', 2002, #383);
#385 = PRODUCT_DEFINITION_FORMATION_WITH_SPECIFIED_SOURCE('', '', #386, .NOT_KNOWN.);
#386 = PRODUCT('NONE', '1B231-0238-XA       1620', '', (#387));
#387 = PRODUCT_CONTEXT('', #383, 'mechanical');
#388 = PRODUCT_RELATED_PRODUCT_CATEGORY('detail', '', (#386));
#389 = PRODUCT_DEFINITION_CONTEXT('part definition', #383, 'design');
#390 = SHAPE_DEFINITION_REPRESENTATION(#381, #380);
#391 = CONSTRUCTIVE_GEOMETRY_REPRESENTATION('supplemental geometry', (#362, #366, #370), #375);
#392 = CONSTRUCTIVE_GEOMETRY_REPRESENTATION_RELATIONSHIP('', '', #380, #391);
#393 = SHAPE_REPRESENTATION_RELATIONSHIP('', '', #380, #394);
#394 = SHAPE_REPRESENTATION('', (#336), #375);
#395 = SHAPE_REPRESENTATION_RELATIONSHIP('', '', #380, #396);
#396 = ADVANCED_BREP_SHAPE_REPRESENTATION('', (#1, #194), #375);
ENDSEC;
END-ISO-10303-21;
