ISO-10303-21;
HEADER;
FILE_DESCRIPTION(('STEP'), '1');
FILE_NAME('C:\\Users\\ds2002\\OneDrive - Sandvik\\HomeShare\\Documents\\Batchrepair\\CorSRT2\\NEW_MILBN_SLD\\Output2\\MOD000000000000000020082224900000.stp', '2018-11-23T12:38:50', (''), (''), 'Express v3.0.0.0', 'Express Tool', 'Unknown');
FILE_SCHEMA(('AUTOMOTIVE_DESIGN'));
ENDSEC;

DATA;
#1 = MANIFOLD_SOLID_BREP('NOCUT', #2);
#2 = CLOSED_SHELL('', (#3, #50, #89, #98, #137));
#3 = ADVANCED_FACE('', (#4), #31, .T.);
#4 = FACE_OUTER_BOUND('', #5, .T.);
#5 = EDGE_LOOP('', (#6, #16, #23, #24));
#6 = ORIENTED_EDGE('', *, *, #7, .T.);
#7 = EDGE_CURVE('', #8, #10, #12, .T.);
#8 = VERTEX_POINT('', #9);
#9 = CARTESIAN_POINT('', (-7., 3.18408167778312E-15, -45.));
#10 = VERTEX_POINT('', #11);
#11 = CARTESIAN_POINT('', (-7., 4.71489017671731E-16, -0.700000000000003));
#12 = LINE('', #13, #14);
#13 = CARTESIAN_POINT('', (-7., 3.18408167778312E-15, -45.));
#14 = VECTOR('', #15, 44.3);
#15 = DIRECTION('', (0., -2.71259266011139E-15, 44.3));
#16 = ORIENTED_EDGE('', *, *, #17, .T.);
#17 = EDGE_CURVE('', #10, #10, #18, .T.);
#18 = CIRCLE('', #19, 7.);
#19 = AXIS2_PLACEMENT_3D('', #20, #21, #22);
#20 = CARTESIAN_POINT('', (4.44089209850063E-16, -1.77635683940025E-15, -0.700000000000003));
#21 = DIRECTION('', (1.58603289232165E-17, 2.38255613369127E-18, -1.));
#22 = DIRECTION('', (-1., 3.21120836724569E-16, -1.58603289232165E-17));
#23 = ORIENTED_EDGE('', *, *, #7, .F.);
#24 = ORIENTED_EDGE('', *, *, #25, .F.);
#25 = EDGE_CURVE('', #8, #8, #26, .T.);
#26 = CIRCLE('', #27, 7.);
#27 = AXIS2_PLACEMENT_3D('', #28, #29, #30);
#28 = CARTESIAN_POINT('', (-1.11022302462516E-16, -8.88178419700125E-16, -45.));
#29 = DIRECTION('', (0., 0., -1.));
#30 = DIRECTION('', (-1., 5.81751442497606E-16, 0.));
#31 = (
   BOUNDED_SURFACE ()
   B_SPLINE_SURFACE (1, 2, ((#32, #33, #34, #35, #36, #37, #38, #39, #40), (#41, #42, #43, #44, #45, #46, #47, #48, #49)), .UNSPECIFIED., .F., .T., .U.)
   B_SPLINE_SURFACE_WITH_KNOTS ((2, 2), (3, 2, 2, 2, 3), (0., 1.), (0., 10.9955742875643, 21.9911485751286, 32.9867228626928, 43.9822971502571), .UNSPECIFIED.)
   GEOMETRIC_REPRESENTATION_ITEM ()
   RATIONAL_B_SPLINE_SURFACE (((1., 0.707106781186548, 1., 0.707106781186548, 1., 0.707106781186548, 1., 0.707106781186548, 1.), (1., 0.707106781186548, 1., 0.707106781186548, 1., 0.707106781186548, 1., 0.707106781186548, 1.)))
   REPRESENTATION_ITEM ('')
   SURFACE ()
);
#32 = CARTESIAN_POINT('', (-7., 3.13602427677211E-15, -45.));
#33 = CARTESIAN_POINT('', (-7., 7., -45.));
#34 = CARTESIAN_POINT('', (2.96592125851896E-15, 7., -45.));
#35 = CARTESIAN_POINT('', (7., 7., -45.));
#36 = CARTESIAN_POINT('', (7., -5.02414677968709E-16, -45.));
#37 = CARTESIAN_POINT('', (7., -7., -45.));
#38 = CARTESIAN_POINT('', (1.84735063181295E-16, -7., -45.));
#39 = CARTESIAN_POINT('', (-7., -7., -45.));
#40 = CARTESIAN_POINT('', (-7., 3.13602427677211E-15, -45.));
#41 = CARTESIAN_POINT('', (-7., 4.71489017671731E-16, -0.700000000000003));
#42 = CARTESIAN_POINT('', (-7., 7., -0.700000000000003));
#43 = CARTESIAN_POINT('', (2.26330868722047E-15, 7., -0.700000000000002));
#44 = CARTESIAN_POINT('', (7., 7., -0.700000000000002));
#45 = CARTESIAN_POINT('', (7., -3.16694993706908E-15, -0.700000000000003));
#46 = CARTESIAN_POINT('', (7., -7., -0.700000000000003));
#47 = CARTESIAN_POINT('', (-5.17877508117198E-16, -7., -0.700000000000003));
#48 = CARTESIAN_POINT('', (-7., -7., -0.700000000000003));
#49 = CARTESIAN_POINT('', (-7., 4.71489017671731E-16, -0.700000000000003));
#50 = ADVANCED_FACE('', (#51), #70, .T.);
#51 = FACE_OUTER_BOUND('', #52, .T.);
#52 = EDGE_LOOP('', (#53, #61, #68, #69));
#53 = ORIENTED_EDGE('', *, *, #54, .T.);
#54 = EDGE_CURVE('', #10, #55, #57, .T.);
#55 = VERTEX_POINT('', #56);
#56 = CARTESIAN_POINT('', (-6.3, 3.85763741731416E-16, 0.));
#57 = LINE('', #58, #59);
#58 = CARTESIAN_POINT('', (-7., 4.71489017671731E-16, -0.700000000000003));
#59 = VECTOR('', #60, 0.989949493661169);
#60 = DIRECTION('', (0.7, -8.57252759403149E-17, 0.700000000000003));
#61 = ORIENTED_EDGE('', *, *, #62, .T.);
#62 = EDGE_CURVE('', #55, #55, #63, .T.);
#63 = CIRCLE('', #64, 6.3);
#64 = AXIS2_PLACEMENT_3D('', #65, #66, #67);
#65 = CARTESIAN_POINT('', (-6.93889390390723E-16, -3.44169137633799E-15, -2.2186712959341E-31));
#66 = DIRECTION('', (1.9836354552036E-33, 6.12323399573676E-17, -1.));
#67 = DIRECTION('', (-1., 6.07532558423715E-16, 3.52170046973666E-32));
#68 = ORIENTED_EDGE('', *, *, #54, .F.);
#69 = ORIENTED_EDGE('', *, *, #17, .F.);
#70 = (
   BOUNDED_SURFACE ()
   B_SPLINE_SURFACE (1, 2, ((#71, #72, #73, #74, #75, #76, #77, #78, #79), (#80, #81, #82, #83, #84, #85, #86, #87, #88)), .UNSPECIFIED., .F., .T., .U.)
   B_SPLINE_SURFACE_WITH_KNOTS ((2, 2), (3, 2, 2, 2, 3), (0., 1.), (0., 0.25, 0.5, 0.75, 1.), .UNSPECIFIED.)
   GEOMETRIC_REPRESENTATION_ITEM ()
   RATIONAL_B_SPLINE_SURFACE (((1., 0.707106781186548, 1., 0.707106781186548, 1., 0.707106781186548, 1., 0.707106781186548, 1.), (1., 0.707106781186548, 1., 0.707106781186548, 1., 0.707106781186548, 1., 0.707106781186548, 1.)))
   REPRESENTATION_ITEM ('')
   SURFACE ()
);
#71 = CARTESIAN_POINT('', (-7., -2.1865656338599E-15, -0.700000000000003));
#72 = CARTESIAN_POINT('', (-7., 7., -0.700000000000033));
#73 = CARTESIAN_POINT('', (3.1302121388737E-15, 6.99999999999999, -0.700000000000033));
#74 = CARTESIAN_POINT('', (7., 6.99999999999999, -0.700000000000033));
#75 = CARTESIAN_POINT('', (7., -9.83476869238876E-15, -0.700000000000003));
#76 = CARTESIAN_POINT('', (7., -7.00000000000001, -0.699999999999973));
#77 = CARTESIAN_POINT('', (-3.66073816025201E-15, -7.00000000000001, -0.699999999999973));
#78 = CARTESIAN_POINT('', (-7., -7., -0.699999999999973));
#79 = CARTESIAN_POINT('', (-7., -2.1865656338599E-15, -0.700000000000003));
#80 = CARTESIAN_POINT('', (-6.3, 3.85763741731417E-16, 4.37905770101505E-47));
#81 = CARTESIAN_POINT('', (-6.3, 6.3, -2.69784194983912E-14));
#82 = CARTESIAN_POINT('', (2.74780198594726E-15, 6.3, -2.69784194983912E-14));
#83 = CARTESIAN_POINT('', (6.3, 6.29999999999999, -2.69784194983912E-14));
#84 = CARTESIAN_POINT('', (6.3, -6.49761901094455E-15, -3.74763776766275E-30));
#85 = CARTESIAN_POINT('', (6.3, -6.30000000000001, 2.69784194983912E-14));
#86 = CARTESIAN_POINT('', (-3.36405328326588E-15, -6.3, 2.69784194983912E-14));
#87 = CARTESIAN_POINT('', (-6.3, -6.3, 2.69784194983912E-14));
#88 = CARTESIAN_POINT('', (-6.3, 3.85763741731417E-16, 4.37905770101505E-47));
#89 = ADVANCED_FACE('', (#90), #93, .T.);
#90 = FACE_OUTER_BOUND('', #91, .T.);
#91 = EDGE_LOOP('', (#92));
#92 = ORIENTED_EDGE('', *, *, #62, .F.);
#93 = B_SPLINE_SURFACE_WITH_KNOTS('', 1, 1, ((#94, #95), (#96, #97)), .UNSPECIFIED., .F., .F., .U., (2, 2), (2, 2), (0.0454545454545454, 0.954545454545454), (0.0454545454545454, 0.954545454545454), .UNSPECIFIED.);
#94 = CARTESIAN_POINT('', (6.3, -6.3, -3.85763741731416E-16));
#95 = CARTESIAN_POINT('', (-6.3, -6.3, -3.85763741731416E-16));
#96 = CARTESIAN_POINT('', (6.3, 6.3, 3.85763741731416E-16));
#97 = CARTESIAN_POINT('', (-6.3, 6.3, 3.85763741731416E-16));
#98 = ADVANCED_FACE('', (#99), #118, .T.);
#99 = FACE_OUTER_BOUND('', #100, .T.);
#100 = EDGE_LOOP('', (#101, #110, #116, #117));
#101 = ORIENTED_EDGE('', *, *, #102, .F.);
#102 = EDGE_CURVE('', #103, #103, #105, .T.);
#103 = VERTEX_POINT('', #104);
#104 = CARTESIAN_POINT('', (-7., 4.163799117101E-15, -61.));
#105 = CIRCLE('', #106, 7.);
#106 = AXIS2_PLACEMENT_3D('', #107, #108, #109);
#107 = CARTESIAN_POINT('', (1.2490009027033E-15, -1.33226762955019E-15, -61.));
#108 = DIRECTION('', (0., 0., -1.));
#109 = DIRECTION('', (-1., 7.85152392378741E-16, 0.));
#110 = ORIENTED_EDGE('', *, *, #111, .F.);
#111 = EDGE_CURVE('', #8, #103, #112, .T.);
#112 = LINE('', #113, #114);
#113 = CARTESIAN_POINT('', (-7., 3.18408167778312E-15, -45.));
#114 = VECTOR('', #115, 16.);
#115 = DIRECTION('', (0., 9.7971743931788E-16, -16.));
#116 = ORIENTED_EDGE('', *, *, #25, .T.);
#117 = ORIENTED_EDGE('', *, *, #111, .T.);
#118 = (
   BOUNDED_SURFACE ()
   B_SPLINE_SURFACE (2, 1, ((#119, #120), (#121, #122), (#123, #124), (#125, #126), (#127, #128), (#129, #130), (#131, #132), (#133, #134), (#135, #136)), .UNSPECIFIED., .T., .F., .U.)
   B_SPLINE_SURFACE_WITH_KNOTS ((3, 2, 2, 2, 3), (2, 2), (0., 10.9955742875643, 21.9911485751286, 32.9867228626928, 43.9822971502571), (0., 0.516129032258065), .UNSPECIFIED.)
   GEOMETRIC_REPRESENTATION_ITEM ()
   RATIONAL_B_SPLINE_SURFACE (((1., 1.), (0.707106781186548, 0.707106781186548), (1., 1.), (0.707106781186548, 0.707106781186548), (1., 1.), (0.707106781186548, 0.707106781186548), (1., 1.), (0.707106781186548, 0.707106781186548), (1., 1.)))
   REPRESENTATION_ITEM ('')
   SURFACE ()
);
#119 = CARTESIAN_POINT('', (-7., 3.18408167778312E-15, -45.));
#120 = CARTESIAN_POINT('', (-7., 5.19546418682744E-16, -61.));
#121 = CARTESIAN_POINT('', (-7., 7., -45.));
#122 = CARTESIAN_POINT('', (-7., 7., -61.));
#123 = CARTESIAN_POINT('', (2.2280993613846E-15, 7., -45.));
#124 = CARTESIAN_POINT('', (2.2280993613846E-15, 7., -61.));
#125 = CARTESIAN_POINT('', (7., 7., -45.));
#126 = CARTESIAN_POINT('', (7., 7., -61.));
#127 = CARTESIAN_POINT('', (7., -5.50472078979722E-16, -45.));
#128 = CARTESIAN_POINT('', (7., -3.2150073380801E-15, -61.));
#129 = CARTESIAN_POINT('', (7., -7., -45.));
#130 = CARTESIAN_POINT('', (7., -7., -61.));
#131 = CARTESIAN_POINT('', (-6.49201635975098E-16, -7., -45.));
#132 = CARTESIAN_POINT('', (-6.49201635975099E-16, -7., -61.));
#133 = CARTESIAN_POINT('', (-7., -7., -45.));
#134 = CARTESIAN_POINT('', (-7., -7., -61.));
#135 = CARTESIAN_POINT('', (-7., 3.18408167778312E-15, -45.));
#136 = CARTESIAN_POINT('', (-7., 5.19546418682744E-16, -61.));
#137 = ADVANCED_FACE('', (#138), #141, .T.);
#138 = FACE_OUTER_BOUND('', #139, .T.);
#139 = EDGE_LOOP('', (#140));
#140 = ORIENTED_EDGE('', *, *, #102, .T.);
#141 = B_SPLINE_SURFACE_WITH_KNOTS('', 1, 1, ((#142, #143), (#144, #145)), .UNSPECIFIED., .F., .F., .U., (2, 2), (2, 2), (0.478255622184387, 0.560291249409343), (0.439708750590656, 0.521744377815613), .UNSPECIFIED.);
#142 = CARTESIAN_POINT('', (-7.00000000000001, 7.00000000000001, -61.));
#143 = CARTESIAN_POINT('', (-7.00000000000001, -6.99999999999997, -61.));
#144 = CARTESIAN_POINT('', (6.99999999999999, 7.00000000000001, -61.));
#145 = CARTESIAN_POINT('', (6.99999999999999, -6.99999999999997, -61.));
#146 = DRAUGHTING_MODEL('', (#154, #262, #302, #307, #312, #317, #322), #336);
#147 = PRESENTATION_STYLE_ASSIGNMENT((#148));
#148 = SURFACE_STYLE_USAGE(.POSITIVE., #149);
#149 = SURFACE_SIDE_STYLE('', (#150));
#150 = SURFACE_STYLE_FILL_AREA(#151);
#151 = FILL_AREA_STYLE('', (#152));
#152 = FILL_AREA_STYLE_COLOUR('', #153);
#153 = COLOUR_RGB('', 0.50196078431373, 0.50196078431373, 0.50196078431373);
#154 = STYLED_ITEM('', (#147), #1);
#155 = MANIFOLD_SOLID_BREP('CUT', #156);
#156 = CLOSED_SHELL('', (#157, #174, #213));
#157 = ADVANCED_FACE('', (#158), #169, .T.);
#158 = FACE_OUTER_BOUND('', #159, .T.);
#159 = EDGE_LOOP('', (#160));
#160 = ORIENTED_EDGE('', *, *, #161, .F.);
#161 = EDGE_CURVE('', #162, #162, #164, .T.);
#162 = VERTEX_POINT('', #163);
#163 = CARTESIAN_POINT('', (-7., 4.163799117101E-15, -61.));
#164 = CIRCLE('', #165, 7.);
#165 = AXIS2_PLACEMENT_3D('', #166, #167, #168);
#166 = CARTESIAN_POINT('', (1.2490009027033E-15, -1.33226762955019E-15, -61.));
#167 = DIRECTION('', (0., 0., -1.));
#168 = DIRECTION('', (-1., 7.85152392378741E-16, 0.));
#169 = B_SPLINE_SURFACE_WITH_KNOTS('', 1, 1, ((#170, #171), (#172, #173)), .UNSPECIFIED., .F., .F., .U., (2, 2), (2, 2), (0.439708750590657, 0.521744377815613), (0.478255622184387, 0.560291249409343), .UNSPECIFIED.);
#170 = CARTESIAN_POINT('', (-7., 7., -61.));
#171 = CARTESIAN_POINT('', (7., 7., -61.));
#172 = CARTESIAN_POINT('', (-7., -7., -61.));
#173 = CARTESIAN_POINT('', (7., -7., -61.));
#174 = ADVANCED_FACE('', (#175), #194, .T.);
#175 = FACE_OUTER_BOUND('', #176, .T.);
#176 = EDGE_LOOP('', (#177, #178, #186, #193));
#177 = ORIENTED_EDGE('', *, *, #161, .T.);
#178 = ORIENTED_EDGE('', *, *, #179, .T.);
#179 = EDGE_CURVE('', #162, #180, #182, .T.);
#180 = VERTEX_POINT('', #181);
#181 = CARTESIAN_POINT('', (-7., 5.08228421646152E-15, -76.));
#182 = LINE('', #183, #184);
#183 = CARTESIAN_POINT('', (-7., 4.163799117101E-15, -61.));
#184 = VECTOR('', #185, 15.);
#185 = DIRECTION('', (0., 9.1848509936052E-16, -15.));
#186 = ORIENTED_EDGE('', *, *, #187, .F.);
#187 = EDGE_CURVE('', #180, #180, #188, .T.);
#188 = CIRCLE('', #189, 7.);
#189 = AXIS2_PLACEMENT_3D('', #190, #191, #192);
#190 = CARTESIAN_POINT('', (8.04911692853238E-16, -8.88178419700125E-16, -76.));
#191 = DIRECTION('', (0., 0., -1.));
#192 = DIRECTION('', (-1., 8.52923233737378E-16, 0.));
#193 = ORIENTED_EDGE('', *, *, #179, .F.);
#194 = (
   BOUNDED_SURFACE ()
   B_SPLINE_SURFACE (2, 1, ((#195, #196), (#197, #198), (#199, #200), (#201, #202), (#203, #204), (#205, #206), (#207, #208), (#209, #210), (#211, #212)), .UNSPECIFIED., .T., .F., .U.)
   B_SPLINE_SURFACE_WITH_KNOTS ((3, 2, 2, 2, 3), (2, 2), (0., 10.9955742875643, 21.9911485751286, 32.9867228626928, 43.9822971502571), (0.516129032258065, 1.), .UNSPECIFIED.)
   GEOMETRIC_REPRESENTATION_ITEM ()
   RATIONAL_B_SPLINE_SURFACE (((1., 1.), (0.707106781186548, 0.707106781186548), (1., 1.), (0.707106781186548, 0.707106781186548), (1., 1.), (0.707106781186548, 0.707106781186548), (1., 1.), (0.707106781186548, 0.707106781186548), (1., 1.)))
   REPRESENTATION_ITEM ('')
   SURFACE ()
);
#195 = CARTESIAN_POINT('', (-7., 4.163799117101E-15, -61.));
#196 = CARTESIAN_POINT('', (-7., 5.05197753680113E-15, -76.));
#197 = CARTESIAN_POINT('', (-6.99999999999999, 7., -61.));
#198 = CARTESIAN_POINT('', (-6.99999999999999, 7.00000000000001, -76.));
#199 = CARTESIAN_POINT('', (5.51152957679968E-15, 7., -61.));
#200 = CARTESIAN_POINT('', (5.51152957679968E-15, 7., -76.));
#201 = CARTESIAN_POINT('', (7.00000000000001, 6.99999999999999, -61.));
#202 = CARTESIAN_POINT('', (7.00000000000001, 6.99999999999999, -76.));
#203 = CARTESIAN_POINT('', (7., -6.85926003649835E-15, -61.));
#204 = CARTESIAN_POINT('', (7., -5.97108161679823E-15, -76.));
#205 = CARTESIAN_POINT('', (6.99999999999999, -7.00000000000001, -61.));
#206 = CARTESIAN_POINT('', (6.99999999999999, -7.00000000000001, -76.));
#207 = CARTESIAN_POINT('', (-4.65427681739653E-15, -7., -61.));
#208 = CARTESIAN_POINT('', (-4.65427681739653E-15, -7., -76.));
#209 = CARTESIAN_POINT('', (-7., -7., -61.));
#210 = CARTESIAN_POINT('', (-7., -7., -76.));
#211 = CARTESIAN_POINT('', (-7., 4.163799117101E-15, -61.));
#212 = CARTESIAN_POINT('', (-7., 5.05197753680113E-15, -76.));
#213 = ADVANCED_FACE('', (#214), #227, .T.);
#214 = FACE_OUTER_BOUND('', #215, .T.);
#215 = EDGE_LOOP('', (#216, #225, #226));
#216 = ORIENTED_EDGE('', *, *, #217, .F.);
#217 = EDGE_CURVE('', #180, #218, #220, .T.);
#218 = VERTEX_POINT('', #219);
#219 = CARTESIAN_POINT('', (1.72996834895478E-15, 5.08228421646152E-15, -83.));
#220 = CIRCLE('', #221, 7.);
#221 = AXIS2_PLACEMENT_3D('', #222, #223, #224);
#222 = CARTESIAN_POINT('', (1.77635683940025E-15, 4.65365783675995E-15, -76.));
#223 = DIRECTION('', (-6.12323399573675E-17, -1., -6.12323399573673E-17));
#224 = DIRECTION('', (-1., 6.12323399573675E-17, 0.));
#225 = ORIENTED_EDGE('', *, *, #187, .T.);
#226 = ORIENTED_EDGE('', *, *, #217, .T.);
#227 = (
   BOUNDED_SURFACE ()
   B_SPLINE_SURFACE (2, 2, ((#228, #229, #230), (#231, #232, #233), (#234, #235, #236), (#237, #238, #239), (#240, #241, #242), (#243, #244, #245), (#246, #247, #248), (#249, #250, #251), (#252, #253, #254)), .UNSPECIFIED., .T., .F., .U.)
   B_SPLINE_SURFACE_WITH_KNOTS ((3, 2, 2, 2, 3), (3, 3), (0., 0.25, 0.5, 0.75, 1.), (0., 1.), .UNSPECIFIED.)
   GEOMETRIC_REPRESENTATION_ITEM ()
   RATIONAL_B_SPLINE_SURFACE (((1., 0.707106781186548, 1.), (0.707106781186548, 0.5, 0.707106781186548), (1., 0.707106781186548, 1.), (0.707106781186548, 0.5, 0.707106781186548), (1., 0.707106781186548, 1.), (0.707106781186548, 0.5, 0.707106781186548), (1., 0.707106781186548, 1.), (0.707106781186548, 0.5, 0.707106781186548), (1., 0.707106781186548, 1.)))
   REPRESENTATION_ITEM ('')
   SURFACE ()
);
#228 = CARTESIAN_POINT('', (-7., 5.08228421646152E-15, -76.));
#229 = CARTESIAN_POINT('', (-7., 5.51091059616309E-15, -83.));
#230 = CARTESIAN_POINT('', (1.72996834895478E-15, 5.08228421646152E-15, -83.));
#231 = CARTESIAN_POINT('', (-7., 7.00000000000001, -76.));
#232 = CARTESIAN_POINT('', (-7., 7.00000000000001, -83.));
#233 = CARTESIAN_POINT('', (1.72996834895478E-15, 5.08228421646152E-15, -83.));
#234 = CARTESIAN_POINT('', (1.77635683940025E-15, 7.00000000000001, -76.));
#235 = CARTESIAN_POINT('', (2.20498321910182E-15, 7.00000000000001, -83.));
#236 = CARTESIAN_POINT('', (1.72996834895478E-15, 5.08228421646152E-15, -83.));
#237 = CARTESIAN_POINT('', (7., 7.00000000000001, -76.));
#238 = CARTESIAN_POINT('', (7., 7.00000000000001, -83.));
#239 = CARTESIAN_POINT('', (1.72996834895478E-15, 5.08228421646152E-15, -83.));
#240 = CARTESIAN_POINT('', (7., 5.08228421646152E-15, -76.));
#241 = CARTESIAN_POINT('', (7., 4.65365783675995E-15, -83.));
#242 = CARTESIAN_POINT('', (1.72996834895478E-15, 5.08228421646152E-15, -83.));
#243 = CARTESIAN_POINT('', (7., -7., -76.));
#244 = CARTESIAN_POINT('', (7., -7., -83.));
#245 = CARTESIAN_POINT('', (1.72996834895478E-15, 5.08228421646152E-15, -83.));
#246 = CARTESIAN_POINT('', (2.6336095988034E-15, -7., -76.));
#247 = CARTESIAN_POINT('', (2.20498321910183E-15, -7., -83.));
#248 = CARTESIAN_POINT('', (1.72996834895478E-15, 5.08228421646152E-15, -83.));
#249 = CARTESIAN_POINT('', (-7., -7., -76.));
#250 = CARTESIAN_POINT('', (-7., -7., -83.));
#251 = CARTESIAN_POINT('', (1.72996834895478E-15, 5.08228421646152E-15, -83.));
#252 = CARTESIAN_POINT('', (-7., 5.08228421646152E-15, -76.));
#253 = CARTESIAN_POINT('', (-7., 5.51091059616309E-15, -83.));
#254 = CARTESIAN_POINT('', (1.72996834895478E-15, 5.08228421646152E-15, -83.));
#255 = PRESENTATION_STYLE_ASSIGNMENT((#256));
#256 = SURFACE_STYLE_USAGE(.POSITIVE., #257);
#257 = SURFACE_SIDE_STYLE('', (#258));
#258 = SURFACE_STYLE_FILL_AREA(#259);
#259 = FILL_AREA_STYLE('', (#260));
#260 = FILL_AREA_STYLE_COLOUR('', #261);
#261 = COLOUR_RGB('', 0.8, 0.8, 0.8);
#262 = STYLED_ITEM('', (#255), #155);
#263 = TRIMMED_CURVE('cutting part line', #264, (#269), (#270), .T., .CARTESIAN.);
#264 = CIRCLE('', #265, 7.);
#265 = AXIS2_PLACEMENT_3D('', #266, #267, #268);
#266 = CARTESIAN_POINT('', (1.73194791841524E-14, 0., -76.));
#267 = DIRECTION('', (0., -1., 0.));
#268 = DIRECTION('', (-2.0142617732485E-15, 0., -1.));
#269 = CARTESIAN_POINT('', (3.21964677141296E-15, 0., -83.));
#270 = CARTESIAN_POINT('', (7.00000000000001, 0., -76.));
#271 = TRIMMED_CURVE('cutting part line', #272, (#276), (#277), .T., .CARTESIAN.);
#272 = LINE('', #273, #274);
#273 = CARTESIAN_POINT('', (7., 8.88043145824817E-16, -76.));
#274 = VECTOR('', #275, 15.);
#275 = DIRECTION('', (0., -8.88043145824817E-16, 15.));
#276 = CARTESIAN_POINT('', (7., 8.88043145824817E-16, -76.));
#277 = CARTESIAN_POINT('', (7., 0., -61.));
#278 = TRIMMED_CURVE('cutting part line', #279, (#283), (#284), .T., .CARTESIAN.);
#279 = LINE('', #280, #281);
#280 = CARTESIAN_POINT('', (7., 0., -61.));
#281 = VECTOR('', #282, 7.);
#282 = DIRECTION('', (-7., 0., 7.105427357601E-15));
#283 = CARTESIAN_POINT('', (7., 0., -61.));
#284 = CARTESIAN_POINT('', (1.38777878078145E-17, 0., -61.));
#285 = TRIMMED_CURVE('cutting part line', #286, (#290), (#291), .T., .CARTESIAN.);
#286 = LINE('', #287, #288);
#287 = CARTESIAN_POINT('', (0., 0., -61.));
#288 = VECTOR('', #289, 22.);
#289 = DIRECTION('', (0., 0., -22.));
#290 = CARTESIAN_POINT('', (0., 0., -61.));
#291 = CARTESIAN_POINT('', (0., 0., -83.));
#292 = COMPOSITE_CURVE('cutting part line', (#293, #294, #295, #296), .U.);
#293 = COMPOSITE_CURVE_SEGMENT(.CONTINUOUS., .T., #263);
#294 = COMPOSITE_CURVE_SEGMENT(.CONTINUOUS., .T., #271);
#295 = COMPOSITE_CURVE_SEGMENT(.CONTINUOUS., .T., #278);
#296 = COMPOSITE_CURVE_SEGMENT(.CONTINUOUS., .T., #285);
#297 = GEOMETRIC_SET('', (#292, #335));
#298 = PRESENTATION_STYLE_ASSIGNMENT((#299));
#299 = CURVE_STYLE('', #301, POSITIVE_LENGTH_MEASURE(1.E-6), #300);
#300 = COLOUR_RGB('', 0., 0., 1.);
#301 = DRAUGHTING_PRE_DEFINED_CURVE_FONT('continuous');
#302 = STYLED_ITEM('', (#298), #292);
#303 = PRESENTATION_STYLE_ASSIGNMENT((#304));
#304 = CURVE_STYLE('', #306, POSITIVE_LENGTH_MEASURE(1.E-6), #305);
#305 = COLOUR_RGB('', 0., 0., 1.);
#306 = DRAUGHTING_PRE_DEFINED_CURVE_FONT('continuous');
#307 = OVER_RIDING_STYLED_ITEM('', (#303), #263, #302);
#308 = PRESENTATION_STYLE_ASSIGNMENT((#309));
#309 = CURVE_STYLE('', #311, POSITIVE_LENGTH_MEASURE(1.E-6), #310);
#310 = COLOUR_RGB('', 0., 0., 1.);
#311 = DRAUGHTING_PRE_DEFINED_CURVE_FONT('continuous');
#312 = OVER_RIDING_STYLED_ITEM('', (#308), #271, #302);
#313 = PRESENTATION_STYLE_ASSIGNMENT((#314));
#314 = CURVE_STYLE('', #316, POSITIVE_LENGTH_MEASURE(1.E-6), #315);
#315 = COLOUR_RGB('', 0., 0., 1.);
#316 = DRAUGHTING_PRE_DEFINED_CURVE_FONT('continuous');
#317 = OVER_RIDING_STYLED_ITEM('', (#313), #278, #302);
#318 = PRESENTATION_STYLE_ASSIGNMENT((#319));
#319 = CURVE_STYLE('', #321, POSITIVE_LENGTH_MEASURE(1.E-6), #320);
#320 = COLOUR_RGB('', 0., 0., 1.);
#321 = DRAUGHTING_PRE_DEFINED_CURVE_FONT('continuous');
#322 = OVER_RIDING_STYLED_ITEM('', (#318), #285, #302);
#323 = AXIS2_PLACEMENT_3D('MCS', #324, #325, #326);
#324 = CARTESIAN_POINT('', (0., 0., -45.));
#325 = DIRECTION('', (0., 0., 1.));
#326 = DIRECTION('', (1., 0., 0.));
#327 = AXIS2_PLACEMENT_3D('PCS', #328, #329, #330);
#328 = CARTESIAN_POINT('', (0., 0., 0.));
#329 = DIRECTION('', (0., 0., 1.));
#330 = DIRECTION('', (1., 0., 0.));
#331 = AXIS2_PLACEMENT_3D('CIP', #332, #333, #334);
#332 = CARTESIAN_POINT('', (0., 0., -83.));
#333 = DIRECTION('', (0., 0., 1.));
#334 = DIRECTION('', (1., 0., 0.));
#335 = CARTESIAN_POINT('CRP', (7.00000000000001, 0., -83.));
#336 = (
   GEOMETRIC_REPRESENTATION_CONTEXT (3)
   GLOBAL_UNCERTAINTY_ASSIGNED_CONTEXT ((#338))
   GLOBAL_UNIT_ASSIGNED_CONTEXT ((#337, #339, #340))
   REPRESENTATION_CONTEXT ('', '3D')
);
#337 = (
   LENGTH_UNIT ()
   NAMED_UNIT (*)
   SI_UNIT (.MILLI., .METRE.)
);
#338 = UNCERTAINTY_MEASURE_WITH_UNIT(LENGTH_MEASURE(1.E-6), #337, 'DISTANCE_ACCURACY_VALUE', '');
#339 = (
   NAMED_UNIT (*)
   SI_UNIT ($, .STERADIAN.)
   SOLID_ANGLE_UNIT ()
);
#340 = (
   NAMED_UNIT (*)
   PLANE_ANGLE_UNIT ()
   SI_UNIT ($, .RADIAN.)
);
#341 = SHAPE_REPRESENTATION('', (), #336);
#342 = PRODUCT_DEFINITION_SHAPE('', '', #343);
#343 = PRODUCT_DEFINITION('', '', #346, #350);
#344 = APPLICATION_CONTEXT('configuration controlled 3D designs of mechanical parts and assemblies');
#345 = APPLICATION_PROTOCOL_DEFINITION('International Standard', 'automotive_design', 2002, #344);
#346 = PRODUCT_DEFINITION_FORMATION_WITH_SPECIFIED_SOURCE('', '', #347, .NOT_KNOWN.);
#347 = PRODUCT('product-name', '1B230-1400-XA       1630', '', (#348));
#348 = PRODUCT_CONTEXT('', #344, 'mechanical');
#349 = PRODUCT_RELATED_PRODUCT_CATEGORY('detail', '', (#347));
#350 = PRODUCT_DEFINITION_CONTEXT('part definition', #344, 'design');
#351 = SHAPE_DEFINITION_REPRESENTATION(#342, #341);
#352 = CONSTRUCTIVE_GEOMETRY_REPRESENTATION('supplemental geometry', (#323, #327, #331), #336);
#353 = CONSTRUCTIVE_GEOMETRY_REPRESENTATION_RELATIONSHIP('', '', #341, #352);
#354 = SHAPE_REPRESENTATION_RELATIONSHIP('', '', #341, #355);
#355 = SHAPE_REPRESENTATION('', (#297), #336);
#356 = SHAPE_REPRESENTATION_RELATIONSHIP('', '', #341, #357);
#357 = ADVANCED_BREP_SHAPE_REPRESENTATION('', (#1, #155), #336);
ENDSEC;
END-ISO-10303-21;
