ISO-10303-21;
HEADER;
/* Generated by software containing ST-Developer
 * from STEP Tools, Inc. (www.steptools.com) 
 */
/* OPTION: using custom schema-name function */

FILE_DESCRIPTION(
/* description */ (''),
/* implementation_level */ '2;1');

FILE_NAME(
/* name */ '1574159930010.stp',
/* time_stamp */ '2019-11-19T16:09:04+06:00',
/* author */ (''),
/* organization */ ('SMS'),
/* preprocessor_version */ 'ST-DEVELOPER v16.7',
/* originating_system */ 'SIEMENS PLM Software NX 12.0',
/* authorisation */ '');

FILE_SCHEMA (('AUTOMOTIVE_DESIGN { 1 0 10303 214 3 1 1 1 }'));
ENDSEC;

DATA;
#10=CONSTRUCTIVE_GEOMETRY_REPRESENTATION_RELATIONSHIP(
'supplemental geometry','',#26,#11);
#11=CONSTRUCTIVE_GEOMETRY_REPRESENTATION('supplemental geometry',(#211,
#212,#213),#349);
#12=GEOMETRICALLY_BOUNDED_WIREFRAME_SHAPE_REPRESENTATION(
'201993477mod000_00-None',(#27),#349);
#13=SHAPE_REPRESENTATION_RELATIONSHIP('None',
'relationship between 201993477mod000_00-None and 201993477mod000_00-N
one',#26,#15);
#14=SHAPE_REPRESENTATION_RELATIONSHIP('None',
'relationship between 201993477mod000_00-None and 201993477mod000_00-N
one',#26,#12);
#15=ADVANCED_BREP_SHAPE_REPRESENTATION('201993477mod000_00-None',(#33),
#349);
#16=SHAPE_DEFINITION_REPRESENTATION(#17,#26);
#17=PRODUCT_DEFINITION_SHAPE('','',#18);
#18=PRODUCT_DEFINITION(' ','',#20,#19);
#19=PRODUCT_DEFINITION_CONTEXT('part definition',#25,'design');
#20=PRODUCT_DEFINITION_FORMATION_WITH_SPECIFIED_SOURCE(' ',' ',#22,
 .NOT_KNOWN.);
#21=PRODUCT_RELATED_PRODUCT_CATEGORY('part','',(#22));
#22=PRODUCT('201993477mod000_00','201993477mod000_00',' ',(#23));
#23=PRODUCT_CONTEXT(' ',#25,'mechanical');
#24=APPLICATION_PROTOCOL_DEFINITION('international standard',
'automotive_design',2010,#25);
#25=APPLICATION_CONTEXT(
'core data for automotive mechanical design processes');
#26=SHAPE_REPRESENTATION('201993477mod000_00-None',(#210),#349);
#27=GEOMETRIC_CURVE_SET('None',(#295,#296,#297));
#28=SURFACE_STYLE_USAGE(.BOTH.,#29);
#29=SURFACE_SIDE_STYLE('',(#30));
#30=SURFACE_STYLE_FILL_AREA(#31);
#31=FILL_AREA_STYLE('',(#32));
#32=FILL_AREA_STYLE_COLOUR('',#209);
#33=MANIFOLD_SOLID_BREP('NOCUT',#34);
#34=CLOSED_SHELL('',(#55,#56,#57,#58,#59,#60,#61,#62,#63,#64,#65,#66));
#35=FACE_OUTER_BOUND('',#105,.T.);
#36=FACE_OUTER_BOUND('',#108,.T.);
#37=FACE_OUTER_BOUND('',#109,.T.);
#38=B_SPLINE_CURVE_WITH_KNOTS('',3,(#335,#336,#337,#338),.UNSPECIFIED.,
 .F.,.F.,(4,4),(0.,1.),.UNSPECIFIED.);
#39=B_SPLINE_CURVE_WITH_KNOTS('',3,(#339,#340,#341,#342),.UNSPECIFIED.,
 .F.,.F.,(4,4),(0.,1.),.UNSPECIFIED.);
#40=LINE('',#321,#43);
#41=LINE('',#325,#44);
#42=LINE('',#345,#45);
#43=VECTOR('',#269,1.);
#44=VECTOR('',#272,1.);
#45=VECTOR('',#289,1.);
#46=ELLIPSE('',#225,14.1421356237311,10.);
#47=CYLINDRICAL_SURFACE('',#220,12.5);
#48=CYLINDRICAL_SURFACE('',#227,10.);
#49=CYLINDRICAL_SURFACE('',#230,8.00000000000007);
#50=CONICAL_SURFACE('',#218,12.,45.);
#51=CONICAL_SURFACE('',#222,12.5,45.);
#52=CONICAL_SURFACE('',#232,9.00000000000007,45.);
#53=CONICAL_SURFACE('',#233,9.,45.);
#54=CONICAL_SURFACE('',#234,8.00000000000007,45.);
#55=ADVANCED_FACE('',(#71,#72),#67,.F.);
#56=ADVANCED_FACE('',(#73,#74),#50,.T.);
#57=ADVANCED_FACE('',(#75,#76),#47,.T.);
#58=ADVANCED_FACE('',(#77,#78),#51,.T.);
#59=ADVANCED_FACE('',(#79,#80),#68,.F.);
#60=ADVANCED_FACE('',(#81,#82),#48,.T.);
#61=ADVANCED_FACE('',(#83,#84),#49,.F.);
#62=ADVANCED_FACE('',(#85,#86),#52,.F.);
#63=ADVANCED_FACE('',(#35),#53,.T.);
#64=ADVANCED_FACE('',(#87,#88),#54,.F.);
#65=ADVANCED_FACE('',(#36),#69,.F.);
#66=ADVANCED_FACE('',(#37),#70,.F.);
#67=PLANE('',#216);
#68=PLANE('',#224);
#69=PLANE('',#235);
#70=PLANE('',#236);
#71=FACE_BOUND('',#89,.T.);
#72=FACE_BOUND('',#90,.T.);
#73=FACE_BOUND('',#91,.T.);
#74=FACE_BOUND('',#92,.T.);
#75=FACE_BOUND('',#93,.T.);
#76=FACE_BOUND('',#94,.T.);
#77=FACE_BOUND('',#95,.T.);
#78=FACE_BOUND('',#96,.T.);
#79=FACE_BOUND('',#97,.T.);
#80=FACE_BOUND('',#98,.T.);
#81=FACE_BOUND('',#99,.T.);
#82=FACE_BOUND('',#100,.T.);
#83=FACE_BOUND('',#101,.T.);
#84=FACE_BOUND('',#102,.T.);
#85=FACE_BOUND('',#103,.T.);
#86=FACE_BOUND('',#104,.T.);
#87=FACE_BOUND('',#106,.T.);
#88=FACE_BOUND('',#107,.T.);
#89=EDGE_LOOP('',(#110));
#90=EDGE_LOOP('',(#111));
#91=EDGE_LOOP('',(#112));
#92=EDGE_LOOP('',(#113));
#93=EDGE_LOOP('',(#114));
#94=EDGE_LOOP('',(#115));
#95=EDGE_LOOP('',(#116));
#96=EDGE_LOOP('',(#117));
#97=EDGE_LOOP('',(#118));
#98=EDGE_LOOP('',(#119));
#99=EDGE_LOOP('',(#120,#121,#122,#123));
#100=EDGE_LOOP('',(#124));
#101=EDGE_LOOP('',(#125));
#102=EDGE_LOOP('',(#126));
#103=EDGE_LOOP('',(#127));
#104=EDGE_LOOP('',(#128));
#105=EDGE_LOOP('',(#129,#130,#131,#132));
#106=EDGE_LOOP('',(#133));
#107=EDGE_LOOP('',(#134));
#108=EDGE_LOOP('',(#135,#136));
#109=EDGE_LOOP('',(#137,#138,#139,#140,#141));
#110=ORIENTED_EDGE('',*,*,#155,.T.);
#111=ORIENTED_EDGE('',*,*,#156,.F.);
#112=ORIENTED_EDGE('',*,*,#157,.F.);
#113=ORIENTED_EDGE('',*,*,#156,.T.);
#114=ORIENTED_EDGE('',*,*,#158,.F.);
#115=ORIENTED_EDGE('',*,*,#157,.T.);
#116=ORIENTED_EDGE('',*,*,#159,.F.);
#117=ORIENTED_EDGE('',*,*,#158,.T.);
#118=ORIENTED_EDGE('',*,*,#160,.F.);
#119=ORIENTED_EDGE('',*,*,#159,.T.);
#120=ORIENTED_EDGE('',*,*,#161,.T.);
#121=ORIENTED_EDGE('',*,*,#162,.T.);
#122=ORIENTED_EDGE('',*,*,#163,.T.);
#123=ORIENTED_EDGE('',*,*,#164,.T.);
#124=ORIENTED_EDGE('',*,*,#160,.T.);
#125=ORIENTED_EDGE('',*,*,#165,.T.);
#126=ORIENTED_EDGE('',*,*,#166,.T.);
#127=ORIENTED_EDGE('',*,*,#166,.F.);
#128=ORIENTED_EDGE('',*,*,#167,.F.);
#129=ORIENTED_EDGE('',*,*,#168,.F.);
#130=ORIENTED_EDGE('',*,*,#163,.F.);
#131=ORIENTED_EDGE('',*,*,#169,.F.);
#132=ORIENTED_EDGE('',*,*,#167,.T.);
#133=ORIENTED_EDGE('',*,*,#155,.F.);
#134=ORIENTED_EDGE('',*,*,#165,.F.);
#135=ORIENTED_EDGE('',*,*,#170,.T.);
#136=ORIENTED_EDGE('',*,*,#161,.F.);
#137=ORIENTED_EDGE('',*,*,#170,.F.);
#138=ORIENTED_EDGE('',*,*,#164,.F.);
#139=ORIENTED_EDGE('',*,*,#168,.T.);
#140=ORIENTED_EDGE('',*,*,#169,.T.);
#141=ORIENTED_EDGE('',*,*,#162,.F.);
#142=VERTEX_POINT('',#302);
#143=VERTEX_POINT('',#304);
#144=VERTEX_POINT('',#307);
#145=VERTEX_POINT('',#310);
#146=VERTEX_POINT('',#313);
#147=VERTEX_POINT('',#316);
#148=VERTEX_POINT('',#319);
#149=VERTEX_POINT('',#320);
#150=VERTEX_POINT('',#322);
#151=VERTEX_POINT('',#324);
#152=VERTEX_POINT('',#328);
#153=VERTEX_POINT('',#330);
#154=VERTEX_POINT('',#333);
#155=EDGE_CURVE('',#142,#142,#171,.T.);
#156=EDGE_CURVE('',#143,#143,#172,.T.);
#157=EDGE_CURVE('',#144,#144,#173,.T.);
#158=EDGE_CURVE('',#145,#145,#174,.T.);
#159=EDGE_CURVE('',#146,#146,#175,.T.);
#160=EDGE_CURVE('',#147,#147,#176,.T.);
#161=EDGE_CURVE('',#148,#149,#46,.T.);
#162=EDGE_CURVE('',#149,#150,#40,.T.);
#163=EDGE_CURVE('',#150,#151,#177,.T.);
#164=EDGE_CURVE('',#151,#148,#41,.T.);
#165=EDGE_CURVE('',#152,#152,#178,.T.);
#166=EDGE_CURVE('',#153,#153,#179,.T.);
#167=EDGE_CURVE('',#154,#154,#180,.T.);
#168=EDGE_CURVE('',#151,#154,#38,.T.);
#169=EDGE_CURVE('',#154,#150,#39,.T.);
#170=EDGE_CURVE('',#148,#149,#42,.T.);
#171=CIRCLE('',#214,8.50000000000007);
#172=CIRCLE('',#215,12.);
#173=CIRCLE('',#217,12.5);
#174=CIRCLE('',#219,12.5);
#175=CIRCLE('',#221,12.);
#176=CIRCLE('',#223,10.);
#177=CIRCLE('',#226,10.);
#178=CIRCLE('',#228,8.00000000000007);
#179=CIRCLE('',#229,8.00000000000007);
#180=CIRCLE('',#231,9.00000000000007);
#181=CURVE_STYLE('',#184,POSITIVE_LENGTH_MEASURE(0.18),#208);
#182=CURVE_STYLE('',#185,POSITIVE_LENGTH_MEASURE(0.18),#208);
#183=CURVE_STYLE('',#186,POSITIVE_LENGTH_MEASURE(0.18),#208);
#184=DRAUGHTING_PRE_DEFINED_CURVE_FONT('continuous');
#185=DRAUGHTING_PRE_DEFINED_CURVE_FONT('continuous');
#186=DRAUGHTING_PRE_DEFINED_CURVE_FONT('continuous');
#187=PRESENTATION_LAYER_ASSIGNMENT('1','Layer 1',(#295,#296,#297,#211,#212,
#213,#33));
#188=STYLED_ITEM('',(#195),#295);
#189=STYLED_ITEM('',(#196),#296);
#190=STYLED_ITEM('',(#197),#297);
#191=STYLED_ITEM('',(#198),#211);
#192=STYLED_ITEM('',(#199),#212);
#193=STYLED_ITEM('',(#200),#213);
#194=STYLED_ITEM('',(#201),#33);
#195=PRESENTATION_STYLE_ASSIGNMENT((#202));
#196=PRESENTATION_STYLE_ASSIGNMENT((#203));
#197=PRESENTATION_STYLE_ASSIGNMENT((#204));
#198=PRESENTATION_STYLE_ASSIGNMENT((#181));
#199=PRESENTATION_STYLE_ASSIGNMENT((#182));
#200=PRESENTATION_STYLE_ASSIGNMENT((#183));
#201=PRESENTATION_STYLE_ASSIGNMENT((#28));
#202=POINT_STYLE('',#205,POSITIVE_LENGTH_MEASURE(3.),#208);
#203=POINT_STYLE('',#206,POSITIVE_LENGTH_MEASURE(3.),#208);
#204=POINT_STYLE('',#207,POSITIVE_LENGTH_MEASURE(3.),#208);
#205=PRE_DEFINED_POINT_MARKER_SYMBOL('plus');
#206=PRE_DEFINED_POINT_MARKER_SYMBOL('plus');
#207=PRE_DEFINED_POINT_MARKER_SYMBOL('plus');
#208=COLOUR_RGB('Medium Maroon',0.6,0.4,0.4);
#209=COLOUR_RGB('Medium Gray',0.501960784313725,0.501960784313725,0.501960784313725);
#210=AXIS2_PLACEMENT_3D('',#294,#237,#238);
#211=AXIS2_PLACEMENT_3D('PCS',#298,#239,#240);
#212=AXIS2_PLACEMENT_3D('MCS',#299,#241,#242);
#213=AXIS2_PLACEMENT_3D('CSW',#300,#243,#244);
#214=AXIS2_PLACEMENT_3D('',#301,#245,#246);
#215=AXIS2_PLACEMENT_3D('',#303,#247,#248);
#216=AXIS2_PLACEMENT_3D('',#305,#249,#250);
#217=AXIS2_PLACEMENT_3D('',#306,#251,#252);
#218=AXIS2_PLACEMENT_3D('',#308,#253,#254);
#219=AXIS2_PLACEMENT_3D('',#309,#255,#256);
#220=AXIS2_PLACEMENT_3D('',#311,#257,#258);
#221=AXIS2_PLACEMENT_3D('',#312,#259,#260);
#222=AXIS2_PLACEMENT_3D('',#314,#261,#262);
#223=AXIS2_PLACEMENT_3D('',#315,#263,#264);
#224=AXIS2_PLACEMENT_3D('',#317,#265,#266);
#225=AXIS2_PLACEMENT_3D('',#318,#267,#268);
#226=AXIS2_PLACEMENT_3D('',#323,#270,#271);
#227=AXIS2_PLACEMENT_3D('',#326,#273,#274);
#228=AXIS2_PLACEMENT_3D('',#327,#275,#276);
#229=AXIS2_PLACEMENT_3D('',#329,#277,#278);
#230=AXIS2_PLACEMENT_3D('',#331,#279,#280);
#231=AXIS2_PLACEMENT_3D('',#332,#281,#282);
#232=AXIS2_PLACEMENT_3D('',#334,#283,#284);
#233=AXIS2_PLACEMENT_3D('',#343,#285,#286);
#234=AXIS2_PLACEMENT_3D('',#344,#287,#288);
#235=AXIS2_PLACEMENT_3D('',#346,#290,#291);
#236=AXIS2_PLACEMENT_3D('',#347,#292,#293);
#237=DIRECTION('',(0.,0.,1.));
#238=DIRECTION('',(1.,0.,0.));
#239=DIRECTION('',(0.,0.,1.));
#240=DIRECTION('',(1.,0.,0.));
#241=DIRECTION('',(0.,0.,1.));
#242=DIRECTION('',(1.,0.,0.));
#243=DIRECTION('',(0.,0.,1.));
#244=DIRECTION('',(1.,0.,0.));
#245=DIRECTION('',(0.,0.,1.));
#246=DIRECTION('',(0.,1.,0.));
#247=DIRECTION('',(0.,0.,1.));
#248=DIRECTION('',(0.,1.,0.));
#249=DIRECTION('',(0.,0.,1.));
#250=DIRECTION('',(0.,-1.,0.));
#251=DIRECTION('',(0.,0.,1.));
#252=DIRECTION('',(0.,1.,0.));
#253=DIRECTION('',(0.,0.,1.));
#254=DIRECTION('',(0.,-1.,-6.8566145295526E-18));
#255=DIRECTION('',(0.,0.,1.));
#256=DIRECTION('',(0.,1.,0.));
#257=DIRECTION('',(0.,0.,1.));
#258=DIRECTION('',(0.,-1.,0.));
#259=DIRECTION('',(0.,0.,1.));
#260=DIRECTION('',(0.,1.,0.));
#261=DIRECTION('',(0.,0.,-1.));
#262=DIRECTION('',(0.,1.,5.48258283765509E-17));
#263=DIRECTION('',(0.,0.,1.));
#264=DIRECTION('',(0.,1.,0.));
#265=DIRECTION('',(0.,0.,-1.));
#266=DIRECTION('',(0.,1.,0.));
#267=DIRECTION('',(0.,0.707106781186553,-0.707106781186542));
#268=DIRECTION('',(0.,0.707106781186542,0.707106781186553));
#269=DIRECTION('',(0.,0.,1.));
#270=DIRECTION('',(0.,0.,-1.));
#271=DIRECTION('',(0.,-1.,0.));
#272=DIRECTION('',(0.,0.,-1.));
#273=DIRECTION('',(0.,0.,1.));
#274=DIRECTION('',(0.,-1.,0.));
#275=DIRECTION('',(0.,0.,-1.));
#276=DIRECTION('',(0.,1.,0.));
#277=DIRECTION('',(0.,0.,1.));
#278=DIRECTION('',(0.,-1.,0.));
#279=DIRECTION('',(0.,0.,-1.));
#280=DIRECTION('',(0.,1.,0.));
#281=DIRECTION('',(0.,0.,-1.));
#282=DIRECTION('',(0.,-1.,0.));
#283=DIRECTION('',(0.,0.,1.));
#284=DIRECTION('',(0.,-1.,4.81390062709124E-17));
#285=DIRECTION('',(0.,0.,-1.));
#286=DIRECTION('',(0.,1.,4.81390062709124E-17));
#287=DIRECTION('',(0.,0.,-1.));
#288=DIRECTION('',(0.,1.,4.8186763221578E-17));
#289=DIRECTION('',(-1.,0.,0.));
#290=DIRECTION('',(0.,0.707106781186553,-0.707106781186542));
#291=DIRECTION('',(0.,0.707106781186542,0.707106781186553));
#292=DIRECTION('',(0.,1.,0.));
#293=DIRECTION('',(0.,0.,1.));
#294=CARTESIAN_POINT('',(0.,0.,0.));
#295=CARTESIAN_POINT('PCS',(0.,0.,0.));
#296=CARTESIAN_POINT('MCS',(0.,0.,0.));
#297=CARTESIAN_POINT('CSW',(0.,0.,-5.));
#298=CARTESIAN_POINT('',(0.,0.,0.));
#299=CARTESIAN_POINT('',(0.,0.,0.));
#300=CARTESIAN_POINT('',(0.,0.,-5.));
#301=CARTESIAN_POINT('',(0.,0.,-5.));
#302=CARTESIAN_POINT('',(0.,8.50000000000007,-5.));
#303=CARTESIAN_POINT('',(0.,0.,-5.));
#304=CARTESIAN_POINT('',(0.,12.,-5.));
#305=CARTESIAN_POINT('',(0.,-8.,-5.));
#306=CARTESIAN_POINT('',(0.,0.,-4.5));
#307=CARTESIAN_POINT('',(0.,12.5,-4.5));
#308=CARTESIAN_POINT('',(0.,0.,-5.));
#309=CARTESIAN_POINT('',(0.,0.,-0.5));
#310=CARTESIAN_POINT('',(0.,12.5,-0.5));
#311=CARTESIAN_POINT('',(0.,0.,50.));
#312=CARTESIAN_POINT('',(0.,0.,0.));
#313=CARTESIAN_POINT('',(0.,12.,0.));
#314=CARTESIAN_POINT('',(0.,0.,-0.5));
#315=CARTESIAN_POINT('',(0.,0.,0.));
#316=CARTESIAN_POINT('',(0.,10.,0.));
#317=CARTESIAN_POINT('',(0.,-12.,0.));
#318=CARTESIAN_POINT('',(0.,0.,17.0000000000001));
#319=CARTESIAN_POINT('',(4.35889894354067,-9.,8.));
#320=CARTESIAN_POINT('',(-4.35889894354067,-9.,8.));
#321=CARTESIAN_POINT('',(-4.35889894354067,-9.,50.));
#322=CARTESIAN_POINT('',(-4.35889894354067,-9.,49.));
#323=CARTESIAN_POINT('',(0.,0.,49.));
#324=CARTESIAN_POINT('',(4.35889894354067,-9.,49.));
#325=CARTESIAN_POINT('',(4.35889894354067,-9.,50.));
#326=CARTESIAN_POINT('',(0.,0.,50.));
#327=CARTESIAN_POINT('',(0.,0.,-4.5));
#328=CARTESIAN_POINT('',(0.,8.00000000000007,-4.5));
#329=CARTESIAN_POINT('',(0.,0.,49.));
#330=CARTESIAN_POINT('',(0.,-8.00000000000007,49.));
#331=CARTESIAN_POINT('',(0.,0.,50.));
#332=CARTESIAN_POINT('',(0.,0.,50.));
#333=CARTESIAN_POINT('',(0.,-9.,50.));
#334=CARTESIAN_POINT('',(0.,0.,50.));
#335=CARTESIAN_POINT('',(4.35889894354067,-9.,49.));
#336=CARTESIAN_POINT('',(2.9763141931364,-9.,49.6026547207893));
#337=CARTESIAN_POINT('',(1.51557560445199,-9.,50.));
#338=CARTESIAN_POINT('',(8.66689602041916E-17,-9.,50.));
#339=CARTESIAN_POINT('',(0.,-9.,50.));
#340=CARTESIAN_POINT('',(-1.51448395465444,-9.,50.));
#341=CARTESIAN_POINT('',(-2.97503297224859,-9.,49.6032131920267));
#342=CARTESIAN_POINT('',(-4.35889894354067,-9.,49.));
#343=CARTESIAN_POINT('',(0.,0.,50.));
#344=CARTESIAN_POINT('',(0.,0.,-4.5));
#345=CARTESIAN_POINT('',(-5.,-9.,8.));
#346=CARTESIAN_POINT('',(-5.,-10.,7.));
#347=CARTESIAN_POINT('',(-5.,-9.,8.));
#348=MECHANICAL_DESIGN_GEOMETRIC_PRESENTATION_REPRESENTATION('',(#188,#189,
#190,#191,#192,#193,#194),#349);
#349=(
GEOMETRIC_REPRESENTATION_CONTEXT(3)
GLOBAL_UNCERTAINTY_ASSIGNED_CONTEXT((#350))
GLOBAL_UNIT_ASSIGNED_CONTEXT((#356,#352,#351))
REPRESENTATION_CONTEXT('1574159930010','TOP_LEVEL_ASSEMBLY_PART')
);
#350=UNCERTAINTY_MEASURE_WITH_UNIT(LENGTH_MEASURE(0.0508),#356,
'DISTANCE_ACCURACY_VALUE','Maximum Tolerance applied to model');
#351=(
NAMED_UNIT(*)
SI_UNIT($,.STERADIAN.)
SOLID_ANGLE_UNIT()
);
#352=(
CONVERSION_BASED_UNIT('DEGREE',#354)
NAMED_UNIT(#353)
PLANE_ANGLE_UNIT()
);
#353=DIMENSIONAL_EXPONENTS(0.,0.,0.,0.,0.,0.,0.);
#354=PLANE_ANGLE_MEASURE_WITH_UNIT(PLANE_ANGLE_MEASURE(0.0174532925),#355);
#355=(
NAMED_UNIT(*)
PLANE_ANGLE_UNIT()
SI_UNIT($,.RADIAN.)
);
#356=(
LENGTH_UNIT()
NAMED_UNIT(*)
SI_UNIT(.MILLI.,.METRE.)
);
ENDSEC;
END-ISO-10303-21;
