ISO-10303-21;
HEADER;
/* Generated by software containing ST-Developer
 * from STEP Tools, Inc. (www.steptools.com) 
 */
/* OPTION: using custom schema-name function */

FILE_DESCRIPTION(
/* description */ (''),
/* implementation_level */ '2;1');

FILE_NAME(
/* name */ '1574159527419.stp',
/* time_stamp */ '2019-11-19T16:02:23+06:00',
/* author */ (''),
/* organization */ ('SMS'),
/* preprocessor_version */ 'ST-DEVELOPER v16.7',
/* originating_system */ 'SIEMENS PLM Software NX 12.0',
/* authorisation */ '');

FILE_SCHEMA (('AUTOMOTIVE_DESIGN { 1 0 10303 214 3 1 1 1 }'));
ENDSEC;

DATA;
#10=CONSTRUCTIVE_GEOMETRY_REPRESENTATION_RELATIONSHIP(
'supplemental geometry','',#26,#11);
#11=CONSTRUCTIVE_GEOMETRY_REPRESENTATION('supplemental geometry',(#246,
#247,#248),#407);
#12=GEOMETRICALLY_BOUNDED_WIREFRAME_SHAPE_REPRESENTATION(
'201993391mod000_00-None',(#27),#407);
#13=SHAPE_REPRESENTATION_RELATIONSHIP('None',
'relationship between 201993391mod000_00-None and 201993391mod000_00-N
one',#26,#15);
#14=SHAPE_REPRESENTATION_RELATIONSHIP('None',
'relationship between 201993391mod000_00-None and 201993391mod000_00-N
one',#26,#12);
#15=ADVANCED_BREP_SHAPE_REPRESENTATION('201993391mod000_00-None',(#33),
#407);
#16=SHAPE_DEFINITION_REPRESENTATION(#17,#26);
#17=PRODUCT_DEFINITION_SHAPE('','',#18);
#18=PRODUCT_DEFINITION(' ','',#20,#19);
#19=PRODUCT_DEFINITION_CONTEXT('part definition',#25,'design');
#20=PRODUCT_DEFINITION_FORMATION_WITH_SPECIFIED_SOURCE(' ',' ',#22,
 .NOT_KNOWN.);
#21=PRODUCT_RELATED_PRODUCT_CATEGORY('part','',(#22));
#22=PRODUCT('201993391mod000_00','201993391mod000_00',' ',(#23));
#23=PRODUCT_CONTEXT(' ',#25,'mechanical');
#24=APPLICATION_PROTOCOL_DEFINITION('international standard',
'automotive_design',2010,#25);
#25=APPLICATION_CONTEXT(
'core data for automotive mechanical design processes');
#26=SHAPE_REPRESENTATION('201993391mod000_00-None',(#245),#407);
#27=GEOMETRIC_CURVE_SET('None',(#350,#351,#352));
#28=SURFACE_STYLE_USAGE(.BOTH.,#29);
#29=SURFACE_SIDE_STYLE('',(#30));
#30=SURFACE_STYLE_FILL_AREA(#31);
#31=FILL_AREA_STYLE('',(#32));
#32=FILL_AREA_STYLE_COLOUR('',#244);
#33=MANIFOLD_SOLID_BREP('NOCUT',#34);
#34=CLOSED_SHELL('',(#48,#49,#50,#51,#52,#53,#54,#55,#56,#57,#58,#59,#60,
#61,#62));
#35=CONICAL_SURFACE('',#259,9.5,44.9999999999998);
#36=CONICAL_SURFACE('',#263,10.,45.);
#37=CONICAL_SURFACE('',#268,5.,33.6900675259799);
#38=CONICAL_SURFACE('',#272,6.,45.0000000000001);
#39=CONICAL_SURFACE('',#275,7.,45.);
#40=FACE_OUTER_BOUND('',#107,.T.);
#41=FACE_OUTER_BOUND('',#128,.T.);
#42=FACE_OUTER_BOUND('',#129,.T.);
#43=PLANE('',#255);
#44=PLANE('',#257);
#45=PLANE('',#264);
#46=PLANE('',#276);
#47=PLANE('',#277);
#48=ADVANCED_FACE('',(#79,#80),#63,.T.);
#49=ADVANCED_FACE('',(#81,#82),#43,.F.);
#50=ADVANCED_FACE('',(#40),#44,.F.);
#51=ADVANCED_FACE('',(#83,#84),#35,.T.);
#52=ADVANCED_FACE('',(#85,#86),#64,.T.);
#53=ADVANCED_FACE('',(#87,#88),#36,.T.);
#54=ADVANCED_FACE('',(#89,#90),#45,.F.);
#55=ADVANCED_FACE('',(#91,#92),#65,.F.);
#56=ADVANCED_FACE('',(#93,#94),#37,.F.);
#57=ADVANCED_FACE('',(#95,#96),#66,.F.);
#58=ADVANCED_FACE('',(#97,#98),#38,.F.);
#59=ADVANCED_FACE('',(#99,#100),#67,.F.);
#60=ADVANCED_FACE('',(#101,#102),#39,.F.);
#61=ADVANCED_FACE('',(#41),#46,.T.);
#62=ADVANCED_FACE('',(#42),#47,.T.);
#63=CYLINDRICAL_SURFACE('',#252,8.);
#64=CYLINDRICAL_SURFACE('',#261,10.);
#65=CYLINDRICAL_SURFACE('',#266,4.);
#66=CYLINDRICAL_SURFACE('',#270,5.);
#67=CYLINDRICAL_SURFACE('',#274,6.);
#68=ELLIPSE('',#251,11.3137084989848,8.);
#69=LINE('',#358,#74);
#70=LINE('',#363,#75);
#71=LINE('',#372,#76);
#72=LINE('',#375,#77);
#73=LINE('',#403,#78);
#74=VECTOR('',#288,1.);
#75=VECTOR('',#291,1.);
#76=VECTOR('',#302,1.);
#77=VECTOR('',#305,1.);
#78=VECTOR('',#344,1.);
#79=FACE_BOUND('',#103,.T.);
#80=FACE_BOUND('',#104,.T.);
#81=FACE_BOUND('',#105,.T.);
#82=FACE_BOUND('',#106,.T.);
#83=FACE_BOUND('',#108,.T.);
#84=FACE_BOUND('',#109,.T.);
#85=FACE_BOUND('',#110,.T.);
#86=FACE_BOUND('',#111,.T.);
#87=FACE_BOUND('',#112,.T.);
#88=FACE_BOUND('',#113,.T.);
#89=FACE_BOUND('',#114,.T.);
#90=FACE_BOUND('',#115,.T.);
#91=FACE_BOUND('',#116,.T.);
#92=FACE_BOUND('',#117,.T.);
#93=FACE_BOUND('',#118,.T.);
#94=FACE_BOUND('',#119,.T.);
#95=FACE_BOUND('',#120,.T.);
#96=FACE_BOUND('',#121,.T.);
#97=FACE_BOUND('',#122,.T.);
#98=FACE_BOUND('',#123,.T.);
#99=FACE_BOUND('',#124,.T.);
#100=FACE_BOUND('',#125,.T.);
#101=FACE_BOUND('',#126,.T.);
#102=FACE_BOUND('',#127,.T.);
#103=EDGE_LOOP('',(#130));
#104=EDGE_LOOP('',(#131,#132,#133,#134));
#105=EDGE_LOOP('',(#135));
#106=EDGE_LOOP('',(#136));
#107=EDGE_LOOP('',(#137,#138,#139,#140));
#108=EDGE_LOOP('',(#141));
#109=EDGE_LOOP('',(#142));
#110=EDGE_LOOP('',(#143));
#111=EDGE_LOOP('',(#144));
#112=EDGE_LOOP('',(#145));
#113=EDGE_LOOP('',(#146));
#114=EDGE_LOOP('',(#147));
#115=EDGE_LOOP('',(#148));
#116=EDGE_LOOP('',(#149));
#117=EDGE_LOOP('',(#150));
#118=EDGE_LOOP('',(#151));
#119=EDGE_LOOP('',(#152));
#120=EDGE_LOOP('',(#153));
#121=EDGE_LOOP('',(#154));
#122=EDGE_LOOP('',(#155));
#123=EDGE_LOOP('',(#156));
#124=EDGE_LOOP('',(#157));
#125=EDGE_LOOP('',(#158));
#126=EDGE_LOOP('',(#159));
#127=EDGE_LOOP('',(#160));
#128=EDGE_LOOP('',(#161,#162));
#129=EDGE_LOOP('',(#163,#164,#165,#166,#167));
#130=ORIENTED_EDGE('',*,*,#184,.T.);
#131=ORIENTED_EDGE('',*,*,#185,.F.);
#132=ORIENTED_EDGE('',*,*,#186,.F.);
#133=ORIENTED_EDGE('',*,*,#187,.F.);
#134=ORIENTED_EDGE('',*,*,#188,.F.);
#135=ORIENTED_EDGE('',*,*,#189,.F.);
#136=ORIENTED_EDGE('',*,*,#190,.F.);
#137=ORIENTED_EDGE('',*,*,#186,.T.);
#138=ORIENTED_EDGE('',*,*,#191,.T.);
#139=ORIENTED_EDGE('',*,*,#192,.T.);
#140=ORIENTED_EDGE('',*,*,#193,.T.);
#141=ORIENTED_EDGE('',*,*,#194,.F.);
#142=ORIENTED_EDGE('',*,*,#189,.T.);
#143=ORIENTED_EDGE('',*,*,#195,.F.);
#144=ORIENTED_EDGE('',*,*,#194,.T.);
#145=ORIENTED_EDGE('',*,*,#196,.F.);
#146=ORIENTED_EDGE('',*,*,#195,.T.);
#147=ORIENTED_EDGE('',*,*,#184,.F.);
#148=ORIENTED_EDGE('',*,*,#196,.T.);
#149=ORIENTED_EDGE('',*,*,#190,.T.);
#150=ORIENTED_EDGE('',*,*,#197,.T.);
#151=ORIENTED_EDGE('',*,*,#197,.F.);
#152=ORIENTED_EDGE('',*,*,#198,.T.);
#153=ORIENTED_EDGE('',*,*,#198,.F.);
#154=ORIENTED_EDGE('',*,*,#199,.T.);
#155=ORIENTED_EDGE('',*,*,#199,.F.);
#156=ORIENTED_EDGE('',*,*,#200,.T.);
#157=ORIENTED_EDGE('',*,*,#201,.T.);
#158=ORIENTED_EDGE('',*,*,#200,.F.);
#159=ORIENTED_EDGE('',*,*,#201,.F.);
#160=ORIENTED_EDGE('',*,*,#192,.F.);
#161=ORIENTED_EDGE('',*,*,#202,.T.);
#162=ORIENTED_EDGE('',*,*,#188,.T.);
#163=ORIENTED_EDGE('',*,*,#187,.T.);
#164=ORIENTED_EDGE('',*,*,#193,.F.);
#165=ORIENTED_EDGE('',*,*,#191,.F.);
#166=ORIENTED_EDGE('',*,*,#185,.T.);
#167=ORIENTED_EDGE('',*,*,#202,.F.);
#168=VERTEX_POINT('',#357);
#169=VERTEX_POINT('',#359);
#170=VERTEX_POINT('',#360);
#171=VERTEX_POINT('',#362);
#172=VERTEX_POINT('',#364);
#173=VERTEX_POINT('',#368);
#174=VERTEX_POINT('',#370);
#175=VERTEX_POINT('',#373);
#176=VERTEX_POINT('',#378);
#177=VERTEX_POINT('',#381);
#178=VERTEX_POINT('',#384);
#179=VERTEX_POINT('',#388);
#180=VERTEX_POINT('',#391);
#181=VERTEX_POINT('',#394);
#182=VERTEX_POINT('',#397);
#183=VERTEX_POINT('',#400);
#184=EDGE_CURVE('',#168,#168,#203,.T.);
#185=EDGE_CURVE('',#169,#170,#69,.T.);
#186=EDGE_CURVE('',#171,#169,#204,.T.);
#187=EDGE_CURVE('',#172,#171,#70,.T.);
#188=EDGE_CURVE('',#170,#172,#68,.T.);
#189=EDGE_CURVE('',#173,#173,#205,.T.);
#190=EDGE_CURVE('',#174,#174,#206,.T.);
#191=EDGE_CURVE('',#169,#175,#71,.T.);
#192=EDGE_CURVE('',#175,#175,#207,.T.);
#193=EDGE_CURVE('',#175,#171,#72,.T.);
#194=EDGE_CURVE('',#176,#176,#208,.T.);
#195=EDGE_CURVE('',#177,#177,#209,.T.);
#196=EDGE_CURVE('',#178,#178,#210,.T.);
#197=EDGE_CURVE('',#179,#179,#211,.T.);
#198=EDGE_CURVE('',#180,#180,#212,.T.);
#199=EDGE_CURVE('',#181,#181,#213,.T.);
#200=EDGE_CURVE('',#182,#182,#214,.T.);
#201=EDGE_CURVE('',#183,#183,#215,.T.);
#202=EDGE_CURVE('',#172,#170,#73,.T.);
#203=CIRCLE('',#249,8.);
#204=CIRCLE('',#250,8.);
#205=CIRCLE('',#253,9.5);
#206=CIRCLE('',#254,4.);
#207=CIRCLE('',#256,7.);
#208=CIRCLE('',#258,10.);
#209=CIRCLE('',#260,10.);
#210=CIRCLE('',#262,9.5);
#211=CIRCLE('',#265,4.);
#212=CIRCLE('',#267,5.);
#213=CIRCLE('',#269,5.);
#214=CIRCLE('',#271,6.);
#215=CIRCLE('',#273,6.);
#216=CURVE_STYLE('',#219,POSITIVE_LENGTH_MEASURE(0.18),#243);
#217=CURVE_STYLE('',#220,POSITIVE_LENGTH_MEASURE(0.18),#243);
#218=CURVE_STYLE('',#221,POSITIVE_LENGTH_MEASURE(0.18),#243);
#219=DRAUGHTING_PRE_DEFINED_CURVE_FONT('continuous');
#220=DRAUGHTING_PRE_DEFINED_CURVE_FONT('continuous');
#221=DRAUGHTING_PRE_DEFINED_CURVE_FONT('continuous');
#222=PRESENTATION_LAYER_ASSIGNMENT('1','Layer 1',(#350,#351,#352,#246,#247,
#248,#33));
#223=STYLED_ITEM('',(#230),#350);
#224=STYLED_ITEM('',(#231),#351);
#225=STYLED_ITEM('',(#232),#352);
#226=STYLED_ITEM('',(#233),#246);
#227=STYLED_ITEM('',(#234),#247);
#228=STYLED_ITEM('',(#235),#248);
#229=STYLED_ITEM('',(#236),#33);
#230=PRESENTATION_STYLE_ASSIGNMENT((#237));
#231=PRESENTATION_STYLE_ASSIGNMENT((#238));
#232=PRESENTATION_STYLE_ASSIGNMENT((#239));
#233=PRESENTATION_STYLE_ASSIGNMENT((#216));
#234=PRESENTATION_STYLE_ASSIGNMENT((#217));
#235=PRESENTATION_STYLE_ASSIGNMENT((#218));
#236=PRESENTATION_STYLE_ASSIGNMENT((#28));
#237=POINT_STYLE('',#240,POSITIVE_LENGTH_MEASURE(3.),#243);
#238=POINT_STYLE('',#241,POSITIVE_LENGTH_MEASURE(3.),#243);
#239=POINT_STYLE('',#242,POSITIVE_LENGTH_MEASURE(3.),#243);
#240=PRE_DEFINED_POINT_MARKER_SYMBOL('plus');
#241=PRE_DEFINED_POINT_MARKER_SYMBOL('plus');
#242=PRE_DEFINED_POINT_MARKER_SYMBOL('plus');
#243=COLOUR_RGB('Medium Maroon',0.6,0.4,0.4);
#244=COLOUR_RGB('Medium Gray',0.501960784313725,0.501960784313725,0.501960784313725);
#245=AXIS2_PLACEMENT_3D('',#349,#278,#279);
#246=AXIS2_PLACEMENT_3D('PCS',#353,#280,#281);
#247=AXIS2_PLACEMENT_3D('MCS',#354,#282,#283);
#248=AXIS2_PLACEMENT_3D('CSW',#355,#284,#285);
#249=AXIS2_PLACEMENT_3D('',#356,#286,#287);
#250=AXIS2_PLACEMENT_3D('',#361,#289,#290);
#251=AXIS2_PLACEMENT_3D('',#365,#292,#293);
#252=AXIS2_PLACEMENT_3D('',#366,#294,#295);
#253=AXIS2_PLACEMENT_3D('',#367,#296,#297);
#254=AXIS2_PLACEMENT_3D('',#369,#298,#299);
#255=AXIS2_PLACEMENT_3D('',#371,#300,#301);
#256=AXIS2_PLACEMENT_3D('',#374,#303,#304);
#257=AXIS2_PLACEMENT_3D('',#376,#306,#307);
#258=AXIS2_PLACEMENT_3D('',#377,#308,#309);
#259=AXIS2_PLACEMENT_3D('',#379,#310,#311);
#260=AXIS2_PLACEMENT_3D('',#380,#312,#313);
#261=AXIS2_PLACEMENT_3D('',#382,#314,#315);
#262=AXIS2_PLACEMENT_3D('',#383,#316,#317);
#263=AXIS2_PLACEMENT_3D('',#385,#318,#319);
#264=AXIS2_PLACEMENT_3D('',#386,#320,#321);
#265=AXIS2_PLACEMENT_3D('',#387,#322,#323);
#266=AXIS2_PLACEMENT_3D('',#389,#324,#325);
#267=AXIS2_PLACEMENT_3D('',#390,#326,#327);
#268=AXIS2_PLACEMENT_3D('',#392,#328,#329);
#269=AXIS2_PLACEMENT_3D('',#393,#330,#331);
#270=AXIS2_PLACEMENT_3D('',#395,#332,#333);
#271=AXIS2_PLACEMENT_3D('',#396,#334,#335);
#272=AXIS2_PLACEMENT_3D('',#398,#336,#337);
#273=AXIS2_PLACEMENT_3D('',#399,#338,#339);
#274=AXIS2_PLACEMENT_3D('',#401,#340,#341);
#275=AXIS2_PLACEMENT_3D('',#402,#342,#343);
#276=AXIS2_PLACEMENT_3D('',#404,#345,#346);
#277=AXIS2_PLACEMENT_3D('',#405,#347,#348);
#278=DIRECTION('',(0.,0.,1.));
#279=DIRECTION('',(1.,0.,0.));
#280=DIRECTION('',(0.,0.,1.));
#281=DIRECTION('',(1.,0.,0.));
#282=DIRECTION('',(0.,0.,1.));
#283=DIRECTION('',(1.,0.,0.));
#284=DIRECTION('',(0.,0.,1.));
#285=DIRECTION('',(1.,0.,0.));
#286=DIRECTION('',(0.,0.,1.));
#287=DIRECTION('',(0.,1.,0.));
#288=DIRECTION('',(0.,0.,-1.));
#289=DIRECTION('',(0.,0.,1.));
#290=DIRECTION('',(0.,1.,0.));
#291=DIRECTION('',(0.,0.,1.));
#292=DIRECTION('',(0.,-0.707106781186548,0.707106781186547));
#293=DIRECTION('',(0.,0.707106781186547,0.707106781186548));
#294=DIRECTION('',(0.,0.,1.));
#295=DIRECTION('',(0.,-1.,0.));
#296=DIRECTION('',(0.,0.,1.));
#297=DIRECTION('',(0.,1.,0.));
#298=DIRECTION('',(0.,0.,-1.));
#299=DIRECTION('',(0.,-1.,0.));
#300=DIRECTION('',(0.,0.,1.));
#301=DIRECTION('',(0.,-1.,0.));
#302=DIRECTION('',(1.,0.,0.));
#303=DIRECTION('',(0.,0.,-1.));
#304=DIRECTION('',(0.,-1.,0.));
#305=DIRECTION('',(1.,0.,0.));
#306=DIRECTION('',(0.,0.,-1.));
#307=DIRECTION('',(0.,1.,0.));
#308=DIRECTION('',(0.,0.,1.));
#309=DIRECTION('',(0.,1.,0.));
#310=DIRECTION('',(0.,0.,1.));
#311=DIRECTION('',(0.,-1.,0.));
#312=DIRECTION('',(0.,0.,1.));
#313=DIRECTION('',(0.,1.,0.));
#314=DIRECTION('',(0.,0.,1.));
#315=DIRECTION('',(0.,-1.,0.));
#316=DIRECTION('',(0.,0.,1.));
#317=DIRECTION('',(0.,1.,0.));
#318=DIRECTION('',(0.,0.,-1.));
#319=DIRECTION('',(0.,1.,5.49615358725325E-17));
#320=DIRECTION('',(0.,0.,-1.));
#321=DIRECTION('',(0.,1.,0.));
#322=DIRECTION('',(0.,0.,1.));
#323=DIRECTION('',(0.,-1.,0.));
#324=DIRECTION('',(0.,0.,-1.));
#325=DIRECTION('',(0.,1.,0.));
#326=DIRECTION('',(0.,0.,1.));
#327=DIRECTION('',(0.,-1.,0.));
#328=DIRECTION('',(0.,0.,1.));
#329=DIRECTION('',(0.,-1.,4.13234376411347E-17));
#330=DIRECTION('',(0.,0.,1.));
#331=DIRECTION('',(0.,-1.,0.));
#332=DIRECTION('',(0.,0.,-1.));
#333=DIRECTION('',(0.,1.,0.));
#334=DIRECTION('',(0.,0.,1.));
#335=DIRECTION('',(0.,-1.,0.));
#336=DIRECTION('',(0.,0.,1.));
#337=DIRECTION('',(0.,-1.,-7.58725973588263E-17));
#338=DIRECTION('',(0.,0.,1.));
#339=DIRECTION('',(0.,-1.,0.));
#340=DIRECTION('',(0.,0.,-1.));
#341=DIRECTION('',(0.,1.,0.));
#342=DIRECTION('',(0.,0.,1.));
#343=DIRECTION('',(0.,-1.,-6.89065928888503E-17));
#344=DIRECTION('',(-1.,0.,0.));
#345=DIRECTION('',(0.,-0.707106781186548,0.707106781186547));
#346=DIRECTION('',(0.,-0.707106781186547,-0.707106781186548));
#347=DIRECTION('',(0.,-1.,0.));
#348=DIRECTION('',(0.,0.,-1.));
#349=CARTESIAN_POINT('',(0.,0.,0.));
#350=CARTESIAN_POINT('PCS',(0.,0.,0.));
#351=CARTESIAN_POINT('MCS',(0.,0.,0.));
#352=CARTESIAN_POINT('CSW',(0.,0.,-5.));
#353=CARTESIAN_POINT('',(0.,0.,0.));
#354=CARTESIAN_POINT('',(0.,0.,0.));
#355=CARTESIAN_POINT('',(0.,0.,-5.));
#356=CARTESIAN_POINT('',(0.,0.,0.));
#357=CARTESIAN_POINT('',(0.,8.,0.));
#358=CARTESIAN_POINT('',(-3.87298334620742,-7.,45.));
#359=CARTESIAN_POINT('',(-3.87298334620742,-7.,45.));
#360=CARTESIAN_POINT('',(-3.87298334620741,-7.,8.));
#361=CARTESIAN_POINT('',(0.,0.,45.));
#362=CARTESIAN_POINT('',(3.87298334620742,-7.,45.));
#363=CARTESIAN_POINT('',(3.87298334620742,-7.,45.));
#364=CARTESIAN_POINT('',(3.87298334620741,-7.,8.));
#365=CARTESIAN_POINT('',(0.,0.,15.));
#366=CARTESIAN_POINT('',(0.,0.,45.));
#367=CARTESIAN_POINT('',(0.,0.,-5.));
#368=CARTESIAN_POINT('',(0.,9.5,-5.));
#369=CARTESIAN_POINT('',(0.,0.,-5.));
#370=CARTESIAN_POINT('',(0.,-4.,-5.));
#371=CARTESIAN_POINT('',(0.,-4.,-5.));
#372=CARTESIAN_POINT('',(-5.,-7.,45.));
#373=CARTESIAN_POINT('',(0.,-7.,45.));
#374=CARTESIAN_POINT('',(0.,0.,45.));
#375=CARTESIAN_POINT('',(-5.,-7.,45.));
#376=CARTESIAN_POINT('',(0.,-5.,45.));
#377=CARTESIAN_POINT('',(0.,0.,-4.5));
#378=CARTESIAN_POINT('',(0.,10.,-4.5));
#379=CARTESIAN_POINT('',(0.,0.,-5.));
#380=CARTESIAN_POINT('',(0.,0.,-0.5));
#381=CARTESIAN_POINT('',(0.,10.,-0.5));
#382=CARTESIAN_POINT('',(0.,0.,45.));
#383=CARTESIAN_POINT('',(0.,0.,0.));
#384=CARTESIAN_POINT('',(0.,9.5,0.));
#385=CARTESIAN_POINT('',(0.,0.,-0.5));
#386=CARTESIAN_POINT('',(0.,-9.5,0.));
#387=CARTESIAN_POINT('',(0.,0.,28.5));
#388=CARTESIAN_POINT('',(0.,-4.,28.5));
#389=CARTESIAN_POINT('',(0.,0.,45.));
#390=CARTESIAN_POINT('',(0.,0.,30.));
#391=CARTESIAN_POINT('',(0.,-5.,30.));
#392=CARTESIAN_POINT('',(0.,0.,30.));
#393=CARTESIAN_POINT('',(0.,0.,34.));
#394=CARTESIAN_POINT('',(0.,-5.,34.));
#395=CARTESIAN_POINT('',(0.,0.,45.));
#396=CARTESIAN_POINT('',(0.,0.,35.));
#397=CARTESIAN_POINT('',(0.,-6.,35.));
#398=CARTESIAN_POINT('',(0.,0.,35.));
#399=CARTESIAN_POINT('',(0.,0.,44.));
#400=CARTESIAN_POINT('',(0.,-6.,44.));
#401=CARTESIAN_POINT('',(0.,0.,45.));
#402=CARTESIAN_POINT('',(0.,0.,45.));
#403=CARTESIAN_POINT('',(-5.,-7.,8.));
#404=CARTESIAN_POINT('',(-5.,-7.,8.));
#405=CARTESIAN_POINT('',(-5.,-7.,45.));
#406=MECHANICAL_DESIGN_GEOMETRIC_PRESENTATION_REPRESENTATION('',(#223,#224,
#225,#226,#227,#228,#229),#407);
#407=(
GEOMETRIC_REPRESENTATION_CONTEXT(3)
GLOBAL_UNCERTAINTY_ASSIGNED_CONTEXT((#408))
GLOBAL_UNIT_ASSIGNED_CONTEXT((#414,#410,#409))
REPRESENTATION_CONTEXT('1574159527419','TOP_LEVEL_ASSEMBLY_PART')
);
#408=UNCERTAINTY_MEASURE_WITH_UNIT(LENGTH_MEASURE(2.E-5),#414,
'DISTANCE_ACCURACY_VALUE','Maximum Tolerance applied to model');
#409=(
NAMED_UNIT(*)
SI_UNIT($,.STERADIAN.)
SOLID_ANGLE_UNIT()
);
#410=(
CONVERSION_BASED_UNIT('DEGREE',#412)
NAMED_UNIT(#411)
PLANE_ANGLE_UNIT()
);
#411=DIMENSIONAL_EXPONENTS(0.,0.,0.,0.,0.,0.,0.);
#412=PLANE_ANGLE_MEASURE_WITH_UNIT(PLANE_ANGLE_MEASURE(0.0174532925),#413);
#413=(
NAMED_UNIT(*)
PLANE_ANGLE_UNIT()
SI_UNIT($,.RADIAN.)
);
#414=(
LENGTH_UNIT()
NAMED_UNIT(*)
SI_UNIT(.MILLI.,.METRE.)
);
ENDSEC;
END-ISO-10303-21;
