ISO-10303-21;
HEADER;
/* Generated by software containing ST-Developer
 * from STEP Tools, Inc. (www.steptools.com) 
 */
/* OPTION: using custom schema-name function */

FILE_DESCRIPTION(
/* description */ (''),
/* implementation_level */ '2;1');

FILE_NAME(
/* name */ '1574160484185.stp',
/* time_stamp */ '2019-11-19T16:18:18+06:00',
/* author */ (''),
/* organization */ ('SMS'),
/* preprocessor_version */ 'ST-DEVELOPER v16.7',
/* originating_system */ 'SIEMENS PLM Software NX 12.0',
/* authorisation */ '');

FILE_SCHEMA (('AUTOMOTIVE_DESIGN { 1 0 10303 214 3 1 1 1 }'));
ENDSEC;

DATA;
#10=CONSTRUCTIVE_GEOMETRY_REPRESENTATION_RELATIONSHIP(
'supplemental geometry','',#26,#11);
#11=CONSTRUCTIVE_GEOMETRY_REPRESENTATION('supplemental geometry',(#237,
#238,#239),#393);
#12=GEOMETRICALLY_BOUNDED_WIREFRAME_SHAPE_REPRESENTATION(
'201991008mod000_00-None',(#27),#393);
#13=SHAPE_REPRESENTATION_RELATIONSHIP('None',
'relationship between 201991008mod000_00-None and 201991008mod000_00-N
one',#26,#15);
#14=SHAPE_REPRESENTATION_RELATIONSHIP('None',
'relationship between 201991008mod000_00-None and 201991008mod000_00-N
one',#26,#12);
#15=ADVANCED_BREP_SHAPE_REPRESENTATION('201991008mod000_00-None',(#33),
#393);
#16=SHAPE_DEFINITION_REPRESENTATION(#17,#26);
#17=PRODUCT_DEFINITION_SHAPE('','',#18);
#18=PRODUCT_DEFINITION(' ','',#20,#19);
#19=PRODUCT_DEFINITION_CONTEXT('part definition',#25,'design');
#20=PRODUCT_DEFINITION_FORMATION_WITH_SPECIFIED_SOURCE(' ',' ',#22,
 .NOT_KNOWN.);
#21=PRODUCT_RELATED_PRODUCT_CATEGORY('part','',(#22));
#22=PRODUCT('201991008mod000_00','201991008mod000_00',' ',(#23));
#23=PRODUCT_CONTEXT(' ',#25,'mechanical');
#24=APPLICATION_PROTOCOL_DEFINITION('international standard',
'automotive_design',2010,#25);
#25=APPLICATION_CONTEXT(
'core data for automotive mechanical design processes');
#26=SHAPE_REPRESENTATION('201991008mod000_00-None',(#236),#393);
#27=GEOMETRIC_CURVE_SET('None',(#332,#333,#334));
#28=SURFACE_STYLE_USAGE(.BOTH.,#29);
#29=SURFACE_SIDE_STYLE('',(#30));
#30=SURFACE_STYLE_FILL_AREA(#31);
#31=FILL_AREA_STYLE('',(#32));
#32=FILL_AREA_STYLE_COLOUR('',#235);
#33=MANIFOLD_SOLID_BREP('NOCUT',#34);
#34=CLOSED_SHELL('',(#52,#53,#54,#55,#56,#57,#58,#59,#60,#61,#62,#63,#64,
#65));
#35=CONICAL_SURFACE('',#260,15.5,45.);
#36=CONICAL_SURFACE('',#261,18.,45.);
#37=CONICAL_SURFACE('',#262,17.5,45.);
#38=CONICAL_SURFACE('',#264,12.8,45.);
#39=CONICAL_SURFACE('',#265,12.5,44.9999999999998);
#40=B_SPLINE_CURVE_WITH_KNOTS('',3,(#378,#379,#380,#381),.UNSPECIFIED.,
 .F.,.F.,(4,4),(0.,1.),.UNSPECIFIED.);
#41=B_SPLINE_CURVE_WITH_KNOTS('',3,(#382,#383,#384,#385),.UNSPECIFIED.,
 .F.,.F.,(4,4),(0.,1.),.UNSPECIFIED.);
#42=FACE_OUTER_BOUND('',#112,.T.);
#43=FACE_OUTER_BOUND('',#113,.T.);
#44=FACE_OUTER_BOUND('',#114,.T.);
#45=FACE_OUTER_BOUND('',#119,.T.);
#46=PLANE('',#246);
#47=PLANE('',#252);
#48=PLANE('',#257);
#49=PLANE('',#258);
#50=PLANE('',#259);
#51=PLANE('',#263);
#52=ADVANCED_FACE('',(#80,#81),#66,.T.);
#53=ADVANCED_FACE('',(#82,#83),#46,.F.);
#54=ADVANCED_FACE('',(#84,#85),#67,.F.);
#55=ADVANCED_FACE('',(#86,#87),#47,.F.);
#56=ADVANCED_FACE('',(#88,#89),#68,.T.);
#57=ADVANCED_FACE('',(#90,#91),#48,.F.);
#58=ADVANCED_FACE('',(#42),#49,.T.);
#59=ADVANCED_FACE('',(#43),#50,.T.);
#60=ADVANCED_FACE('',(#44),#35,.T.);
#61=ADVANCED_FACE('',(#92,#93),#36,.T.);
#62=ADVANCED_FACE('',(#94,#95),#37,.T.);
#63=ADVANCED_FACE('',(#45),#51,.T.);
#64=ADVANCED_FACE('',(#96,#97),#38,.F.);
#65=ADVANCED_FACE('',(#98,#99),#39,.F.);
#66=CYLINDRICAL_SURFACE('',#243,16.);
#67=CYLINDRICAL_SURFACE('',#249,12.5);
#68=CYLINDRICAL_SURFACE('',#255,18.);
#69=ELLIPSE('',#242,22.6274169979695,16.);
#70=LINE('',#340,#75);
#71=LINE('',#345,#76);
#72=LINE('',#354,#77);
#73=LINE('',#374,#78);
#74=LINE('',#375,#79);
#75=VECTOR('',#276,1.);
#76=VECTOR('',#279,1.);
#77=VECTOR('',#288,1.);
#78=VECTOR('',#313,1.);
#79=VECTOR('',#314,1.);
#80=FACE_BOUND('',#100,.T.);
#81=FACE_BOUND('',#101,.T.);
#82=FACE_BOUND('',#102,.T.);
#83=FACE_BOUND('',#103,.T.);
#84=FACE_BOUND('',#104,.T.);
#85=FACE_BOUND('',#105,.T.);
#86=FACE_BOUND('',#106,.T.);
#87=FACE_BOUND('',#107,.T.);
#88=FACE_BOUND('',#108,.T.);
#89=FACE_BOUND('',#109,.T.);
#90=FACE_BOUND('',#110,.T.);
#91=FACE_BOUND('',#111,.T.);
#92=FACE_BOUND('',#115,.T.);
#93=FACE_BOUND('',#116,.T.);
#94=FACE_BOUND('',#117,.T.);
#95=FACE_BOUND('',#118,.T.);
#96=FACE_BOUND('',#120,.T.);
#97=FACE_BOUND('',#121,.T.);
#98=FACE_BOUND('',#122,.T.);
#99=FACE_BOUND('',#123,.T.);
#100=EDGE_LOOP('',(#124));
#101=EDGE_LOOP('',(#125,#126,#127,#128));
#102=EDGE_LOOP('',(#129));
#103=EDGE_LOOP('',(#130,#131));
#104=EDGE_LOOP('',(#132));
#105=EDGE_LOOP('',(#133));
#106=EDGE_LOOP('',(#134));
#107=EDGE_LOOP('',(#135));
#108=EDGE_LOOP('',(#136));
#109=EDGE_LOOP('',(#137));
#110=EDGE_LOOP('',(#138));
#111=EDGE_LOOP('',(#139));
#112=EDGE_LOOP('',(#140,#141,#142,#143));
#113=EDGE_LOOP('',(#144,#145));
#114=EDGE_LOOP('',(#146,#147,#148,#149));
#115=EDGE_LOOP('',(#150));
#116=EDGE_LOOP('',(#151));
#117=EDGE_LOOP('',(#152));
#118=EDGE_LOOP('',(#153));
#119=EDGE_LOOP('',(#154,#155,#156,#157));
#120=EDGE_LOOP('',(#158));
#121=EDGE_LOOP('',(#159));
#122=EDGE_LOOP('',(#160));
#123=EDGE_LOOP('',(#161));
#124=ORIENTED_EDGE('',*,*,#177,.T.);
#125=ORIENTED_EDGE('',*,*,#178,.T.);
#126=ORIENTED_EDGE('',*,*,#179,.T.);
#127=ORIENTED_EDGE('',*,*,#180,.T.);
#128=ORIENTED_EDGE('',*,*,#181,.T.);
#129=ORIENTED_EDGE('',*,*,#182,.T.);
#130=ORIENTED_EDGE('',*,*,#183,.T.);
#131=ORIENTED_EDGE('',*,*,#184,.T.);
#132=ORIENTED_EDGE('',*,*,#185,.T.);
#133=ORIENTED_EDGE('',*,*,#186,.T.);
#134=ORIENTED_EDGE('',*,*,#187,.T.);
#135=ORIENTED_EDGE('',*,*,#188,.T.);
#136=ORIENTED_EDGE('',*,*,#189,.T.);
#137=ORIENTED_EDGE('',*,*,#190,.T.);
#138=ORIENTED_EDGE('',*,*,#191,.T.);
#139=ORIENTED_EDGE('',*,*,#177,.F.);
#140=ORIENTED_EDGE('',*,*,#180,.F.);
#141=ORIENTED_EDGE('',*,*,#192,.T.);
#142=ORIENTED_EDGE('',*,*,#178,.F.);
#143=ORIENTED_EDGE('',*,*,#193,.F.);
#144=ORIENTED_EDGE('',*,*,#181,.F.);
#145=ORIENTED_EDGE('',*,*,#193,.T.);
#146=ORIENTED_EDGE('',*,*,#183,.F.);
#147=ORIENTED_EDGE('',*,*,#194,.T.);
#148=ORIENTED_EDGE('',*,*,#179,.F.);
#149=ORIENTED_EDGE('',*,*,#195,.T.);
#150=ORIENTED_EDGE('',*,*,#188,.F.);
#151=ORIENTED_EDGE('',*,*,#189,.F.);
#152=ORIENTED_EDGE('',*,*,#190,.F.);
#153=ORIENTED_EDGE('',*,*,#191,.F.);
#154=ORIENTED_EDGE('',*,*,#195,.F.);
#155=ORIENTED_EDGE('',*,*,#192,.F.);
#156=ORIENTED_EDGE('',*,*,#194,.F.);
#157=ORIENTED_EDGE('',*,*,#184,.F.);
#158=ORIENTED_EDGE('',*,*,#186,.F.);
#159=ORIENTED_EDGE('',*,*,#187,.F.);
#160=ORIENTED_EDGE('',*,*,#182,.F.);
#161=ORIENTED_EDGE('',*,*,#185,.F.);
#162=VERTEX_POINT('',#339);
#163=VERTEX_POINT('',#341);
#164=VERTEX_POINT('',#342);
#165=VERTEX_POINT('',#344);
#166=VERTEX_POINT('',#346);
#167=VERTEX_POINT('',#350);
#168=VERTEX_POINT('',#352);
#169=VERTEX_POINT('',#353);
#170=VERTEX_POINT('',#357);
#171=VERTEX_POINT('',#359);
#172=VERTEX_POINT('',#362);
#173=VERTEX_POINT('',#364);
#174=VERTEX_POINT('',#367);
#175=VERTEX_POINT('',#369);
#176=VERTEX_POINT('',#372);
#177=EDGE_CURVE('',#162,#162,#196,.T.);
#178=EDGE_CURVE('',#163,#164,#70,.T.);
#179=EDGE_CURVE('',#164,#165,#197,.T.);
#180=EDGE_CURVE('',#165,#166,#71,.T.);
#181=EDGE_CURVE('',#166,#163,#69,.T.);
#182=EDGE_CURVE('',#167,#167,#198,.T.);
#183=EDGE_CURVE('',#168,#169,#199,.T.);
#184=EDGE_CURVE('',#169,#168,#72,.T.);
#185=EDGE_CURVE('',#170,#170,#200,.T.);
#186=EDGE_CURVE('',#171,#171,#201,.T.);
#187=EDGE_CURVE('',#172,#172,#202,.T.);
#188=EDGE_CURVE('',#173,#173,#203,.T.);
#189=EDGE_CURVE('',#174,#174,#204,.T.);
#190=EDGE_CURVE('',#175,#175,#205,.T.);
#191=EDGE_CURVE('',#176,#176,#206,.T.);
#192=EDGE_CURVE('',#165,#164,#73,.T.);
#193=EDGE_CURVE('',#166,#163,#74,.T.);
#194=EDGE_CURVE('',#168,#165,#40,.T.);
#195=EDGE_CURVE('',#164,#169,#41,.T.);
#196=CIRCLE('',#240,16.);
#197=CIRCLE('',#241,16.);
#198=CIRCLE('',#244,12.8);
#199=CIRCLE('',#245,15.5);
#200=CIRCLE('',#247,12.5);
#201=CIRCLE('',#248,12.5);
#202=CIRCLE('',#250,12.8);
#203=CIRCLE('',#251,17.5);
#204=CIRCLE('',#253,18.);
#205=CIRCLE('',#254,18.);
#206=CIRCLE('',#256,17.5);
#207=CURVE_STYLE('',#210,POSITIVE_LENGTH_MEASURE(0.18),#234);
#208=CURVE_STYLE('',#211,POSITIVE_LENGTH_MEASURE(0.18),#234);
#209=CURVE_STYLE('',#212,POSITIVE_LENGTH_MEASURE(0.18),#234);
#210=DRAUGHTING_PRE_DEFINED_CURVE_FONT('continuous');
#211=DRAUGHTING_PRE_DEFINED_CURVE_FONT('continuous');
#212=DRAUGHTING_PRE_DEFINED_CURVE_FONT('continuous');
#213=PRESENTATION_LAYER_ASSIGNMENT('1','Layer 1',(#332,#333,#334,#237,#238,
#239,#33));
#214=STYLED_ITEM('',(#221),#332);
#215=STYLED_ITEM('',(#222),#333);
#216=STYLED_ITEM('',(#223),#334);
#217=STYLED_ITEM('',(#224),#237);
#218=STYLED_ITEM('',(#225),#238);
#219=STYLED_ITEM('',(#226),#239);
#220=STYLED_ITEM('',(#227),#33);
#221=PRESENTATION_STYLE_ASSIGNMENT((#228));
#222=PRESENTATION_STYLE_ASSIGNMENT((#229));
#223=PRESENTATION_STYLE_ASSIGNMENT((#230));
#224=PRESENTATION_STYLE_ASSIGNMENT((#207));
#225=PRESENTATION_STYLE_ASSIGNMENT((#208));
#226=PRESENTATION_STYLE_ASSIGNMENT((#209));
#227=PRESENTATION_STYLE_ASSIGNMENT((#28));
#228=POINT_STYLE('',#231,POSITIVE_LENGTH_MEASURE(3.),#234);
#229=POINT_STYLE('',#232,POSITIVE_LENGTH_MEASURE(3.),#234);
#230=POINT_STYLE('',#233,POSITIVE_LENGTH_MEASURE(3.),#234);
#231=PRE_DEFINED_POINT_MARKER_SYMBOL('plus');
#232=PRE_DEFINED_POINT_MARKER_SYMBOL('plus');
#233=PRE_DEFINED_POINT_MARKER_SYMBOL('plus');
#234=COLOUR_RGB('Medium Maroon',0.6,0.4,0.4);
#235=COLOUR_RGB('Medium Gray',0.501960784313725,0.501960784313725,0.501960784313725);
#236=AXIS2_PLACEMENT_3D('',#331,#266,#267);
#237=AXIS2_PLACEMENT_3D('PCS',#335,#268,#269);
#238=AXIS2_PLACEMENT_3D('MCS',#336,#270,#271);
#239=AXIS2_PLACEMENT_3D('CSW',#337,#272,#273);
#240=AXIS2_PLACEMENT_3D('',#338,#274,#275);
#241=AXIS2_PLACEMENT_3D('',#343,#277,#278);
#242=AXIS2_PLACEMENT_3D('',#347,#280,#281);
#243=AXIS2_PLACEMENT_3D('',#348,#282,#283);
#244=AXIS2_PLACEMENT_3D('',#349,#284,#285);
#245=AXIS2_PLACEMENT_3D('',#351,#286,#287);
#246=AXIS2_PLACEMENT_3D('',#355,#289,#290);
#247=AXIS2_PLACEMENT_3D('',#356,#291,#292);
#248=AXIS2_PLACEMENT_3D('',#358,#293,#294);
#249=AXIS2_PLACEMENT_3D('',#360,#295,#296);
#250=AXIS2_PLACEMENT_3D('',#361,#297,#298);
#251=AXIS2_PLACEMENT_3D('',#363,#299,#300);
#252=AXIS2_PLACEMENT_3D('',#365,#301,#302);
#253=AXIS2_PLACEMENT_3D('',#366,#303,#304);
#254=AXIS2_PLACEMENT_3D('',#368,#305,#306);
#255=AXIS2_PLACEMENT_3D('',#370,#307,#308);
#256=AXIS2_PLACEMENT_3D('',#371,#309,#310);
#257=AXIS2_PLACEMENT_3D('',#373,#311,#312);
#258=AXIS2_PLACEMENT_3D('',#376,#315,#316);
#259=AXIS2_PLACEMENT_3D('',#377,#317,#318);
#260=AXIS2_PLACEMENT_3D('',#386,#319,#320);
#261=AXIS2_PLACEMENT_3D('',#387,#321,#322);
#262=AXIS2_PLACEMENT_3D('',#388,#323,#324);
#263=AXIS2_PLACEMENT_3D('',#389,#325,#326);
#264=AXIS2_PLACEMENT_3D('',#390,#327,#328);
#265=AXIS2_PLACEMENT_3D('',#391,#329,#330);
#266=DIRECTION('',(0.,0.,1.));
#267=DIRECTION('',(1.,0.,0.));
#268=DIRECTION('',(0.,0.,1.));
#269=DIRECTION('',(1.,0.,0.));
#270=DIRECTION('',(0.,0.,1.));
#271=DIRECTION('',(1.,0.,0.));
#272=DIRECTION('',(0.,0.,1.));
#273=DIRECTION('',(1.,0.,0.));
#274=DIRECTION('',(0.,0.,1.));
#275=DIRECTION('',(0.,-1.,0.));
#276=DIRECTION('',(0.,0.,1.));
#277=DIRECTION('',(0.,0.,-1.));
#278=DIRECTION('',(0.,1.,0.));
#279=DIRECTION('',(0.,0.,-1.));
#280=DIRECTION('',(0.,-0.707106781186547,-0.707106781186548));
#281=DIRECTION('',(0.,-0.707106781186548,0.707106781186547));
#282=DIRECTION('',(0.,0.,1.));
#283=DIRECTION('',(0.,1.,0.));
#284=DIRECTION('',(0.,0.,-1.));
#285=DIRECTION('',(0.,1.,0.));
#286=DIRECTION('',(0.,0.,1.));
#287=DIRECTION('',(0.,1.,0.));
#288=DIRECTION('',(-1.,0.,0.));
#289=DIRECTION('',(0.,0.,-1.));
#290=DIRECTION('',(0.,-1.,0.));
#291=DIRECTION('',(0.,0.,1.));
#292=DIRECTION('',(0.,1.,0.));
#293=DIRECTION('',(0.,0.,-1.));
#294=DIRECTION('',(0.,-1.,0.));
#295=DIRECTION('',(0.,0.,1.));
#296=DIRECTION('',(0.,1.,0.));
#297=DIRECTION('',(0.,0.,1.));
#298=DIRECTION('',(0.,-1.,0.));
#299=DIRECTION('',(0.,0.,-1.));
#300=DIRECTION('',(0.,-1.,0.));
#301=DIRECTION('',(0.,0.,1.));
#302=DIRECTION('',(0.,1.,0.));
#303=DIRECTION('',(0.,0.,1.));
#304=DIRECTION('',(0.,-1.,0.));
#305=DIRECTION('',(0.,0.,-1.));
#306=DIRECTION('',(0.,1.,0.));
#307=DIRECTION('',(0.,0.,1.));
#308=DIRECTION('',(0.,1.,0.));
#309=DIRECTION('',(0.,0.,1.));
#310=DIRECTION('',(0.,1.,0.));
#311=DIRECTION('',(0.,0.,-1.));
#312=DIRECTION('',(0.,-1.,0.));
#313=DIRECTION('',(1.,0.,0.));
#314=DIRECTION('',(1.,0.,0.));
#315=DIRECTION('',(0.,1.,0.));
#316=DIRECTION('',(-1.,0.,0.));
#317=DIRECTION('',(0.,0.707106781186547,0.707106781186548));
#318=DIRECTION('',(0.,0.707106781186548,-0.707106781186547));
#319=DIRECTION('',(0.,0.,-1.));
#320=DIRECTION('',(0.,-1.,5.46638613798699E-17));
#321=DIRECTION('',(0.,0.,1.));
#322=DIRECTION('',(0.,1.,-4.85654411250874E-17));
#323=DIRECTION('',(0.,0.,-1.));
#324=DIRECTION('',(0.,-1.,0.));
#325=DIRECTION('',(0.,0.707106781186547,0.707106781186547));
#326=DIRECTION('',(-1.,0.,0.));
#327=DIRECTION('',(0.,0.,-1.));
#328=DIRECTION('',(0.,-1.,-1.04480778075222E-16));
#329=DIRECTION('',(0.,0.,1.));
#330=DIRECTION('',(0.,1.,8.2238742564827E-17));
#331=CARTESIAN_POINT('',(0.,0.,0.));
#332=CARTESIAN_POINT('PCS',(0.,0.,0.));
#333=CARTESIAN_POINT('MCS',(0.,0.,0.));
#334=CARTESIAN_POINT('CSW',(0.,0.,-5.00000000000001));
#335=CARTESIAN_POINT('',(0.,0.,0.));
#336=CARTESIAN_POINT('',(0.,0.,0.));
#337=CARTESIAN_POINT('',(0.,0.,-5.00000000000001));
#338=CARTESIAN_POINT('',(0.,0.,0.));
#339=CARTESIAN_POINT('',(0.,-16.,0.));
#340=CARTESIAN_POINT('',(6.76387464657173,14.4999999919126,7.));
#341=CARTESIAN_POINT('',(6.76387464657173,14.4999999919126,7.00000000808744));
#342=CARTESIAN_POINT('',(6.76387464657173,14.4999999919126,59.5));
#343=CARTESIAN_POINT('',(0.,0.,59.5));
#344=CARTESIAN_POINT('',(-6.76387463104671,14.4999999991546,59.5));
#345=CARTESIAN_POINT('',(-6.76387463104671,14.4999999991546,7.));
#346=CARTESIAN_POINT('',(-6.76387463104671,14.4999999991546,7.00000000084542));
#347=CARTESIAN_POINT('',(0.,0.,21.5));
#348=CARTESIAN_POINT('',(0.,0.,0.));
#349=CARTESIAN_POINT('',(0.,0.,60.));
#350=CARTESIAN_POINT('',(0.,12.8,60.));
#351=CARTESIAN_POINT('',(0.,0.,60.));
#352=CARTESIAN_POINT('',(-6.65206734782504,14.,60.));
#353=CARTESIAN_POINT('',(6.65206734782504,14.,60.));
#354=CARTESIAN_POINT('',(-5.47722557505169,14.,60.));
#355=CARTESIAN_POINT('',(0.,16.,60.));
#356=CARTESIAN_POINT('',(0.,0.,59.7));
#357=CARTESIAN_POINT('',(0.,12.5,59.7));
#358=CARTESIAN_POINT('',(0.,0.,-4.70000000000001));
#359=CARTESIAN_POINT('',(0.,-12.5,-4.70000000000001));
#360=CARTESIAN_POINT('',(0.,0.,0.));
#361=CARTESIAN_POINT('',(0.,0.,-5.00000000000001));
#362=CARTESIAN_POINT('',(0.,-12.8,-5.00000000000001));
#363=CARTESIAN_POINT('',(0.,0.,-5.00000000000001));
#364=CARTESIAN_POINT('',(0.,-17.5,-5.00000000000001));
#365=CARTESIAN_POINT('',(0.,12.5,-5.00000000000001));
#366=CARTESIAN_POINT('',(0.,0.,-4.50000000000001));
#367=CARTESIAN_POINT('',(0.,-18.,-4.50000000000001));
#368=CARTESIAN_POINT('',(0.,0.,-0.5));
#369=CARTESIAN_POINT('',(0.,18.,-0.5));
#370=CARTESIAN_POINT('',(0.,0.,0.));
#371=CARTESIAN_POINT('',(0.,0.,0.));
#372=CARTESIAN_POINT('',(0.,17.5,0.));
#373=CARTESIAN_POINT('',(0.,18.,0.));
#374=CARTESIAN_POINT('',(5.47722557505169,14.5,59.5));
#375=CARTESIAN_POINT('',(7.76250678319323E-9,14.5,7.));
#376=CARTESIAN_POINT('',(6.76387464782782,14.5,6.99999999999999));
#377=CARTESIAN_POINT('',(7.76250678319323E-9,14.5,7.));
#378=CARTESIAN_POINT('',(-6.65206734782504,14.,60.));
#379=CARTESIAN_POINT('',(-6.68964191529407,14.1666323689129,59.8333676310871));
#380=CARTESIAN_POINT('',(-6.72690614472915,14.3332998613638,59.6667001377908));
#381=CARTESIAN_POINT('',(-6.76387463104671,14.4999999991546,59.5));
#382=CARTESIAN_POINT('',(6.76387464657173,14.4999999919126,59.5));
#383=CARTESIAN_POINT('',(6.7269061603061,14.3332998547443,59.6667001371683));
#384=CARTESIAN_POINT('',(6.68964191515586,14.1666323683,59.8333676317));
#385=CARTESIAN_POINT('',(6.65206734782504,14.,60.));
#386=CARTESIAN_POINT('',(0.,0.,60.));
#387=CARTESIAN_POINT('',(0.,0.,-4.50000000000001));
#388=CARTESIAN_POINT('',(0.,0.,0.));
#389=CARTESIAN_POINT('',(0.,14.,60.));
#390=CARTESIAN_POINT('',(0.,0.,-5.00000000000001));
#391=CARTESIAN_POINT('',(0.,0.,59.7));
#392=MECHANICAL_DESIGN_GEOMETRIC_PRESENTATION_REPRESENTATION('',(#214,#215,
#216,#217,#218,#219,#220),#393);
#393=(
GEOMETRIC_REPRESENTATION_CONTEXT(3)
GLOBAL_UNCERTAINTY_ASSIGNED_CONTEXT((#394))
GLOBAL_UNIT_ASSIGNED_CONTEXT((#400,#396,#395))
REPRESENTATION_CONTEXT('1574160484185','TOP_LEVEL_ASSEMBLY_PART')
);
#394=UNCERTAINTY_MEASURE_WITH_UNIT(LENGTH_MEASURE(2.E-5),#400,
'DISTANCE_ACCURACY_VALUE','Maximum Tolerance applied to model');
#395=(
NAMED_UNIT(*)
SI_UNIT($,.STERADIAN.)
SOLID_ANGLE_UNIT()
);
#396=(
CONVERSION_BASED_UNIT('DEGREE',#398)
NAMED_UNIT(#397)
PLANE_ANGLE_UNIT()
);
#397=DIMENSIONAL_EXPONENTS(0.,0.,0.,0.,0.,0.,0.);
#398=PLANE_ANGLE_MEASURE_WITH_UNIT(PLANE_ANGLE_MEASURE(0.0174532925),#399);
#399=(
NAMED_UNIT(*)
PLANE_ANGLE_UNIT()
SI_UNIT($,.RADIAN.)
);
#400=(
LENGTH_UNIT()
NAMED_UNIT(*)
SI_UNIT(.MILLI.,.METRE.)
);
ENDSEC;
END-ISO-10303-21;
