ISO-10303-21;
HEADER;
/* Generated by software containing ST-Developer
 * from STEP Tools, Inc. (www.steptools.com) 
 */
/* OPTION: using custom schema-name function */

FILE_DESCRIPTION(
/* description */ (''),
/* implementation_level */ '2;1');

FILE_NAME(
/* name */ '1574156606676.stp',
/* time_stamp */ '2019-11-19T15:13:41+06:00',
/* author */ (''),
/* organization */ ('SMS'),
/* preprocessor_version */ 'ST-DEVELOPER v16.7',
/* originating_system */ 'SIEMENS PLM Software NX 12.0',
/* authorisation */ '');

FILE_SCHEMA (('AUTOMOTIVE_DESIGN { 1 0 10303 214 3 1 1 1 }'));
ENDSEC;

DATA;
#10=CONSTRUCTIVE_GEOMETRY_REPRESENTATION_RELATIONSHIP(
'supplemental geometry','',#26,#11);
#11=CONSTRUCTIVE_GEOMETRY_REPRESENTATION('supplemental geometry',(#261,
#262,#263),#451);
#12=GEOMETRICALLY_BOUNDED_WIREFRAME_SHAPE_REPRESENTATION(
'201990697mod000_00-None',(#27),#451);
#13=SHAPE_REPRESENTATION_RELATIONSHIP('None',
'relationship between 201990697mod000_00-None and 201990697mod000_00-N
one',#26,#15);
#14=SHAPE_REPRESENTATION_RELATIONSHIP('None',
'relationship between 201990697mod000_00-None and 201990697mod000_00-N
one',#26,#12);
#15=ADVANCED_BREP_SHAPE_REPRESENTATION('201990697mod000_00-None',(#33),
#451);
#16=SHAPE_DEFINITION_REPRESENTATION(#17,#26);
#17=PRODUCT_DEFINITION_SHAPE('','',#18);
#18=PRODUCT_DEFINITION(' ','',#20,#19);
#19=PRODUCT_DEFINITION_CONTEXT('part definition',#25,'design');
#20=PRODUCT_DEFINITION_FORMATION_WITH_SPECIFIED_SOURCE(' ',' ',#22,
 .NOT_KNOWN.);
#21=PRODUCT_RELATED_PRODUCT_CATEGORY('part','',(#22));
#22=PRODUCT('201990697mod000_00','201990697mod000_00',' ',(#23));
#23=PRODUCT_CONTEXT(' ',#25,'mechanical');
#24=APPLICATION_PROTOCOL_DEFINITION('international standard',
'automotive_design',2010,#25);
#25=APPLICATION_CONTEXT(
'core data for automotive mechanical design processes');
#26=SHAPE_REPRESENTATION('201990697mod000_00-None',(#260),#451);
#27=GEOMETRIC_CURVE_SET('None',(#368,#369,#370));
#28=SURFACE_STYLE_USAGE(.BOTH.,#29);
#29=SURFACE_SIDE_STYLE('',(#30));
#30=SURFACE_STYLE_FILL_AREA(#31);
#31=FILL_AREA_STYLE('',(#32));
#32=FILL_AREA_STYLE_COLOUR('',#259);
#33=MANIFOLD_SOLID_BREP('NOCUT',#34);
#34=CLOSED_SHELL('',(#74,#75,#76,#77,#78,#79,#80,#81,#82,#83,#84,#85,#86,
#87,#88));
#35=CONICAL_SURFACE('',#273,7.,45.);
#36=CONICAL_SURFACE('',#277,10.,45.);
#37=CONICAL_SURFACE('',#281,9.5,44.9999999999999);
#38=CONICAL_SURFACE('',#287,5.02047799674371,29.2534592293349);
#39=CONICAL_SURFACE('',#290,6.02047799674372,45.0000000000002);
#40=B_SPLINE_CURVE_WITH_KNOTS('',3,(#397,#398,#399,#400),.UNSPECIFIED.,
 .F.,.F.,(4,4),(0.,1.),.UNSPECIFIED.);
#41=B_SPLINE_CURVE_WITH_KNOTS('',3,(#426,#427,#428,#429,#430,#431,#432,
#433,#434,#435,#436,#437,#438,#439,#440,#441,#442,#443),.UNSPECIFIED.,.T.,
 .F.,(2,2,2,2,2,2,2,2,2,2,2),(-0.125,0.,0.125,0.25,0.375,0.5,0.625,0.75,
0.875,1.,1.125),.UNSPECIFIED.);
#42=CYLINDRICAL_SURFACE('',#271,8.);
#43=CYLINDRICAL_SURFACE('',#279,10.);
#44=CYLINDRICAL_SURFACE('',#285,2.50000000000003);
#45=CYLINDRICAL_SURFACE('',#289,5.02047799674371);
#46=CYLINDRICAL_SURFACE('',#291,6.);
#47=ELLIPSE('',#268,11.3137084989848,8.);
#48=ELLIPSE('',#269,11.3137084989848,8.);
#49=ELLIPSE('',#270,11.3137084989848,8.);
#50=FACE_BOUND('',#98,.T.);
#51=FACE_BOUND('',#99,.T.);
#52=FACE_BOUND('',#100,.T.);
#53=FACE_BOUND('',#101,.T.);
#54=FACE_BOUND('',#102,.T.);
#55=FACE_BOUND('',#103,.T.);
#56=FACE_BOUND('',#104,.T.);
#57=FACE_BOUND('',#105,.T.);
#58=FACE_BOUND('',#106,.T.);
#59=FACE_BOUND('',#107,.T.);
#60=FACE_BOUND('',#108,.T.);
#61=FACE_BOUND('',#109,.T.);
#62=FACE_BOUND('',#110,.T.);
#63=FACE_BOUND('',#111,.T.);
#64=FACE_BOUND('',#112,.T.);
#65=FACE_BOUND('',#113,.T.);
#66=FACE_BOUND('',#114,.T.);
#67=FACE_BOUND('',#115,.T.);
#68=FACE_BOUND('',#116,.T.);
#69=FACE_BOUND('',#117,.T.);
#70=FACE_BOUND('',#118,.T.);
#71=FACE_BOUND('',#119,.T.);
#72=FACE_BOUND('',#120,.T.);
#73=FACE_BOUND('',#121,.T.);
#74=ADVANCED_FACE('',(#94),#89,.T.);
#75=ADVANCED_FACE('',(#50,#51),#42,.T.);
#76=ADVANCED_FACE('',(#52,#53),#35,.F.);
#77=ADVANCED_FACE('',(#54,#55),#90,.T.);
#78=ADVANCED_FACE('',(#56,#57),#36,.T.);
#79=ADVANCED_FACE('',(#58,#59),#43,.T.);
#80=ADVANCED_FACE('',(#60,#61),#37,.T.);
#81=ADVANCED_FACE('',(#62,#63),#91,.T.);
#82=ADVANCED_FACE('',(#64,#65),#44,.F.);
#83=ADVANCED_FACE('',(#66,#67),#38,.F.);
#84=ADVANCED_FACE('',(#68,#69),#45,.F.);
#85=ADVANCED_FACE('',(#70,#71),#39,.F.);
#86=ADVANCED_FACE('',(#72,#73),#46,.F.);
#87=ADVANCED_FACE('',(#95),#92,.T.);
#88=ADVANCED_FACE('',(#96),#93,.T.);
#89=PLANE('',#266);
#90=PLANE('',#275);
#91=PLANE('',#283);
#92=PLANE('',#292);
#93=PLANE('',#293);
#94=FACE_OUTER_BOUND('',#97,.T.);
#95=FACE_OUTER_BOUND('',#122,.T.);
#96=FACE_OUTER_BOUND('',#123,.T.);
#97=EDGE_LOOP('',(#134,#135,#136,#137));
#98=EDGE_LOOP('',(#138));
#99=EDGE_LOOP('',(#139,#140,#141,#142,#143,#144));
#100=EDGE_LOOP('',(#145));
#101=EDGE_LOOP('',(#146,#147));
#102=EDGE_LOOP('',(#148));
#103=EDGE_LOOP('',(#149));
#104=EDGE_LOOP('',(#150));
#105=EDGE_LOOP('',(#151));
#106=EDGE_LOOP('',(#152));
#107=EDGE_LOOP('',(#153));
#108=EDGE_LOOP('',(#154));
#109=EDGE_LOOP('',(#155));
#110=EDGE_LOOP('',(#156));
#111=EDGE_LOOP('',(#157));
#112=EDGE_LOOP('',(#158));
#113=EDGE_LOOP('',(#159));
#114=EDGE_LOOP('',(#160));
#115=EDGE_LOOP('',(#161));
#116=EDGE_LOOP('',(#162));
#117=EDGE_LOOP('',(#163));
#118=EDGE_LOOP('',(#164));
#119=EDGE_LOOP('',(#165));
#120=EDGE_LOOP('',(#166));
#121=EDGE_LOOP('',(#167));
#122=EDGE_LOOP('',(#168,#169,#170,#171,#172,#173));
#123=EDGE_LOOP('',(#174,#175,#176,#177));
#124=LINE('',#377,#129);
#125=LINE('',#381,#130);
#126=LINE('',#388,#131);
#127=LINE('',#389,#132);
#128=LINE('',#447,#133);
#129=VECTOR('',#304,1.);
#130=VECTOR('',#307,1.);
#131=VECTOR('',#314,1.);
#132=VECTOR('',#315,1.);
#133=VECTOR('',#362,1.);
#134=ORIENTED_EDGE('',*,*,#197,.F.);
#135=ORIENTED_EDGE('',*,*,#198,.T.);
#136=ORIENTED_EDGE('',*,*,#199,.T.);
#137=ORIENTED_EDGE('',*,*,#200,.T.);
#138=ORIENTED_EDGE('',*,*,#201,.F.);
#139=ORIENTED_EDGE('',*,*,#202,.F.);
#140=ORIENTED_EDGE('',*,*,#203,.T.);
#141=ORIENTED_EDGE('',*,*,#197,.T.);
#142=ORIENTED_EDGE('',*,*,#204,.T.);
#143=ORIENTED_EDGE('',*,*,#205,.F.);
#144=ORIENTED_EDGE('',*,*,#206,.F.);
#145=ORIENTED_EDGE('',*,*,#207,.F.);
#146=ORIENTED_EDGE('',*,*,#199,.F.);
#147=ORIENTED_EDGE('',*,*,#208,.F.);
#148=ORIENTED_EDGE('',*,*,#201,.T.);
#149=ORIENTED_EDGE('',*,*,#209,.F.);
#150=ORIENTED_EDGE('',*,*,#209,.T.);
#151=ORIENTED_EDGE('',*,*,#210,.F.);
#152=ORIENTED_EDGE('',*,*,#210,.T.);
#153=ORIENTED_EDGE('',*,*,#211,.F.);
#154=ORIENTED_EDGE('',*,*,#211,.T.);
#155=ORIENTED_EDGE('',*,*,#212,.F.);
#156=ORIENTED_EDGE('',*,*,#213,.F.);
#157=ORIENTED_EDGE('',*,*,#212,.T.);
#158=ORIENTED_EDGE('',*,*,#213,.T.);
#159=ORIENTED_EDGE('',*,*,#214,.T.);
#160=ORIENTED_EDGE('',*,*,#214,.F.);
#161=ORIENTED_EDGE('',*,*,#215,.T.);
#162=ORIENTED_EDGE('',*,*,#215,.F.);
#163=ORIENTED_EDGE('',*,*,#216,.T.);
#164=ORIENTED_EDGE('',*,*,#216,.F.);
#165=ORIENTED_EDGE('',*,*,#217,.T.);
#166=ORIENTED_EDGE('',*,*,#207,.T.);
#167=ORIENTED_EDGE('',*,*,#217,.F.);
#168=ORIENTED_EDGE('',*,*,#218,.F.);
#169=ORIENTED_EDGE('',*,*,#204,.F.);
#170=ORIENTED_EDGE('',*,*,#200,.F.);
#171=ORIENTED_EDGE('',*,*,#208,.T.);
#172=ORIENTED_EDGE('',*,*,#198,.F.);
#173=ORIENTED_EDGE('',*,*,#203,.F.);
#174=ORIENTED_EDGE('',*,*,#206,.T.);
#175=ORIENTED_EDGE('',*,*,#205,.T.);
#176=ORIENTED_EDGE('',*,*,#218,.T.);
#177=ORIENTED_EDGE('',*,*,#202,.T.);
#178=VERTEX_POINT('',#375);
#179=VERTEX_POINT('',#376);
#180=VERTEX_POINT('',#378);
#181=VERTEX_POINT('',#380);
#182=VERTEX_POINT('',#384);
#183=VERTEX_POINT('',#386);
#184=VERTEX_POINT('',#387);
#185=VERTEX_POINT('',#390);
#186=VERTEX_POINT('',#392);
#187=VERTEX_POINT('',#396);
#188=VERTEX_POINT('',#403);
#189=VERTEX_POINT('',#406);
#190=VERTEX_POINT('',#409);
#191=VERTEX_POINT('',#412);
#192=VERTEX_POINT('',#415);
#193=VERTEX_POINT('',#418);
#194=VERTEX_POINT('',#421);
#195=VERTEX_POINT('',#424);
#196=VERTEX_POINT('',#444);
#197=EDGE_CURVE('',#178,#179,#219,.T.);
#198=EDGE_CURVE('',#178,#180,#124,.T.);
#199=EDGE_CURVE('',#180,#181,#220,.T.);
#200=EDGE_CURVE('',#181,#179,#125,.T.);
#201=EDGE_CURVE('',#182,#182,#221,.T.);
#202=EDGE_CURVE('',#183,#184,#47,.T.);
#203=EDGE_CURVE('',#183,#178,#126,.T.);
#204=EDGE_CURVE('',#179,#185,#127,.T.);
#205=EDGE_CURVE('',#186,#185,#48,.T.);
#206=EDGE_CURVE('',#184,#186,#49,.T.);
#207=EDGE_CURVE('',#187,#187,#222,.T.);
#208=EDGE_CURVE('',#181,#180,#40,.T.);
#209=EDGE_CURVE('',#188,#188,#223,.T.);
#210=EDGE_CURVE('',#189,#189,#224,.T.);
#211=EDGE_CURVE('',#190,#190,#225,.T.);
#212=EDGE_CURVE('',#191,#191,#226,.T.);
#213=EDGE_CURVE('',#192,#192,#227,.T.);
#214=EDGE_CURVE('',#193,#193,#228,.T.);
#215=EDGE_CURVE('',#194,#194,#229,.T.);
#216=EDGE_CURVE('',#195,#195,#230,.T.);
#217=EDGE_CURVE('',#196,#196,#41,.T.);
#218=EDGE_CURVE('',#185,#183,#128,.T.);
#219=CIRCLE('',#264,8.);
#220=CIRCLE('',#265,7.);
#221=CIRCLE('',#267,8.);
#222=CIRCLE('',#272,6.);
#223=CIRCLE('',#274,9.5);
#224=CIRCLE('',#276,10.);
#225=CIRCLE('',#278,10.);
#226=CIRCLE('',#280,9.5);
#227=CIRCLE('',#282,2.5);
#228=CIRCLE('',#284,2.50000000000007);
#229=CIRCLE('',#286,5.02047799674371);
#230=CIRCLE('',#288,5.02047799674372);
#231=CURVE_STYLE('',#234,POSITIVE_LENGTH_MEASURE(0.18),#258);
#232=CURVE_STYLE('',#235,POSITIVE_LENGTH_MEASURE(0.18),#258);
#233=CURVE_STYLE('',#236,POSITIVE_LENGTH_MEASURE(0.18),#258);
#234=DRAUGHTING_PRE_DEFINED_CURVE_FONT('continuous');
#235=DRAUGHTING_PRE_DEFINED_CURVE_FONT('continuous');
#236=DRAUGHTING_PRE_DEFINED_CURVE_FONT('continuous');
#237=PRESENTATION_LAYER_ASSIGNMENT('1','Layer 1',(#368,#369,#370,#261,#262,
#263,#33));
#238=STYLED_ITEM('',(#245),#368);
#239=STYLED_ITEM('',(#246),#369);
#240=STYLED_ITEM('',(#247),#370);
#241=STYLED_ITEM('',(#248),#261);
#242=STYLED_ITEM('',(#249),#262);
#243=STYLED_ITEM('',(#250),#263);
#244=STYLED_ITEM('',(#251),#33);
#245=PRESENTATION_STYLE_ASSIGNMENT((#252));
#246=PRESENTATION_STYLE_ASSIGNMENT((#253));
#247=PRESENTATION_STYLE_ASSIGNMENT((#254));
#248=PRESENTATION_STYLE_ASSIGNMENT((#231));
#249=PRESENTATION_STYLE_ASSIGNMENT((#232));
#250=PRESENTATION_STYLE_ASSIGNMENT((#233));
#251=PRESENTATION_STYLE_ASSIGNMENT((#28));
#252=POINT_STYLE('',#255,POSITIVE_LENGTH_MEASURE(3.),#258);
#253=POINT_STYLE('',#256,POSITIVE_LENGTH_MEASURE(3.),#258);
#254=POINT_STYLE('',#257,POSITIVE_LENGTH_MEASURE(3.),#258);
#255=PRE_DEFINED_POINT_MARKER_SYMBOL('plus');
#256=PRE_DEFINED_POINT_MARKER_SYMBOL('plus');
#257=PRE_DEFINED_POINT_MARKER_SYMBOL('plus');
#258=COLOUR_RGB('Medium Maroon',0.6,0.4,0.4);
#259=COLOUR_RGB('Medium Gray',0.501960784313725,0.501960784313725,0.501960784313725);
#260=AXIS2_PLACEMENT_3D('',#367,#294,#295);
#261=AXIS2_PLACEMENT_3D('PCS',#371,#296,#297);
#262=AXIS2_PLACEMENT_3D('MCS',#372,#298,#299);
#263=AXIS2_PLACEMENT_3D('CSW',#373,#300,#301);
#264=AXIS2_PLACEMENT_3D('',#374,#302,#303);
#265=AXIS2_PLACEMENT_3D('',#379,#305,#306);
#266=AXIS2_PLACEMENT_3D('',#382,#308,#309);
#267=AXIS2_PLACEMENT_3D('',#383,#310,#311);
#268=AXIS2_PLACEMENT_3D('',#385,#312,#313);
#269=AXIS2_PLACEMENT_3D('',#391,#316,#317);
#270=AXIS2_PLACEMENT_3D('',#393,#318,#319);
#271=AXIS2_PLACEMENT_3D('',#394,#320,#321);
#272=AXIS2_PLACEMENT_3D('',#395,#322,#323);
#273=AXIS2_PLACEMENT_3D('',#401,#324,#325);
#274=AXIS2_PLACEMENT_3D('',#402,#326,#327);
#275=AXIS2_PLACEMENT_3D('',#404,#328,#329);
#276=AXIS2_PLACEMENT_3D('',#405,#330,#331);
#277=AXIS2_PLACEMENT_3D('',#407,#332,#333);
#278=AXIS2_PLACEMENT_3D('',#408,#334,#335);
#279=AXIS2_PLACEMENT_3D('',#410,#336,#337);
#280=AXIS2_PLACEMENT_3D('',#411,#338,#339);
#281=AXIS2_PLACEMENT_3D('',#413,#340,#341);
#282=AXIS2_PLACEMENT_3D('',#414,#342,#343);
#283=AXIS2_PLACEMENT_3D('',#416,#344,#345);
#284=AXIS2_PLACEMENT_3D('',#417,#346,#347);
#285=AXIS2_PLACEMENT_3D('',#419,#348,#349);
#286=AXIS2_PLACEMENT_3D('',#420,#350,#351);
#287=AXIS2_PLACEMENT_3D('',#422,#352,#353);
#288=AXIS2_PLACEMENT_3D('',#423,#354,#355);
#289=AXIS2_PLACEMENT_3D('',#425,#356,#357);
#290=AXIS2_PLACEMENT_3D('',#445,#358,#359);
#291=AXIS2_PLACEMENT_3D('',#446,#360,#361);
#292=AXIS2_PLACEMENT_3D('',#448,#363,#364);
#293=AXIS2_PLACEMENT_3D('',#449,#365,#366);
#294=DIRECTION('',(0.,0.,1.));
#295=DIRECTION('',(1.,0.,0.));
#296=DIRECTION('',(0.,0.,1.));
#297=DIRECTION('',(1.,0.,0.));
#298=DIRECTION('',(0.,0.,1.));
#299=DIRECTION('',(1.,0.,0.));
#300=DIRECTION('',(0.,0.,1.));
#301=DIRECTION('',(1.,0.,0.));
#302=DIRECTION('',(0.,0.,-1.));
#303=DIRECTION('',(1.,0.,0.));
#304=DIRECTION('',(1.,0.,0.));
#305=DIRECTION('',(0.,0.,-1.));
#306=DIRECTION('',(-1.,0.,0.));
#307=DIRECTION('',(1.,0.,0.));
#308=DIRECTION('',(0.,0.,1.));
#309=DIRECTION('',(1.,0.,0.));
#310=DIRECTION('',(0.,0.,-1.));
#311=DIRECTION('',(1.,0.,0.));
#312=DIRECTION('',(0.,-0.707106781186548,0.707106781186547));
#313=DIRECTION('',(0.,-0.707106781186547,-0.707106781186548));
#314=DIRECTION('',(0.,0.,1.));
#315=DIRECTION('',(0.,0.,-1.));
#316=DIRECTION('',(0.,-0.707106781186548,0.707106781186547));
#317=DIRECTION('',(0.,-0.707106781186547,-0.707106781186548));
#318=DIRECTION('',(0.,-0.707106781186548,0.707106781186547));
#319=DIRECTION('',(0.,-0.707106781186547,-0.707106781186548));
#320=DIRECTION('',(0.,0.,-1.));
#321=DIRECTION('',(-1.,0.,0.));
#322=DIRECTION('',(0.,0.,1.));
#323=DIRECTION('',(-1.,0.,0.));
#324=DIRECTION('',(0.,0.,1.));
#325=DIRECTION('',(1.,0.,-6.89065928888503E-17));
#326=DIRECTION('',(0.,0.,-1.));
#327=DIRECTION('',(1.,0.,0.));
#328=DIRECTION('',(0.,0.,1.));
#329=DIRECTION('',(1.,0.,0.));
#330=DIRECTION('',(0.,0.,-1.));
#331=DIRECTION('',(1.,0.,0.));
#332=DIRECTION('',(0.,0.,-1.));
#333=DIRECTION('',(-1.,0.,5.45321488735284E-17));
#334=DIRECTION('',(0.,0.,-1.));
#335=DIRECTION('',(1.,0.,0.));
#336=DIRECTION('',(0.,0.,-1.));
#337=DIRECTION('',(-1.,0.,0.));
#338=DIRECTION('',(0.,0.,-1.));
#339=DIRECTION('',(1.,0.,0.));
#340=DIRECTION('',(0.,0.,1.));
#341=DIRECTION('',(1.,0.,1.63247875401483E-17));
#342=DIRECTION('',(0.,0.,-1.));
#343=DIRECTION('',(1.,0.,0.));
#344=DIRECTION('',(0.,0.,-1.));
#345=DIRECTION('',(-1.,0.,0.));
#346=DIRECTION('',(0.,0.,1.));
#347=DIRECTION('',(1.,0.,0.));
#348=DIRECTION('',(0.,0.,-1.));
#349=DIRECTION('',(-1.,0.,0.));
#350=DIRECTION('',(0.,0.,1.));
#351=DIRECTION('',(1.,0.,0.));
#352=DIRECTION('',(0.,0.,1.));
#353=DIRECTION('',(1.,0.,4.91138989547214E-17));
#354=DIRECTION('',(0.,0.,1.));
#355=DIRECTION('',(1.,0.,0.));
#356=DIRECTION('',(0.,0.,-1.));
#357=DIRECTION('',(-1.,0.,0.));
#358=DIRECTION('',(0.,0.,1.));
#359=DIRECTION('',(1.,0.,-8.27684213870999E-17));
#360=DIRECTION('',(0.,0.,-1.));
#361=DIRECTION('',(-1.,0.,0.));
#362=DIRECTION('',(-1.,0.,0.));
#363=DIRECTION('',(0.,-1.,0.));
#364=DIRECTION('',(1.,0.,0.));
#365=DIRECTION('',(0.,-0.707106781186548,0.707106781186547));
#366=DIRECTION('',(0.,-0.707106781186547,-0.707106781186548));
#367=CARTESIAN_POINT('',(0.,0.,0.));
#368=CARTESIAN_POINT('PCS',(0.,0.,0.));
#369=CARTESIAN_POINT('MCS',(0.,0.,0.));
#370=CARTESIAN_POINT('CSW',(1.05430982812427E-13,0.,-5.));
#371=CARTESIAN_POINT('',(0.,0.,0.));
#372=CARTESIAN_POINT('',(0.,0.,0.));
#373=CARTESIAN_POINT('',(1.05430982812427E-13,0.,-5.));
#374=CARTESIAN_POINT('',(1.05430982812427E-13,0.,45.));
#375=CARTESIAN_POINT('',(-3.87667982256786,-6.9979535260885,45.));
#376=CARTESIAN_POINT('',(3.87667982256807,-6.9979535260885,45.));
#377=CARTESIAN_POINT('',(-24.9999999999999,-6.9979535260885,45.));
#378=CARTESIAN_POINT('',(-0.169252612108588,-6.9979535260885,45.));
#379=CARTESIAN_POINT('',(1.05430982812427E-13,0.,45.));
#380=CARTESIAN_POINT('',(0.169252612108654,-6.9979535260885,45.));
#381=CARTESIAN_POINT('',(-24.9999999999999,-6.9979535260885,45.));
#382=CARTESIAN_POINT('',(1.05430982812427E-13,-8.,45.));
#383=CARTESIAN_POINT('',(1.05430982812427E-13,0.,0.));
#384=CARTESIAN_POINT('',(8.00000000000011,0.,0.));
#385=CARTESIAN_POINT('',(1.05430982812427E-13,0.,14.9979535260885));
#386=CARTESIAN_POINT('',(-3.87667982256786,-6.9979535260885,8.00000000000001));
#387=CARTESIAN_POINT('',(-0.180940306533454,-7.99795352608851,7.));
#388=CARTESIAN_POINT('',(-3.87667982256786,-6.9979535260885,45.));
#389=CARTESIAN_POINT('',(3.87667982256807,-6.9979535260885,45.));
#390=CARTESIAN_POINT('',(3.87667982256806,-6.9979535260885,8.00000000000001));
#391=CARTESIAN_POINT('',(1.05430982812427E-13,0.,14.9979535260885));
#392=CARTESIAN_POINT('',(0.180940306533651,-7.99795352608851,7.));
#393=CARTESIAN_POINT('',(1.05430982812427E-13,0.,14.9979535260885));
#394=CARTESIAN_POINT('',(1.05430982812427E-13,0.,45.));
#395=CARTESIAN_POINT('',(1.05430982812427E-13,0.,44.));
#396=CARTESIAN_POINT('',(-5.99999999999989,0.,44.));
#397=CARTESIAN_POINT('',(0.169252612108654,-6.9979535260885,45.));
#398=CARTESIAN_POINT('',(0.056417537369609,-6.9979535260885,44.9972717669804));
#399=CARTESIAN_POINT('',(-0.056417537369424,-6.9979535260885,44.9972717669804));
#400=CARTESIAN_POINT('',(-0.169252612108445,-6.9979535260885,45.));
#401=CARTESIAN_POINT('',(1.05430982812427E-13,0.,45.));
#402=CARTESIAN_POINT('',(1.05430982812427E-13,0.,0.));
#403=CARTESIAN_POINT('',(9.5000000000001,0.,0.));
#404=CARTESIAN_POINT('',(1.05430982812427E-13,-9.5,0.));
#405=CARTESIAN_POINT('',(1.05430982812427E-13,0.,-0.5));
#406=CARTESIAN_POINT('',(10.0000000000001,0.,-0.5));
#407=CARTESIAN_POINT('',(1.05430982812427E-13,0.,-0.5));
#408=CARTESIAN_POINT('',(1.05430982812427E-13,0.,-4.50000000000002));
#409=CARTESIAN_POINT('',(10.0000000000001,0.,-4.50000000000002));
#410=CARTESIAN_POINT('',(1.05430982812427E-13,0.,45.));
#411=CARTESIAN_POINT('',(1.05430982812427E-13,0.,-5.00000000000002));
#412=CARTESIAN_POINT('',(9.50000000000011,0.,-5.00000000000002));
#413=CARTESIAN_POINT('',(1.05430982812427E-13,0.,-5.00000000000002));
#414=CARTESIAN_POINT('',(1.05430982812427E-13,0.,-5.));
#415=CARTESIAN_POINT('',(2.50000000000011,0.,-5.));
#416=CARTESIAN_POINT('',(1.05430982812427E-13,-2.5,-5.00000000000002));
#417=CARTESIAN_POINT('',(1.05430982812427E-13,0.,25.5));
#418=CARTESIAN_POINT('',(2.50000000000017,0.,25.5));
#419=CARTESIAN_POINT('',(1.05430982812427E-13,0.,45.));
#420=CARTESIAN_POINT('',(1.05430982812427E-13,0.,30.));
#421=CARTESIAN_POINT('',(5.02047799674382,0.,30.));
#422=CARTESIAN_POINT('',(1.05430982812427E-13,0.,30.));
#423=CARTESIAN_POINT('',(1.05430982812427E-13,0.,34.));
#424=CARTESIAN_POINT('',(5.02047799674382,0.,34.));
#425=CARTESIAN_POINT('',(1.05430982812427E-13,0.,45.));
#426=CARTESIAN_POINT('',(-1.57347689030022,-6.01023899837186,34.9897610016281));
#427=CARTESIAN_POINT('',(1.57347689030043,-6.01023899837186,34.9897610016281));
#428=CARTESIAN_POINT('',(3.13726457312901,-5.36249693147227,34.9897610016281));
#429=CARTESIAN_POINT('',(5.36249693147237,-3.13726457312891,34.9897610016282));
#430=CARTESIAN_POINT('',(6.01023899837196,-1.57347689030033,34.9897610016282));
#431=CARTESIAN_POINT('',(6.01023899837196,1.57347689030032,34.9897610016281));
#432=CARTESIAN_POINT('',(5.36249693147237,3.1372645731289,34.9897610016282));
#433=CARTESIAN_POINT('',(3.13726457312901,5.36249693147226,34.9897610016281));
#434=CARTESIAN_POINT('',(1.57347689030043,6.01023899837186,34.9897610016282));
#435=CARTESIAN_POINT('',(-1.57347689030022,6.01023899837186,34.9897610016282));
#436=CARTESIAN_POINT('',(-3.13726457312879,5.36249693147227,34.9897610016282));
#437=CARTESIAN_POINT('',(-5.36249693147216,3.13726457312891,34.9897610016282));
#438=CARTESIAN_POINT('',(-6.01023899837175,1.57347689030033,34.9897610016282));
#439=CARTESIAN_POINT('',(-6.01023899837176,-1.57347689030032,34.9897610016282));
#440=CARTESIAN_POINT('',(-5.36249693147217,-3.1372645731289,34.9897610016282));
#441=CARTESIAN_POINT('',(-3.1372645731288,-5.36249693147226,34.9897610016282));
#442=CARTESIAN_POINT('',(-1.57347689030022,-6.01023899837186,34.9897610016281));
#443=CARTESIAN_POINT('',(1.57347689030043,-6.01023899837186,34.9897610016281));
#444=CARTESIAN_POINT('',(1.04694627338366E-13,-6.00511949918593,34.9948805008141));
#445=CARTESIAN_POINT('',(1.05430982812427E-13,0.,35.));
#446=CARTESIAN_POINT('',(1.05430982812427E-13,0.,45.));
#447=CARTESIAN_POINT('',(-24.9999999999999,-6.9979535260885,8.00000000000001));
#448=CARTESIAN_POINT('',(-24.9999999999999,-6.9979535260885,45.));
#449=CARTESIAN_POINT('',(-24.9999999999999,-6.9979535260885,8.00000000000001));
#450=MECHANICAL_DESIGN_GEOMETRIC_PRESENTATION_REPRESENTATION('',(#238,#239,
#240,#241,#242,#243,#244),#451);
#451=(
GEOMETRIC_REPRESENTATION_CONTEXT(3)
GLOBAL_UNCERTAINTY_ASSIGNED_CONTEXT((#452))
GLOBAL_UNIT_ASSIGNED_CONTEXT((#458,#454,#453))
REPRESENTATION_CONTEXT('1574156606676','TOP_LEVEL_ASSEMBLY_PART')
);
#452=UNCERTAINTY_MEASURE_WITH_UNIT(LENGTH_MEASURE(0.0508),#458,
'DISTANCE_ACCURACY_VALUE','Maximum Tolerance applied to model');
#453=(
NAMED_UNIT(*)
SI_UNIT($,.STERADIAN.)
SOLID_ANGLE_UNIT()
);
#454=(
CONVERSION_BASED_UNIT('DEGREE',#456)
NAMED_UNIT(#455)
PLANE_ANGLE_UNIT()
);
#455=DIMENSIONAL_EXPONENTS(0.,0.,0.,0.,0.,0.,0.);
#456=PLANE_ANGLE_MEASURE_WITH_UNIT(PLANE_ANGLE_MEASURE(0.0174532925),#457);
#457=(
NAMED_UNIT(*)
PLANE_ANGLE_UNIT()
SI_UNIT($,.RADIAN.)
);
#458=(
LENGTH_UNIT()
NAMED_UNIT(*)
SI_UNIT(.MILLI.,.METRE.)
);
ENDSEC;
END-ISO-10303-21;
