ISO-10303-21;
HEADER;
/* Generated by software containing ST-Developer
 * from STEP Tools, Inc. (www.steptools.com) 
 */
/* OPTION: using custom schema-name function */

FILE_DESCRIPTION(
/* description */ (''),
/* implementation_level */ '2;1');

FILE_NAME(
/* name */ 'aaa325130_c.stp',
/* time_stamp */ '2020-06-10T15:46:52+02:00',
/* author */ (''),
/* organization */ ('SMS'),
/* preprocessor_version */ 'ST-DEVELOPER v16.7',
/* originating_system */ 'SIEMENS PLM Software NX 12.0',
/* authorisation */ '');

FILE_SCHEMA (('AUTOMOTIVE_DESIGN { 1 0 10303 214 3 1 1 1 }'));
ENDSEC;

DATA;
#10=CONSTRUCTIVE_GEOMETRY_REPRESENTATION_RELATIONSHIP(
'supplemental geometry','',#26,#11);
#11=CONSTRUCTIVE_GEOMETRY_REPRESENTATION('supplemental geometry',(#295,
#296),#539);
#12=GEOMETRICALLY_BOUNDED_WIREFRAME_SHAPE_REPRESENTATION(
'AAA325130_C-None',(#27),#539);
#13=SHAPE_REPRESENTATION_RELATIONSHIP('None',
'relationship between AAA325130_C-None and AAA325130_C-None',#26,#15);
#14=SHAPE_REPRESENTATION_RELATIONSHIP('None',
'relationship between AAA325130_C-None and AAA325130_C-None',#26,#12);
#15=ADVANCED_BREP_SHAPE_REPRESENTATION('AAA325130_C-None',(#33),#539);
#16=SHAPE_DEFINITION_REPRESENTATION(#17,#26);
#17=PRODUCT_DEFINITION_SHAPE('','',#18);
#18=PRODUCT_DEFINITION(' ','',#20,#19);
#19=PRODUCT_DEFINITION_CONTEXT('part definition',#25,'design');
#20=PRODUCT_DEFINITION_FORMATION_WITH_SPECIFIED_SOURCE(' ',' ',#22,
 .NOT_KNOWN.);
#21=PRODUCT_RELATED_PRODUCT_CATEGORY('part','',(#22));
#22=PRODUCT('AAA325130_C','AAA325130_C',' ',(#23));
#23=PRODUCT_CONTEXT(' ',#25,'mechanical');
#24=APPLICATION_PROTOCOL_DEFINITION('international standard',
'automotive_design',2010,#25);
#25=APPLICATION_CONTEXT(
'core data for automotive mechanical design processes');
#26=SHAPE_REPRESENTATION('AAA325130_C-None',(#294),#539);
#27=GEOMETRIC_CURVE_SET('None',(#407,#408,#274));
#28=SURFACE_STYLE_USAGE(.BOTH.,#29);
#29=SURFACE_SIDE_STYLE('',(#30));
#30=SURFACE_STYLE_FILL_AREA(#31);
#31=FILL_AREA_STYLE('',(#32));
#32=FILL_AREA_STYLE_COLOUR('',#293);
#33=MANIFOLD_SOLID_BREP('CUT',#34);
#34=CLOSED_SHELL('',(#72,#73,#74,#75,#76,#77,#78,#79,#80,#81,#82,#83,#84,
#85,#86));
#35=CONICAL_SURFACE('',#320,1.89125681904667,3.99999999999639);
#36=TOROIDAL_SURFACE('',#318,2.39003884417658,0.5);
#37=TOROIDAL_SURFACE('',#322,1.36258364505194,0.5);
#38=TOROIDAL_SURFACE('',#324,3.1,1.7);
#39=CYLINDRICAL_SURFACE('',#313,0.8);
#40=CYLINDRICAL_SURFACE('',#314,0.8);
#41=CYLINDRICAL_SURFACE('',#315,0.8);
#42=CYLINDRICAL_SURFACE('',#316,0.8);
#43=CYLINDRICAL_SURFACE('',#325,1.4);
#44=ELLIPSE('',#302,0.829676528451304,0.8);
#45=ELLIPSE('',#303,0.829676528451304,0.8);
#46=ELLIPSE('',#304,0.829676528451304,0.8);
#47=ELLIPSE('',#305,0.829676528451304,0.8);
#48=ELLIPSE('',#308,0.829676528451304,0.8);
#49=ELLIPSE('',#309,0.829676528451304,0.8);
#50=ELLIPSE('',#310,0.829676528451304,0.8);
#51=ELLIPSE('',#311,0.829676528451304,0.8);
#52=FACE_BOUND('',#105,.T.);
#53=FACE_BOUND('',#106,.T.);
#54=FACE_BOUND('',#107,.T.);
#55=FACE_BOUND('',#108,.T.);
#56=FACE_BOUND('',#113,.T.);
#57=FACE_BOUND('',#114,.T.);
#58=FACE_BOUND('',#115,.T.);
#59=FACE_BOUND('',#116,.T.);
#60=FACE_BOUND('',#117,.T.);
#61=FACE_BOUND('',#118,.T.);
#62=FACE_BOUND('',#119,.T.);
#63=FACE_BOUND('',#120,.T.);
#64=FACE_BOUND('',#121,.T.);
#65=FACE_BOUND('',#122,.T.);
#66=CIRCLE('',#301,1.4);
#67=CIRCLE('',#307,2.05918191509742);
#68=CIRCLE('',#317,1.89125681904667);
#69=CIRCLE('',#319,1.86136567018186);
#70=CIRCLE('',#321,1.75745099844923);
#71=CIRCLE('',#323,1.4);
#72=ADVANCED_FACE('',(#93),#87,.T.);
#73=ADVANCED_FACE('',(#94),#88,.T.);
#74=ADVANCED_FACE('',(#95),#89,.T.);
#75=ADVANCED_FACE('',(#96),#90,.T.);
#76=ADVANCED_FACE('',(#52,#53),#91,.T.);
#77=ADVANCED_FACE('',(#54,#55),#92,.F.);
#78=ADVANCED_FACE('',(#97),#39,.T.);
#79=ADVANCED_FACE('',(#98),#40,.T.);
#80=ADVANCED_FACE('',(#99),#41,.T.);
#81=ADVANCED_FACE('',(#100),#42,.T.);
#82=ADVANCED_FACE('',(#56,#57),#36,.T.);
#83=ADVANCED_FACE('',(#58,#59),#35,.F.);
#84=ADVANCED_FACE('',(#60,#61),#37,.F.);
#85=ADVANCED_FACE('',(#62,#63),#38,.T.);
#86=ADVANCED_FACE('',(#64,#65),#43,.F.);
#87=PLANE('',#297);
#88=PLANE('',#298);
#89=PLANE('',#299);
#90=PLANE('',#300);
#91=PLANE('',#306);
#92=PLANE('',#312);
#93=FACE_OUTER_BOUND('',#101,.T.);
#94=FACE_OUTER_BOUND('',#102,.T.);
#95=FACE_OUTER_BOUND('',#103,.T.);
#96=FACE_OUTER_BOUND('',#104,.T.);
#97=FACE_OUTER_BOUND('',#109,.T.);
#98=FACE_OUTER_BOUND('',#110,.T.);
#99=FACE_OUTER_BOUND('',#111,.T.);
#100=FACE_OUTER_BOUND('',#112,.T.);
#101=EDGE_LOOP('',(#123,#124,#125,#126));
#102=EDGE_LOOP('',(#127,#128,#129,#130));
#103=EDGE_LOOP('',(#131,#132,#133,#134));
#104=EDGE_LOOP('',(#135,#136,#137,#138));
#105=EDGE_LOOP('',(#139));
#106=EDGE_LOOP('',(#140,#141,#142,#143,#144,#145,#146,#147));
#107=EDGE_LOOP('',(#148));
#108=EDGE_LOOP('',(#149,#150,#151,#152,#153,#154,#155,#156));
#109=EDGE_LOOP('',(#157,#158,#159,#160));
#110=EDGE_LOOP('',(#161,#162,#163,#164));
#111=EDGE_LOOP('',(#165,#166,#167,#168));
#112=EDGE_LOOP('',(#169,#170,#171,#172));
#113=EDGE_LOOP('',(#173));
#114=EDGE_LOOP('',(#174));
#115=EDGE_LOOP('',(#175));
#116=EDGE_LOOP('',(#176));
#117=EDGE_LOOP('',(#177));
#118=EDGE_LOOP('',(#178));
#119=EDGE_LOOP('',(#179));
#120=EDGE_LOOP('',(#180));
#121=EDGE_LOOP('',(#181));
#122=EDGE_LOOP('',(#182));
#123=ORIENTED_EDGE('',*,*,#205,.F.);
#124=ORIENTED_EDGE('',*,*,#206,.T.);
#125=ORIENTED_EDGE('',*,*,#207,.T.);
#126=ORIENTED_EDGE('',*,*,#208,.T.);
#127=ORIENTED_EDGE('',*,*,#209,.T.);
#128=ORIENTED_EDGE('',*,*,#210,.T.);
#129=ORIENTED_EDGE('',*,*,#211,.F.);
#130=ORIENTED_EDGE('',*,*,#212,.T.);
#131=ORIENTED_EDGE('',*,*,#213,.T.);
#132=ORIENTED_EDGE('',*,*,#214,.T.);
#133=ORIENTED_EDGE('',*,*,#215,.F.);
#134=ORIENTED_EDGE('',*,*,#216,.T.);
#135=ORIENTED_EDGE('',*,*,#217,.F.);
#136=ORIENTED_EDGE('',*,*,#218,.T.);
#137=ORIENTED_EDGE('',*,*,#219,.T.);
#138=ORIENTED_EDGE('',*,*,#220,.T.);
#139=ORIENTED_EDGE('',*,*,#221,.F.);
#140=ORIENTED_EDGE('',*,*,#215,.T.);
#141=ORIENTED_EDGE('',*,*,#222,.T.);
#142=ORIENTED_EDGE('',*,*,#217,.T.);
#143=ORIENTED_EDGE('',*,*,#223,.T.);
#144=ORIENTED_EDGE('',*,*,#205,.T.);
#145=ORIENTED_EDGE('',*,*,#224,.T.);
#146=ORIENTED_EDGE('',*,*,#211,.T.);
#147=ORIENTED_EDGE('',*,*,#225,.T.);
#148=ORIENTED_EDGE('',*,*,#226,.T.);
#149=ORIENTED_EDGE('',*,*,#219,.F.);
#150=ORIENTED_EDGE('',*,*,#227,.T.);
#151=ORIENTED_EDGE('',*,*,#213,.F.);
#152=ORIENTED_EDGE('',*,*,#228,.T.);
#153=ORIENTED_EDGE('',*,*,#209,.F.);
#154=ORIENTED_EDGE('',*,*,#229,.T.);
#155=ORIENTED_EDGE('',*,*,#207,.F.);
#156=ORIENTED_EDGE('',*,*,#230,.T.);
#157=ORIENTED_EDGE('',*,*,#222,.F.);
#158=ORIENTED_EDGE('',*,*,#214,.F.);
#159=ORIENTED_EDGE('',*,*,#227,.F.);
#160=ORIENTED_EDGE('',*,*,#218,.F.);
#161=ORIENTED_EDGE('',*,*,#225,.F.);
#162=ORIENTED_EDGE('',*,*,#210,.F.);
#163=ORIENTED_EDGE('',*,*,#228,.F.);
#164=ORIENTED_EDGE('',*,*,#216,.F.);
#165=ORIENTED_EDGE('',*,*,#223,.F.);
#166=ORIENTED_EDGE('',*,*,#220,.F.);
#167=ORIENTED_EDGE('',*,*,#230,.F.);
#168=ORIENTED_EDGE('',*,*,#206,.F.);
#169=ORIENTED_EDGE('',*,*,#224,.F.);
#170=ORIENTED_EDGE('',*,*,#208,.F.);
#171=ORIENTED_EDGE('',*,*,#229,.F.);
#172=ORIENTED_EDGE('',*,*,#212,.F.);
#173=ORIENTED_EDGE('',*,*,#231,.T.);
#174=ORIENTED_EDGE('',*,*,#226,.F.);
#175=ORIENTED_EDGE('',*,*,#232,.T.);
#176=ORIENTED_EDGE('',*,*,#231,.F.);
#177=ORIENTED_EDGE('',*,*,#233,.T.);
#178=ORIENTED_EDGE('',*,*,#232,.F.);
#179=ORIENTED_EDGE('',*,*,#234,.T.);
#180=ORIENTED_EDGE('',*,*,#233,.F.);
#181=ORIENTED_EDGE('',*,*,#221,.T.);
#182=ORIENTED_EDGE('',*,*,#234,.F.);
#183=VERTEX_POINT('',#472);
#184=VERTEX_POINT('',#473);
#185=VERTEX_POINT('',#475);
#186=VERTEX_POINT('',#477);
#187=VERTEX_POINT('',#481);
#188=VERTEX_POINT('',#482);
#189=VERTEX_POINT('',#484);
#190=VERTEX_POINT('',#486);
#191=VERTEX_POINT('',#490);
#192=VERTEX_POINT('',#491);
#193=VERTEX_POINT('',#493);
#194=VERTEX_POINT('',#495);
#195=VERTEX_POINT('',#499);
#196=VERTEX_POINT('',#500);
#197=VERTEX_POINT('',#502);
#198=VERTEX_POINT('',#504);
#199=VERTEX_POINT('',#508);
#200=VERTEX_POINT('',#515);
#201=VERTEX_POINT('',#526);
#202=VERTEX_POINT('',#529);
#203=VERTEX_POINT('',#532);
#204=VERTEX_POINT('',#535);
#205=EDGE_CURVE('',#183,#184,#235,.T.);
#206=EDGE_CURVE('',#183,#185,#236,.T.);
#207=EDGE_CURVE('',#185,#186,#237,.T.);
#208=EDGE_CURVE('',#186,#184,#238,.T.);
#209=EDGE_CURVE('',#187,#188,#239,.T.);
#210=EDGE_CURVE('',#188,#189,#240,.T.);
#211=EDGE_CURVE('',#190,#189,#241,.T.);
#212=EDGE_CURVE('',#190,#187,#242,.T.);
#213=EDGE_CURVE('',#191,#192,#243,.T.);
#214=EDGE_CURVE('',#192,#193,#244,.T.);
#215=EDGE_CURVE('',#194,#193,#245,.T.);
#216=EDGE_CURVE('',#194,#191,#246,.T.);
#217=EDGE_CURVE('',#195,#196,#247,.T.);
#218=EDGE_CURVE('',#195,#197,#248,.T.);
#219=EDGE_CURVE('',#197,#198,#249,.T.);
#220=EDGE_CURVE('',#198,#196,#250,.T.);
#221=EDGE_CURVE('',#199,#199,#66,.T.);
#222=EDGE_CURVE('',#193,#195,#44,.T.);
#223=EDGE_CURVE('',#196,#183,#45,.T.);
#224=EDGE_CURVE('',#184,#190,#46,.T.);
#225=EDGE_CURVE('',#189,#194,#47,.T.);
#226=EDGE_CURVE('',#200,#200,#67,.T.);
#227=EDGE_CURVE('',#197,#192,#48,.T.);
#228=EDGE_CURVE('',#191,#188,#49,.T.);
#229=EDGE_CURVE('',#187,#186,#50,.T.);
#230=EDGE_CURVE('',#185,#198,#51,.T.);
#231=EDGE_CURVE('',#201,#201,#68,.T.);
#232=EDGE_CURVE('',#202,#202,#69,.T.);
#233=EDGE_CURVE('',#203,#203,#70,.T.);
#234=EDGE_CURVE('',#204,#204,#71,.T.);
#235=LINE('',#471,#251);
#236=LINE('',#474,#252);
#237=LINE('',#476,#253);
#238=LINE('',#478,#254);
#239=LINE('',#480,#255);
#240=LINE('',#483,#256);
#241=LINE('',#485,#257);
#242=LINE('',#487,#258);
#243=LINE('',#489,#259);
#244=LINE('',#492,#260);
#245=LINE('',#494,#261);
#246=LINE('',#496,#262);
#247=LINE('',#498,#263);
#248=LINE('',#501,#264);
#249=LINE('',#503,#265);
#250=LINE('',#505,#266);
#251=VECTOR('',#332,1.);
#252=VECTOR('',#333,1.);
#253=VECTOR('',#334,1.);
#254=VECTOR('',#335,1.);
#255=VECTOR('',#338,1.);
#256=VECTOR('',#339,1.);
#257=VECTOR('',#340,1.);
#258=VECTOR('',#341,1.);
#259=VECTOR('',#344,1.);
#260=VECTOR('',#345,1.);
#261=VECTOR('',#346,1.);
#262=VECTOR('',#347,1.);
#263=VECTOR('',#350,1.);
#264=VECTOR('',#351,1.);
#265=VECTOR('',#352,1.);
#266=VECTOR('',#353,1.);
#267=CURVE_STYLE('',#271,POSITIVE_LENGTH_MEASURE(0.25),#270);
#268=CURVE_STYLE('',#272,POSITIVE_LENGTH_MEASURE(0.18),#292);
#269=CURVE_STYLE('',#273,POSITIVE_LENGTH_MEASURE(0.18),#292);
#270=DRAUGHTING_PRE_DEFINED_COLOUR('blue');
#271=DRAUGHTING_PRE_DEFINED_CURVE_FONT('continuous');
#272=DRAUGHTING_PRE_DEFINED_CURVE_FONT('continuous');
#273=DRAUGHTING_PRE_DEFINED_CURVE_FONT('continuous');
#274=B_SPLINE_CURVE_WITH_KNOTS('CUTTING EDGE LINE',3,(#409,#410,#411,#412,
#413,#414,#415,#416,#417,#418,#419,#420,#421,#422,#423,#424,#425,#426,#427,
#428,#429,#430,#431,#432,#433,#434,#435,#436,#437,#438,#439,#440,#441,#442,
#443,#444,#445,#446,#447,#448,#449,#450,#451,#452,#453,#454,#455,#456,#457,
#458,#459,#460,#461,#462,#463,#464,#465,#466,#467,#468),.UNSPECIFIED.,.T.,
 .F.,(1,1,2,1,1,1,1,1,1,1,1,1,1,1,1,1,1,1,1,1,1,1,1,1,1,1,1,1,1,1,1,1,1,
1,1,1,1,1,1,1,1,1,1,1,1,1,1,1,1,1,1,1,1,1,1,1,1,1,1,2,1,1),(-0.0109302500749999,
-0.00546512503749996,0.,0.10313949985,0.204989755951875,0.2062789997,0.20901156221875,
0.2117441247375,0.217209249775,0.2226743748125,0.22813949985,0.2336046248875,
0.239069749925,0.2445348749625,0.24726743748125,0.25,0.251289243748125,
0.301569749925,0.35313949985,0.454989755951875,0.4562789997,0.45901156221875,
0.4617441247375,0.467209249775,0.4726743748125,0.47813949985,0.4836046248875,
0.489069749925,0.4945348749625,0.49726743748125,0.5,0.501289243748125,0.551569749925,
0.60313949985,0.704989755951875,0.7062789997,0.70901156221875,0.7117441247375,
0.717209249775,0.7226743748125,0.72813949985,0.7336046248875,0.739069749925,
0.7445348749625,0.74726743748125,0.75,0.751289243748125,0.801569749925,
0.85313949985,0.954989755951875,0.9562789997,0.95901156221875,0.9617441247375,
0.967209249775,0.9726743748125,0.97813949985,0.9836046248875,0.989069749925,
0.9945348749625,1.,1.10313949985,1.20498975595187),.UNSPECIFIED.);
#275=PRESENTATION_LAYER_ASSIGNMENT('1','Layer 1',(#407,#408,#274,#295,#296,
#33));
#276=STYLED_ITEM('',(#282),#407);
#277=STYLED_ITEM('',(#283),#408);
#278=STYLED_ITEM('',(#284),#274);
#279=STYLED_ITEM('',(#285),#295);
#280=STYLED_ITEM('',(#286),#296);
#281=STYLED_ITEM('',(#287),#33);
#282=PRESENTATION_STYLE_ASSIGNMENT((#288));
#283=PRESENTATION_STYLE_ASSIGNMENT((#289));
#284=PRESENTATION_STYLE_ASSIGNMENT((#267));
#285=PRESENTATION_STYLE_ASSIGNMENT((#268));
#286=PRESENTATION_STYLE_ASSIGNMENT((#269));
#287=PRESENTATION_STYLE_ASSIGNMENT((#28));
#288=POINT_STYLE('',#290,POSITIVE_LENGTH_MEASURE(3.),#292);
#289=POINT_STYLE('',#291,POSITIVE_LENGTH_MEASURE(3.),#292);
#290=PRE_DEFINED_POINT_MARKER_SYMBOL('plus');
#291=PRE_DEFINED_POINT_MARKER_SYMBOL('plus');
#292=COLOUR_RGB('Medium Maroon',0.6,0.4,0.4);
#293=COLOUR_RGB('Light Gray',0.8,0.8,0.8);
#294=AXIS2_PLACEMENT_3D('',#406,#326,#327);
#295=AXIS2_PLACEMENT_3D('MCS',#469,#328,#329);
#296=AXIS2_PLACEMENT_3D('PCS',#470,#330,#331);
#297=AXIS2_PLACEMENT_3D('',#479,#336,#337);
#298=AXIS2_PLACEMENT_3D('',#488,#342,#343);
#299=AXIS2_PLACEMENT_3D('',#497,#348,#349);
#300=AXIS2_PLACEMENT_3D('',#506,#354,#355);
#301=AXIS2_PLACEMENT_3D('',#507,#356,#357);
#302=AXIS2_PLACEMENT_3D('',#509,#358,#359);
#303=AXIS2_PLACEMENT_3D('',#510,#360,#361);
#304=AXIS2_PLACEMENT_3D('',#511,#362,#363);
#305=AXIS2_PLACEMENT_3D('',#512,#364,#365);
#306=AXIS2_PLACEMENT_3D('',#513,#366,#367);
#307=AXIS2_PLACEMENT_3D('',#514,#368,#369);
#308=AXIS2_PLACEMENT_3D('',#516,#370,#371);
#309=AXIS2_PLACEMENT_3D('',#517,#372,#373);
#310=AXIS2_PLACEMENT_3D('',#518,#374,#375);
#311=AXIS2_PLACEMENT_3D('',#519,#376,#377);
#312=AXIS2_PLACEMENT_3D('',#520,#378,#379);
#313=AXIS2_PLACEMENT_3D('',#521,#380,#381);
#314=AXIS2_PLACEMENT_3D('',#522,#382,#383);
#315=AXIS2_PLACEMENT_3D('',#523,#384,#385);
#316=AXIS2_PLACEMENT_3D('',#524,#386,#387);
#317=AXIS2_PLACEMENT_3D('',#525,#388,#389);
#318=AXIS2_PLACEMENT_3D('',#527,#390,#391);
#319=AXIS2_PLACEMENT_3D('',#528,#392,#393);
#320=AXIS2_PLACEMENT_3D('',#530,#394,#395);
#321=AXIS2_PLACEMENT_3D('',#531,#396,#397);
#322=AXIS2_PLACEMENT_3D('',#533,#398,#399);
#323=AXIS2_PLACEMENT_3D('',#534,#400,#401);
#324=AXIS2_PLACEMENT_3D('',#536,#402,#403);
#325=AXIS2_PLACEMENT_3D('',#537,#404,#405);
#326=DIRECTION('',(0.,0.,1.));
#327=DIRECTION('',(1.,0.,0.));
#328=DIRECTION('',(0.,0.,1.));
#329=DIRECTION('',(1.,0.,0.));
#330=DIRECTION('',(0.,0.,1.));
#331=DIRECTION('',(1.,0.,0.));
#332=DIRECTION('',(-2.75445957334155E-15,-1.,0.));
#333=DIRECTION('',(0.187427559991896,0.187427559991895,0.964231206459824));
#334=DIRECTION('',(-2.75445957334155E-15,-1.,0.));
#335=DIRECTION('',(-0.187427559991895,0.187427559991896,-0.964231206459825));
#336=DIRECTION('',(0.981627183447664,-2.70385239289972E-15,-0.190808995376545));
#337=DIRECTION('',(-0.190808995376545,0.,-0.981627183447664));
#338=DIRECTION('',(-1.,3.63354241589737E-15,0.));
#339=DIRECTION('',(0.187427559991896,0.187427559991895,-0.964231206459825));
#340=DIRECTION('',(-1.,3.63354241589737E-15,0.));
#341=DIRECTION('',(0.187427559991895,-0.187427559991896,0.964231206459825));
#342=DIRECTION('',(-3.56678400765495E-15,-0.981627183447664,-0.190808995376545));
#343=DIRECTION('',(0.,0.190808995376545,-0.981627183447664));
#344=DIRECTION('',(1.58234911660047E-15,1.,0.));
#345=DIRECTION('',(0.187427559991896,-0.187427559991896,-0.964231206459825));
#346=DIRECTION('',(1.58234911660047E-15,1.,0.));
#347=DIRECTION('',(-0.187427559991896,-0.187427559991895,0.964231206459825));
#348=DIRECTION('',(-0.981627183447664,1.55327690655942E-15,-0.190808995376545));
#349=DIRECTION('',(-0.190808995376545,0.,0.981627183447664));
#350=DIRECTION('',(1.,-2.63724852766744E-15,0.));
#351=DIRECTION('',(-0.187427559991895,0.187427559991896,0.964231206459824));
#352=DIRECTION('',(1.,-2.63724852766744E-15,0.));
#353=DIRECTION('',(-0.187427559991896,-0.187427559991895,-0.964231206459825));
#354=DIRECTION('',(2.58879484426569E-15,0.981627183447664,-0.190808995376545));
#355=DIRECTION('',(0.,0.190808995376545,0.981627183447664));
#356=DIRECTION('',(0.,0.,-1.));
#357=DIRECTION('',(-1.,0.,0.));
#358=DIRECTION('',(0.,0.,-1.));
#359=DIRECTION('',(-0.707106781186546,0.707106781186549,0.));
#360=DIRECTION('',(0.,0.,-1.));
#361=DIRECTION('',(0.707106781186549,0.707106781186546,0.));
#362=DIRECTION('',(0.,0.,-1.));
#363=DIRECTION('',(0.707106781186545,-0.70710678118655,0.));
#364=DIRECTION('',(0.,0.,-1.));
#365=DIRECTION('',(-0.707106781186549,-0.707106781186546,0.));
#366=DIRECTION('',(0.,0.,-1.));
#367=DIRECTION('',(-1.,0.,0.));
#368=DIRECTION('',(0.,0.,-1.));
#369=DIRECTION('',(1.,0.,0.));
#370=DIRECTION('',(0.,0.,1.));
#371=DIRECTION('',(-0.707106781186546,0.707106781186549,0.));
#372=DIRECTION('',(0.,0.,1.));
#373=DIRECTION('',(-0.707106781186549,-0.707106781186546,0.));
#374=DIRECTION('',(0.,0.,1.));
#375=DIRECTION('',(0.707106781186545,-0.70710678118655,0.));
#376=DIRECTION('',(0.,0.,1.));
#377=DIRECTION('',(0.707106781186549,0.707106781186546,0.));
#378=DIRECTION('',(0.,0.,-1.));
#379=DIRECTION('',(-1.,0.,0.));
#380=DIRECTION('',(-0.187427559991896,0.187427559991896,0.964231206459825));
#381=DIRECTION('',(0.,-0.981627183447664,0.190808995376545));
#382=DIRECTION('',(-0.187427559991896,-0.187427559991895,0.964231206459825));
#383=DIRECTION('',(0.981627183447664,0.,0.190808995376545));
#384=DIRECTION('',(0.187427559991896,0.187427559991895,0.964231206459825));
#385=DIRECTION('',(0.981627183447664,0.,-0.190808995376545));
#386=DIRECTION('',(0.187427559991895,-0.187427559991896,0.964231206459825));
#387=DIRECTION('',(0.,-0.981627183447664,-0.190808995376545));
#388=DIRECTION('',(0.,0.,-1.));
#389=DIRECTION('',(1.,0.,0.));
#390=DIRECTION('',(0.,0.,1.));
#391=DIRECTION('',(1.,0.,0.));
#392=DIRECTION('',(0.,0.,-1.));
#393=DIRECTION('',(1.,0.,0.));
#394=DIRECTION('',(0.,0.,1.));
#395=DIRECTION('',(1.,0.,-9.66176621492638E-17));
#396=DIRECTION('',(0.,0.,-1.));
#397=DIRECTION('',(1.,0.,0.));
#398=DIRECTION('',(0.,0.,1.));
#399=DIRECTION('',(1.,0.,0.));
#400=DIRECTION('',(0.,0.,-1.));
#401=DIRECTION('',(1.,0.,0.));
#402=DIRECTION('',(0.,0.,1.));
#403=DIRECTION('',(1.,0.,0.));
#404=DIRECTION('',(0.,0.,1.));
#405=DIRECTION('',(1.,0.,0.));
#406=CARTESIAN_POINT('',(0.,0.,0.));
#407=CARTESIAN_POINT('',(0.,0.,0.));
#408=CARTESIAN_POINT('',(-3.70000000000001,-3.69999999999999,0.));
#409=CARTESIAN_POINT('',(-2.96617930698873,-3.69999999999999,0.));
#410=CARTESIAN_POINT('',(-1.94313216882792,-3.69999999999999,0.));
#411=CARTESIAN_POINT('',(-0.0121445760551842,-3.7,0.));
#412=CARTESIAN_POINT('',(1.93098759277273,-3.70000000000001,0.));
#413=CARTESIAN_POINT('',(2.92829394013686,-3.70028896011878,0.));
#414=CARTESIAN_POINT('',(2.99192207136104,-3.69755018679402,0.));
#415=CARTESIAN_POINT('',(3.09394478048941,-3.68284058601008,0.));
#416=CARTESIAN_POINT('',(3.21791686054643,-3.64603978018018,0.));
#417=CARTESIAN_POINT('',(3.35517254571964,-3.5735841721614,0.));
#418=CARTESIAN_POINT('',(3.47535563582701,-3.47535563572267,0.));
#419=CARTESIAN_POINT('',(3.57358417217736,-3.3551725456836,0.));
#420=CARTESIAN_POINT('',(3.64603978018626,-3.217916860522,0.));
#421=CARTESIAN_POINT('',(3.68284058599912,-3.0939447805437,0.));
#422=CARTESIAN_POINT('',(3.69755018679042,-2.99192207137856,0.));
#423=CARTESIAN_POINT('',(3.70028896011919,-2.92829394013482,0.));
#424=CARTESIAN_POINT('',(3.69999999999999,-2.41677063497973,0.));
#425=CARTESIAN_POINT('',(3.7,-1.44520455056577,0.));
#426=CARTESIAN_POINT('',(3.7,0.473638466151792,0.));
#427=CARTESIAN_POINT('',(3.70000000000001,1.93098759277273,0.));
#428=CARTESIAN_POINT('',(3.70028896011878,2.92829394013686,0.));
#429=CARTESIAN_POINT('',(3.69755018679402,2.99192207136104,0.));
#430=CARTESIAN_POINT('',(3.68284058601008,3.09394478048941,0.));
#431=CARTESIAN_POINT('',(3.64603978018018,3.21791686054642,0.));
#432=CARTESIAN_POINT('',(3.5735841721614,3.35517254571964,0.));
#433=CARTESIAN_POINT('',(3.47535563572267,3.47535563582701,0.));
#434=CARTESIAN_POINT('',(3.3551725456836,3.57358417217736,0.));
#435=CARTESIAN_POINT('',(3.217916860522,3.64603978018626,0.));
#436=CARTESIAN_POINT('',(3.0939447805437,3.68284058599912,0.));
#437=CARTESIAN_POINT('',(2.99192207137856,3.69755018679042,0.));
#438=CARTESIAN_POINT('',(2.92829394013481,3.70028896011919,0.));
#439=CARTESIAN_POINT('',(2.41677063497973,3.69999999999999,0.));
#440=CARTESIAN_POINT('',(1.44520455056577,3.7,0.));
#441=CARTESIAN_POINT('',(-0.473638466151796,3.7,0.));
#442=CARTESIAN_POINT('',(-1.93098759277273,3.70000000000001,0.));
#443=CARTESIAN_POINT('',(-2.92829394013686,3.70028896011878,0.));
#444=CARTESIAN_POINT('',(-2.99192207136104,3.69755018679402,0.));
#445=CARTESIAN_POINT('',(-3.09394478048855,3.68284058601084,0.));
#446=CARTESIAN_POINT('',(-3.21791686054121,3.64603978018475,0.));
#447=CARTESIAN_POINT('',(-3.35517254574051,3.57358417214314,0.));
#448=CARTESIAN_POINT('',(-3.47535563575855,3.47535563579113,0.));
#449=CARTESIAN_POINT('',(-3.57358417219562,3.35517254566273,0.));
#450=CARTESIAN_POINT('',(-3.6460397801817,3.21791686052721,0.));
#451=CARTESIAN_POINT('',(-3.68284058599836,3.09394478054457,0.));
#452=CARTESIAN_POINT('',(-3.69755018679042,2.99192207137856,0.));
#453=CARTESIAN_POINT('',(-3.70028896011919,2.92829394013481,0.));
#454=CARTESIAN_POINT('',(-3.7,2.41677063497973,0.));
#455=CARTESIAN_POINT('',(-3.7,1.44520455056577,0.));
#456=CARTESIAN_POINT('',(-3.7,-0.473638466151792,0.));
#457=CARTESIAN_POINT('',(-3.7,-1.93098759277273,0.));
#458=CARTESIAN_POINT('',(-3.70028896011878,-2.92829394013685,0.));
#459=CARTESIAN_POINT('',(-3.69755018679402,-2.99192207136103,0.));
#460=CARTESIAN_POINT('',(-3.68284058601008,-3.09394478048941,0.));
#461=CARTESIAN_POINT('',(-3.64603978018018,-3.21791686054642,0.));
#462=CARTESIAN_POINT('',(-3.5735841721614,-3.35517254571964,0.));
#463=CARTESIAN_POINT('',(-3.47535563572267,-3.475355635827,0.));
#464=CARTESIAN_POINT('',(-3.3551725456836,-3.57358417217736,0.));
#465=CARTESIAN_POINT('',(-3.217916860522,-3.64603978018626,0.));
#466=CARTESIAN_POINT('',(-3.06915036454804,-3.69020074716169,0.));
#467=CARTESIAN_POINT('',(-2.96617930698873,-3.69999999999999,0.));
#468=CARTESIAN_POINT('',(-1.94313216882792,-3.69999999999999,0.));
#469=CARTESIAN_POINT('',(0.,0.,0.));
#470=CARTESIAN_POINT('',(-3.70000000000001,-3.69999999999999,0.));
#471=CARTESIAN_POINT('',(3.1557351344144,3.69999999999999,-2.8));
#472=CARTESIAN_POINT('',(3.1557351344144,2.37043338765625,-2.8));
#473=CARTESIAN_POINT('',(3.15573513441438,-2.37043338765627,-2.8));
#474=CARTESIAN_POINT('',(3.72758693593105,2.9422851891729,0.141922482032359));
#475=CARTESIAN_POINT('',(3.70000000000001,2.91469825324186,0.));
#476=CARTESIAN_POINT('',(3.70000000000001,3.69999999999999,0.));
#477=CARTESIAN_POINT('',(3.69999999999999,-2.91469825324188,0.));
#478=CARTESIAN_POINT('',(3.46763166812162,-2.68232992136351,-1.19543143494921));
#479=CARTESIAN_POINT('',(3.70000000000001,3.69999999999999,0.));
#480=CARTESIAN_POINT('',(3.69999999999998,-3.70000000000001,0.));
#481=CARTESIAN_POINT('',(2.91469825324186,-3.70000000000001,0.));
#482=CARTESIAN_POINT('',(-2.91469825324188,-3.69999999999999,0.));
#483=CARTESIAN_POINT('',(-2.6823299213635,-3.46763166812162,-1.19543143494921));
#484=CARTESIAN_POINT('',(-2.37043338765627,-3.15573513441438,-2.8));
#485=CARTESIAN_POINT('',(3.69999999999999,-3.1557351344144,-2.8));
#486=CARTESIAN_POINT('',(2.37043338765625,-3.1557351344144,-2.8));
#487=CARTESIAN_POINT('',(2.9422851891729,-3.72758693593105,0.141922482032358));
#488=CARTESIAN_POINT('',(3.69999999999998,-3.70000000000001,0.));
#489=CARTESIAN_POINT('',(-3.7,3.7,0.));
#490=CARTESIAN_POINT('',(-3.70000000000001,-2.91469825324186,0.));
#491=CARTESIAN_POINT('',(-3.7,2.91469825324188,0.));
#492=CARTESIAN_POINT('',(-3.72758693593104,2.94228518917292,0.141922482032358));
#493=CARTESIAN_POINT('',(-3.15573513441439,2.37043338765627,-2.8));
#494=CARTESIAN_POINT('',(-3.15573513441438,3.7,-2.8));
#495=CARTESIAN_POINT('',(-3.15573513441439,-2.37043338765625,-2.8));
#496=CARTESIAN_POINT('',(-3.46763166812163,-2.68232992136348,-1.19543143494921));
#497=CARTESIAN_POINT('',(-3.7,3.7,0.));
#498=CARTESIAN_POINT('',(3.70000000000001,3.15573513441438,-2.8));
#499=CARTESIAN_POINT('',(-2.37043338765625,3.1557351344144,-2.8));
#500=CARTESIAN_POINT('',(2.37043338765627,3.15573513441438,-2.8));
#501=CARTESIAN_POINT('',(-2.68232992136349,3.46763166812163,-1.19543143494921));
#502=CARTESIAN_POINT('',(-2.91469825324186,3.70000000000001,0.));
#503=CARTESIAN_POINT('',(3.70000000000001,3.69999999999999,0.));
#504=CARTESIAN_POINT('',(2.91469825324188,3.69999999999999,0.));
#505=CARTESIAN_POINT('',(2.94228518917292,3.72758693593103,0.141922482032359));
#506=CARTESIAN_POINT('',(3.70000000000001,3.69999999999999,0.));
#507=CARTESIAN_POINT('',(0.,0.,-2.8));
#508=CARTESIAN_POINT('',(-1.4,0.,-2.8));
#509=CARTESIAN_POINT('',(-2.34076177845021,2.34076177845022,-2.8));
#510=CARTESIAN_POINT('',(2.34076177845022,2.34076177845021,-2.8));
#511=CARTESIAN_POINT('',(2.34076177845021,-2.34076177845023,-2.8));
#512=CARTESIAN_POINT('',(-2.34076177845022,-2.34076177845021,-2.8));
#513=CARTESIAN_POINT('',(0.,0.,-2.8));
#514=CARTESIAN_POINT('',(0.,0.,0.));
#515=CARTESIAN_POINT('',(2.05918191509742,0.,0.));
#516=CARTESIAN_POINT('',(-2.88502664403583,2.88502664403584,0.));
#517=CARTESIAN_POINT('',(-2.88502664403583,-2.88502664403582,0.));
#518=CARTESIAN_POINT('',(2.88502664403582,-2.88502664403584,0.));
#519=CARTESIAN_POINT('',(2.88502664403584,2.88502664403582,0.));
#520=CARTESIAN_POINT('',(0.,0.,0.));
#521=CARTESIAN_POINT('',(-2.68232992136349,2.6823299213635,-1.04278423864798));
#522=CARTESIAN_POINT('',(-2.6823299213635,-2.68232992136349,-1.04278423864797));
#523=CARTESIAN_POINT('',(2.94228518917292,2.9422851891729,0.294569678333595));
#524=CARTESIAN_POINT('',(2.9422851891729,-2.94228518917292,0.294569678333594));
#525=CARTESIAN_POINT('',(0.,0.,-0.34));
#526=CARTESIAN_POINT('',(1.89125681904667,0.,-0.34));
#527=CARTESIAN_POINT('',(0.,0.,-0.374878236872063));
#528=CARTESIAN_POINT('',(0.,0.,-0.767463343945812));
#529=CARTESIAN_POINT('',(1.86136567018186,0.,-0.767463343945812));
#530=CARTESIAN_POINT('',(0.,0.,-0.34));
#531=CARTESIAN_POINT('',(0.,0.,-1.03930936959797));
#532=CARTESIAN_POINT('',(1.75745099844923,0.,-1.03930936959797));
#533=CARTESIAN_POINT('',(0.,0.,-0.732585107073749));
#534=CARTESIAN_POINT('',(0.,0.,-2.0821718621803));
#535=CARTESIAN_POINT('',(1.4,0.,-2.0821718621803));
#536=CARTESIAN_POINT('',(0.,0.,-2.0821718621803));
#537=CARTESIAN_POINT('',(0.,0.,-2.275));
#538=MECHANICAL_DESIGN_GEOMETRIC_PRESENTATION_REPRESENTATION('',(#276,#277,
#278,#279,#280,#281),#539);
#539=(
GEOMETRIC_REPRESENTATION_CONTEXT(3)
GLOBAL_UNCERTAINTY_ASSIGNED_CONTEXT((#540))
GLOBAL_UNIT_ASSIGNED_CONTEXT((#546,#542,#541))
REPRESENTATION_CONTEXT('aaa325130_c','TOP_LEVEL_ASSEMBLY_PART')
);
#540=UNCERTAINTY_MEASURE_WITH_UNIT(LENGTH_MEASURE(2.E-5),#546,
'DISTANCE_ACCURACY_VALUE','Maximum Tolerance applied to model');
#541=(
NAMED_UNIT(*)
SI_UNIT($,.STERADIAN.)
SOLID_ANGLE_UNIT()
);
#542=(
CONVERSION_BASED_UNIT('DEGREE',#544)
NAMED_UNIT(#543)
PLANE_ANGLE_UNIT()
);
#543=DIMENSIONAL_EXPONENTS(0.,0.,0.,0.,0.,0.,0.);
#544=PLANE_ANGLE_MEASURE_WITH_UNIT(PLANE_ANGLE_MEASURE(0.0174532925),#545);
#545=(
NAMED_UNIT(*)
PLANE_ANGLE_UNIT()
SI_UNIT($,.RADIAN.)
);
#546=(
LENGTH_UNIT()
NAMED_UNIT(*)
SI_UNIT(.MILLI.,.METRE.)
);
ENDSEC;
END-ISO-10303-21;
