ISO-10303-21;
HEADER;
/* Generated by software containing ST-Developer
 * from STEP Tools, Inc. (www.steptools.com) 
 */
/* OPTION: using custom schema-name function */

FILE_DESCRIPTION(
/* description */ (''),
/* implementation_level */ '2;1');

FILE_NAME(
/* name */ '1539678234881.stp',
/* time_stamp */ '2018-10-16T10:24:10+02:00',
/* author */ (''),
/* organization */ ('SMS'),
/* preprocessor_version */ 'ST-DEVELOPER v15',
/* originating_system */ 'SIEMENS PLM Software NX 8.5',
/* authorisation */ '');

FILE_SCHEMA (('AUTOMOTIVE_DESIGN { 1 0 10303 214 3 1 1 1 }'));
ENDSEC;

DATA;
#10=CONSTRUCTIVE_GEOMETRY_REPRESENTATION_RELATIONSHIP(
'supplemental geometry','',#26,#11);
#11=CONSTRUCTIVE_GEOMETRY_REPRESENTATION('supplemental geometry',(#129,
#130),#232);
#12=GEOMETRICALLY_BOUNDED_WIREFRAME_SHAPE_REPRESENTATION(
'201926446mod000_00-None',(#27),#232);
#13=SHAPE_REPRESENTATION_RELATIONSHIP('None',
'relationship between 201926446mod000_00-None and 201926446mod000_00-N
one',#26,#15);
#14=SHAPE_REPRESENTATION_RELATIONSHIP('None',
'relationship between 201926446mod000_00-None and 201926446mod000_00-N
one',#26,#12);
#15=ADVANCED_BREP_SHAPE_REPRESENTATION('201926446mod000_00-None',(#33),
#232);
#16=SHAPE_DEFINITION_REPRESENTATION(#17,#26);
#17=PRODUCT_DEFINITION_SHAPE('','',#18);
#18=PRODUCT_DEFINITION(' ','',#20,#19);
#19=PRODUCT_DEFINITION_CONTEXT('part definition',#25,'design');
#20=PRODUCT_DEFINITION_FORMATION_WITH_SPECIFIED_SOURCE(' ',' ',#22,
 .NOT_KNOWN.);
#21=PRODUCT_RELATED_PRODUCT_CATEGORY('part','',(#22));
#22=PRODUCT('201926446mod000_00','201926446mod000_00',' ',(#23));
#23=PRODUCT_CONTEXT(' ',#25,'mechanical');
#24=APPLICATION_PROTOCOL_DEFINITION('international standard',
'automotive_design',2010,#25);
#25=APPLICATION_CONTEXT(
'core data for automotive mechanical design processes');
#26=SHAPE_REPRESENTATION('201926446mod000_00-None',(#128),#232);
#27=GEOMETRIC_CURVE_SET('None',(#174,#175,#108));
#28=SURFACE_STYLE_USAGE(.BOTH.,#29);
#29=SURFACE_SIDE_STYLE('',(#30));
#30=SURFACE_STYLE_FILL_AREA(#31);
#31=FILL_AREA_STYLE('',(#32));
#32=FILL_AREA_STYLE_COLOUR('',#127);
#33=MANIFOLD_SOLID_BREP('CUT',#34);
#34=CLOSED_SHELL('',(#39,#40,#41,#42,#43,#44));
#35=TOROIDAL_SURFACE('',#142,3.9,2.5);
#36=CYLINDRICAL_SURFACE('',#139,1.4);
#37=CONICAL_SURFACE('',#137,4.,15.);
#38=CONICAL_SURFACE('',#141,1.88448184300126,3.99999999999995);
#39=ADVANCED_FACE('',(#47,#48),#45,.T.);
#40=ADVANCED_FACE('',(#49,#50),#46,.F.);
#41=ADVANCED_FACE('',(#51,#52),#37,.T.);
#42=ADVANCED_FACE('',(#53,#54),#36,.F.);
#43=ADVANCED_FACE('',(#55,#56),#38,.F.);
#44=ADVANCED_FACE('',(#57,#58),#35,.T.);
#45=PLANE('',#133);
#46=PLANE('',#136);
#47=FACE_BOUND('',#59,.T.);
#48=FACE_BOUND('',#60,.T.);
#49=FACE_BOUND('',#61,.T.);
#50=FACE_BOUND('',#62,.T.);
#51=FACE_BOUND('',#63,.T.);
#52=FACE_BOUND('',#64,.T.);
#53=FACE_BOUND('',#65,.T.);
#54=FACE_BOUND('',#66,.T.);
#55=FACE_BOUND('',#67,.T.);
#56=FACE_BOUND('',#68,.T.);
#57=FACE_BOUND('',#69,.T.);
#58=FACE_BOUND('',#70,.T.);
#59=EDGE_LOOP('',(#71));
#60=EDGE_LOOP('',(#72));
#61=EDGE_LOOP('',(#73));
#62=EDGE_LOOP('',(#74));
#63=EDGE_LOOP('',(#75));
#64=EDGE_LOOP('',(#76));
#65=EDGE_LOOP('',(#77));
#66=EDGE_LOOP('',(#78));
#67=EDGE_LOOP('',(#79));
#68=EDGE_LOOP('',(#80));
#69=EDGE_LOOP('',(#81));
#70=EDGE_LOOP('',(#82));
#71=ORIENTED_EDGE('',*,*,#89,.F.);
#72=ORIENTED_EDGE('',*,*,#90,.T.);
#73=ORIENTED_EDGE('',*,*,#91,.F.);
#74=ORIENTED_EDGE('',*,*,#92,.F.);
#75=ORIENTED_EDGE('',*,*,#91,.T.);
#76=ORIENTED_EDGE('',*,*,#89,.T.);
#77=ORIENTED_EDGE('',*,*,#93,.F.);
#78=ORIENTED_EDGE('',*,*,#92,.T.);
#79=ORIENTED_EDGE('',*,*,#90,.F.);
#80=ORIENTED_EDGE('',*,*,#94,.T.);
#81=ORIENTED_EDGE('',*,*,#93,.T.);
#82=ORIENTED_EDGE('',*,*,#94,.F.);
#83=VERTEX_POINT('',#214);
#84=VERTEX_POINT('',#216);
#85=VERTEX_POINT('',#219);
#86=VERTEX_POINT('',#221);
#87=VERTEX_POINT('',#225);
#88=VERTEX_POINT('',#228);
#89=EDGE_CURVE('',#83,#83,#95,.T.);
#90=EDGE_CURVE('',#84,#84,#96,.T.);
#91=EDGE_CURVE('',#85,#85,#97,.T.);
#92=EDGE_CURVE('',#86,#86,#98,.T.);
#93=EDGE_CURVE('',#87,#87,#99,.T.);
#94=EDGE_CURVE('',#88,#88,#100,.T.);
#95=CIRCLE('',#131,4.);
#96=CIRCLE('',#132,1.92394876836046);
#97=CIRCLE('',#134,3.25510124504148);
#98=CIRCLE('',#135,1.4);
#99=CIRCLE('',#138,1.4);
#100=CIRCLE('',#140,1.87500000000001);
#101=CURVE_STYLE('',#105,POSITIVE_LENGTH_MEASURE(0.18),#104);
#102=CURVE_STYLE('',#106,POSITIVE_LENGTH_MEASURE(0.18),#126);
#103=CURVE_STYLE('',#107,POSITIVE_LENGTH_MEASURE(0.18),#126);
#104=DRAUGHTING_PRE_DEFINED_COLOUR('blue');
#105=DRAUGHTING_PRE_DEFINED_CURVE_FONT('continuous');
#106=DRAUGHTING_PRE_DEFINED_CURVE_FONT('continuous');
#107=DRAUGHTING_PRE_DEFINED_CURVE_FONT('continuous');
#108=B_SPLINE_CURVE_WITH_KNOTS('CUTTING EDGE LINE',3,(#176,#177,#178,#179,
#180,#181,#182,#183,#184,#185,#186,#187,#188,#189,#190,#191,#192,#193,#194,
#195,#196,#197,#198,#199,#200,#201,#202,#203,#204,#205,#206,#207,#208,#209,
#210),.UNSPECIFIED.,.T.,.F.,(1,1,2,1,1,1,1,1,1,1,1,1,1,1,1,1,1,1,1,1,1,
1,1,1,1,1,1,1,1,1,1,1,1,1,2,1,1),(-0.0625,-0.03125,0.,0.03125,0.0625,0.09375,
0.125,0.15625,0.1875,0.21875,0.25,0.28125,0.3125,0.34375,0.375,0.40625,
0.4375,0.46875,0.5,0.53125,0.5625,0.59375,0.625,0.65625,0.6875,0.71875,
0.75,0.78125,0.8125,0.84375,0.875,0.90625,0.9375,0.96875,1.,1.03125,1.0625),
 .UNSPECIFIED.);
#109=PRESENTATION_LAYER_ASSIGNMENT('1','Layer 1',(#174,#175,#108,#129,#130,
#33));
#110=STYLED_ITEM('',(#116),#174);
#111=STYLED_ITEM('',(#117),#175);
#112=STYLED_ITEM('',(#118),#108);
#113=STYLED_ITEM('',(#119),#129);
#114=STYLED_ITEM('',(#120),#130);
#115=STYLED_ITEM('',(#121),#33);
#116=PRESENTATION_STYLE_ASSIGNMENT((#122));
#117=PRESENTATION_STYLE_ASSIGNMENT((#123));
#118=PRESENTATION_STYLE_ASSIGNMENT((#101));
#119=PRESENTATION_STYLE_ASSIGNMENT((#102));
#120=PRESENTATION_STYLE_ASSIGNMENT((#103));
#121=PRESENTATION_STYLE_ASSIGNMENT((#28));
#122=POINT_STYLE('',#124,POSITIVE_LENGTH_MEASURE(3.),#126);
#123=POINT_STYLE('',#125,POSITIVE_LENGTH_MEASURE(3.),#126);
#124=PRE_DEFINED_POINT_MARKER_SYMBOL('plus');
#125=PRE_DEFINED_POINT_MARKER_SYMBOL('plus');
#126=COLOUR_RGB('Medium Maroon',0.6,0.4,0.4);
#127=COLOUR_RGB('Light Gray',0.8,0.8,0.8);
#128=AXIS2_PLACEMENT_3D('',#173,#143,#144);
#129=AXIS2_PLACEMENT_3D('MCS',#211,#145,#146);
#130=AXIS2_PLACEMENT_3D('PCS',#212,#147,#148);
#131=AXIS2_PLACEMENT_3D('',#213,#149,#150);
#132=AXIS2_PLACEMENT_3D('',#215,#151,#152);
#133=AXIS2_PLACEMENT_3D('',#217,#153,#154);
#134=AXIS2_PLACEMENT_3D('',#218,#155,#156);
#135=AXIS2_PLACEMENT_3D('',#220,#157,#158);
#136=AXIS2_PLACEMENT_3D('',#222,#159,#160);
#137=AXIS2_PLACEMENT_3D('',#223,#161,#162);
#138=AXIS2_PLACEMENT_3D('',#224,#163,#164);
#139=AXIS2_PLACEMENT_3D('',#226,#165,#166);
#140=AXIS2_PLACEMENT_3D('',#227,#167,#168);
#141=AXIS2_PLACEMENT_3D('',#229,#169,#170);
#142=AXIS2_PLACEMENT_3D('',#230,#171,#172);
#143=DIRECTION('',(0.,0.,1.));
#144=DIRECTION('',(1.,0.,0.));
#145=DIRECTION('',(0.,0.,1.));
#146=DIRECTION('',(1.,0.,0.));
#147=DIRECTION('',(0.,0.,1.));
#148=DIRECTION('',(1.,0.,0.));
#149=DIRECTION('',(0.,0.,-1.));
#150=DIRECTION('',(-1.,0.,0.));
#151=DIRECTION('',(0.,0.,-1.));
#152=DIRECTION('',(1.,0.,0.));
#153=DIRECTION('',(0.,0.,1.));
#154=DIRECTION('',(1.,0.,0.));
#155=DIRECTION('',(0.,0.,1.));
#156=DIRECTION('',(1.,0.,0.));
#157=DIRECTION('',(0.,0.,-1.));
#158=DIRECTION('',(1.,0.,0.));
#159=DIRECTION('',(0.,0.,1.));
#160=DIRECTION('',(1.,0.,0.));
#161=DIRECTION('',(0.,0.,1.));
#162=DIRECTION('',(1.,0.,0.));
#163=DIRECTION('',(0.,0.,-1.));
#164=DIRECTION('',(1.,0.,0.));
#165=DIRECTION('',(0.,0.,1.));
#166=DIRECTION('',(1.,0.,0.));
#167=DIRECTION('',(0.,0.,-1.));
#168=DIRECTION('',(-1.,0.,0.));
#169=DIRECTION('',(0.,0.,1.));
#170=DIRECTION('',(1.,0.,-2.11371075696289E-017));
#171=DIRECTION('',(0.,0.,1.));
#172=DIRECTION('',(1.,0.,0.));
#173=CARTESIAN_POINT('',(0.,0.,0.));
#174=CARTESIAN_POINT('',(0.,0.,0.));
#175=CARTESIAN_POINT('',(-4.,-4.,0.));
#176=CARTESIAN_POINT('',(-4.,-0.261799387799149,0.));
#177=CARTESIAN_POINT('',(-4.,0.261799387799149,0.));
#178=CARTESIAN_POINT('',(-3.94843003405255,0.785391565473387,0.));
#179=CARTESIAN_POINT('',(-3.7193403480568,1.54060121526522,0.));
#180=CARTESIAN_POINT('',(-3.34731735399113,2.23660595022787,0.));
#181=CARTESIAN_POINT('',(-2.84665986105497,2.84665986106995,0.));
#182=CARTESIAN_POINT('',(-2.23660595026611,3.34731735396946,0.));
#183=CARTESIAN_POINT('',(-1.54060121515573,3.71934034808892,0.));
#184=CARTESIAN_POINT('',(-0.78539156560004,3.94843003405885,0.));
#185=CARTESIAN_POINT('',(1.62768787337342E-008,4.02578497990499,0.));
#186=CARTESIAN_POINT('',(0.785391503619929,3.94843004632118,0.));
#187=CARTESIAN_POINT('',(1.54060123075713,3.71934034497057,0.));
#188=CARTESIAN_POINT('',(2.23660595011369,3.34731735406743,0.));
#189=CARTESIAN_POINT('',(2.84665986109804,2.84665986103409,0.));
#190=CARTESIAN_POINT('',(3.34731735397127,2.23660595027334,0.));
#191=CARTESIAN_POINT('',(3.71934034814345,1.54060121497949,0.));
#192=CARTESIAN_POINT('',(3.94843003403284,0.78539156582957,0.));
#193=CARTESIAN_POINT('',(4.02578497983613,-1.73133006819981E-008,0.));
#194=CARTESIAN_POINT('',(3.94843004662265,-0.785391501977206,0.));
#195=CARTESIAN_POINT('',(3.7193403448952,-1.54060123116781,0.));
#196=CARTESIAN_POINT('',(3.34731735406743,-2.23660595011369,0.));
#197=CARTESIAN_POINT('',(2.84665986103175,-2.8466598610992,0.));
#198=CARTESIAN_POINT('',(2.23660595028271,-3.34731735396666,0.));
#199=CARTESIAN_POINT('',(1.54060121488119,-3.71934034816163,0.));
#200=CARTESIAN_POINT('',(0.785391566097935,-3.94843003401257,0.));
#201=CARTESIAN_POINT('',(3.14533369349945E-008,-4.0257849897177,0.));
#202=CARTESIAN_POINT('',(-0.78539170041394,-3.94843000711663,0.));
#203=CARTESIAN_POINT('',(-1.54060118155863,-3.71934035477171,0.));
#204=CARTESIAN_POINT('',(-2.23660595011369,-3.34731735406743,0.));
#205=CARTESIAN_POINT('',(-2.84665986110157,-2.84665986102695,0.));
#206=CARTESIAN_POINT('',(-3.34731735395719,-2.23660595030192,0.));
#207=CARTESIAN_POINT('',(-3.71934034817867,-1.54060121498922,0.));
#208=CARTESIAN_POINT('',(-3.94843003405205,-0.785391565409661,0.));
#209=CARTESIAN_POINT('',(-4.,-0.261799387799149,0.));
#210=CARTESIAN_POINT('',(-4.,0.261799387799149,0.));
#211=CARTESIAN_POINT('',(0.,0.,0.));
#212=CARTESIAN_POINT('',(-4.,-4.,0.));
#213=CARTESIAN_POINT('',(0.,0.,0.));
#214=CARTESIAN_POINT('',(-4.,0.,0.));
#215=CARTESIAN_POINT('',(0.,0.,0.));
#216=CARTESIAN_POINT('',(1.92394876836046,0.,0.));
#217=CARTESIAN_POINT('',(0.,0.,0.));
#218=CARTESIAN_POINT('',(0.,0.,-2.78));
#219=CARTESIAN_POINT('',(3.25510124504148,0.,-2.78));
#220=CARTESIAN_POINT('',(0.,0.,-2.78));
#221=CARTESIAN_POINT('',(1.4,0.,-2.78));
#222=CARTESIAN_POINT('',(0.,0.,-2.78));
#223=CARTESIAN_POINT('',(0.,0.,0.));
#224=CARTESIAN_POINT('',(0.,0.,-2.16607469113958));
#225=CARTESIAN_POINT('',(1.4,0.,-2.16607469113958));
#226=CARTESIAN_POINT('',(0.,0.,-2.175));
#227=CARTESIAN_POINT('',(0.,0.,-0.699999999999941));
#228=CARTESIAN_POINT('',(-1.87500000000001,0.,-0.699999999999941));
#229=CARTESIAN_POINT('',(0.,0.,-0.564403327740435));
#230=CARTESIAN_POINT('',(0.,0.,-2.16607469113958));
#231=MECHANICAL_DESIGN_GEOMETRIC_PRESENTATION_REPRESENTATION('',(#110,#111,
#112,#113,#114,#115),#232);
#232=(
GEOMETRIC_REPRESENTATION_CONTEXT(3)
GLOBAL_UNCERTAINTY_ASSIGNED_CONTEXT((#233))
GLOBAL_UNIT_ASSIGNED_CONTEXT((#239,#235,#234))
REPRESENTATION_CONTEXT('1539678234881','TOP_LEVEL_ASSEMBLY_PART')
);
#233=UNCERTAINTY_MEASURE_WITH_UNIT(LENGTH_MEASURE(2.E-005),#239,
'DISTANCE_ACCURACY_VALUE','Maximum Tolerance applied to model');
#234=(
NAMED_UNIT(*)
SI_UNIT($,.STERADIAN.)
SOLID_ANGLE_UNIT()
);
#235=(
CONVERSION_BASED_UNIT('DEGREE',#237)
NAMED_UNIT(#236)
PLANE_ANGLE_UNIT()
);
#236=DIMENSIONAL_EXPONENTS(0.,0.,0.,0.,0.,0.,0.);
#237=PLANE_ANGLE_MEASURE_WITH_UNIT(PLANE_ANGLE_MEASURE(0.0174532925),#238);
#238=(
NAMED_UNIT(*)
PLANE_ANGLE_UNIT()
SI_UNIT($,.RADIAN.)
);
#239=(
LENGTH_UNIT()
NAMED_UNIT(*)
SI_UNIT(.MILLI.,.METRE.)
);
ENDSEC;
END-ISO-10303-21;
