ISO-10303-21;
HEADER;
/* Generated by software containing ST-Developer
 * from STEP Tools, Inc. (www.steptools.com) 
 */
/* OPTION: using custom schema-name function */

FILE_DESCRIPTION(
/* description */ (''),
/* implementation_level */ '2;1');

FILE_NAME(
/* name */ '1539594471951.stp',
/* time_stamp */ '2018-10-15T11:08:08+02:00',
/* author */ (''),
/* organization */ ('SMS'),
/* preprocessor_version */ 'ST-DEVELOPER v15',
/* originating_system */ 'SIEMENS PLM Software NX 8.5',
/* authorisation */ '');

FILE_SCHEMA (('AUTOMOTIVE_DESIGN { 1 0 10303 214 3 1 1 1 }'));
ENDSEC;

DATA;
#10=CONSTRUCTIVE_GEOMETRY_REPRESENTATION_RELATIONSHIP(
'supplemental geometry','',#26,#11);
#11=CONSTRUCTIVE_GEOMETRY_REPRESENTATION('supplemental geometry',(#276,
#277),#502);
#12=GEOMETRICALLY_BOUNDED_WIREFRAME_SHAPE_REPRESENTATION(
'201924038mod000_00-None',(#27),#502);
#13=SHAPE_REPRESENTATION_RELATIONSHIP('None',
'relationship between 201924038mod000_00-None and 201924038mod000_00-N
one',#26,#15);
#14=SHAPE_REPRESENTATION_RELATIONSHIP('None',
'relationship between 201924038mod000_00-None and 201924038mod000_00-N
one',#26,#12);
#15=ADVANCED_BREP_SHAPE_REPRESENTATION('201924038mod000_00-None',(#33),
#502);
#16=SHAPE_DEFINITION_REPRESENTATION(#17,#26);
#17=PRODUCT_DEFINITION_SHAPE('','',#18);
#18=PRODUCT_DEFINITION(' ','',#20,#19);
#19=PRODUCT_DEFINITION_CONTEXT('part definition',#25,'design');
#20=PRODUCT_DEFINITION_FORMATION_WITH_SPECIFIED_SOURCE(' ',' ',#22,
 .NOT_KNOWN.);
#21=PRODUCT_RELATED_PRODUCT_CATEGORY('part','',(#22));
#22=PRODUCT('201924038mod000_00','201924038mod000_00',' ',(#23));
#23=PRODUCT_CONTEXT(' ',#25,'mechanical');
#24=APPLICATION_PROTOCOL_DEFINITION('international standard',
'automotive_design',2010,#25);
#25=APPLICATION_CONTEXT(
'core data for automotive mechanical design processes');
#26=SHAPE_REPRESENTATION('201924038mod000_00-None',(#275),#502);
#27=GEOMETRIC_CURVE_SET('None',(#398,#399,#255));
#28=SURFACE_STYLE_USAGE(.BOTH.,#29);
#29=SURFACE_SIDE_STYLE('',(#30));
#30=SURFACE_STYLE_FILL_AREA(#31);
#31=FILL_AREA_STYLE('',(#32));
#32=FILL_AREA_STYLE_COLOUR('',#274);
#33=MANIFOLD_SOLID_BREP('CUT',#34);
#34=CLOSED_SHELL('',(#55,#56,#57,#58,#59,#60,#61,#62,#63,#64,#65,#66,#67,
#68));
#35=FACE_OUTER_BOUND('',#119,.T.);
#36=FACE_OUTER_BOUND('',#120,.T.);
#37=FACE_OUTER_BOUND('',#121,.T.);
#38=FACE_OUTER_BOUND('',#122,.T.);
#39=FACE_OUTER_BOUND('',#123,.T.);
#40=FACE_OUTER_BOUND('',#124,.T.);
#41=FACE_OUTER_BOUND('',#125,.T.);
#42=FACE_OUTER_BOUND('',#126,.T.);
#43=ELLIPSE('',#296,23.317849098703,3.95737076041742);
#44=ELLIPSE('',#297,23.317849098703,3.95737076041742);
#45=ELLIPSE('',#298,23.317849098703,3.95737076041742);
#46=ELLIPSE('',#299,23.317849098703,3.95737076041742);
#47=ELLIPSE('',#300,23.317849098703,3.95737076041742);
#48=ELLIPSE('',#301,23.3178490987031,3.95737076041743);
#49=ELLIPSE('',#302,23.317849098703,3.95737076041742);
#50=ELLIPSE('',#303,23.317849098703,3.95737076041742);
#51=CYLINDRICAL_SURFACE('',#295,2.75);
#52=TOROIDAL_SURFACE('',#294,7.75,5.);
#53=CONICAL_SURFACE('',#292,3.96013705827142,4.00000000000006);
#54=CONICAL_SURFACE('',#304,7.22031803826655,7.00000000000004);
#55=ADVANCED_FACE('',(#95,#96),#69,.T.);
#56=ADVANCED_FACE('',(#97,#98),#70,.T.);
#57=ADVANCED_FACE('',(#99,#100),#53,.F.);
#58=ADVANCED_FACE('',(#101,#102),#52,.T.);
#59=ADVANCED_FACE('',(#103,#104),#51,.F.);
#60=ADVANCED_FACE('',(#105,#106),#54,.T.);
#61=ADVANCED_FACE('',(#35),#71,.F.);
#62=ADVANCED_FACE('',(#36),#72,.F.);
#63=ADVANCED_FACE('',(#37),#73,.F.);
#64=ADVANCED_FACE('',(#38),#74,.F.);
#65=ADVANCED_FACE('',(#39),#75,.F.);
#66=ADVANCED_FACE('',(#40),#76,.F.);
#67=ADVANCED_FACE('',(#41),#77,.F.);
#68=ADVANCED_FACE('',(#42),#78,.F.);
#69=PLANE('',#287);
#70=PLANE('',#290);
#71=PLANE('',#305);
#72=PLANE('',#306);
#73=PLANE('',#307);
#74=PLANE('',#308);
#75=PLANE('',#309);
#76=PLANE('',#310);
#77=PLANE('',#311);
#78=PLANE('',#312);
#79=LINE('',#442,#87);
#80=LINE('',#446,#88);
#81=LINE('',#450,#89);
#82=LINE('',#454,#90);
#83=LINE('',#458,#91);
#84=LINE('',#462,#92);
#85=LINE('',#466,#93);
#86=LINE('',#470,#94);
#87=VECTOR('',#323,1.);
#88=VECTOR('',#326,1.);
#89=VECTOR('',#329,1.);
#90=VECTOR('',#332,1.);
#91=VECTOR('',#335,1.);
#92=VECTOR('',#338,1.);
#93=VECTOR('',#341,1.);
#94=VECTOR('',#344,1.);
#95=FACE_BOUND('',#107,.T.);
#96=FACE_BOUND('',#108,.T.);
#97=FACE_BOUND('',#109,.T.);
#98=FACE_BOUND('',#110,.T.);
#99=FACE_BOUND('',#111,.T.);
#100=FACE_BOUND('',#112,.T.);
#101=FACE_BOUND('',#113,.T.);
#102=FACE_BOUND('',#114,.T.);
#103=FACE_BOUND('',#115,.T.);
#104=FACE_BOUND('',#116,.T.);
#105=FACE_BOUND('',#117,.T.);
#106=FACE_BOUND('',#118,.T.);
#107=EDGE_LOOP('',(#127));
#108=EDGE_LOOP('',(#128,#129,#130,#131,#132,#133,#134,#135,#136,#137,#138,
#139,#140,#141,#142,#143));
#109=EDGE_LOOP('',(#144));
#110=EDGE_LOOP('',(#145));
#111=EDGE_LOOP('',(#146));
#112=EDGE_LOOP('',(#147));
#113=EDGE_LOOP('',(#148));
#114=EDGE_LOOP('',(#149));
#115=EDGE_LOOP('',(#150));
#116=EDGE_LOOP('',(#151));
#117=EDGE_LOOP('',(#152,#153,#154,#155,#156,#157,#158,#159,#160,#161,#162,
#163,#164,#165,#166,#167));
#118=EDGE_LOOP('',(#168));
#119=EDGE_LOOP('',(#169,#170));
#120=EDGE_LOOP('',(#171,#172));
#121=EDGE_LOOP('',(#173,#174));
#122=EDGE_LOOP('',(#175,#176));
#123=EDGE_LOOP('',(#177,#178));
#124=EDGE_LOOP('',(#179,#180));
#125=EDGE_LOOP('',(#181,#182));
#126=EDGE_LOOP('',(#183,#184));
#127=ORIENTED_EDGE('',*,*,#206,.F.);
#128=ORIENTED_EDGE('',*,*,#207,.T.);
#129=ORIENTED_EDGE('',*,*,#208,.T.);
#130=ORIENTED_EDGE('',*,*,#209,.T.);
#131=ORIENTED_EDGE('',*,*,#210,.T.);
#132=ORIENTED_EDGE('',*,*,#211,.T.);
#133=ORIENTED_EDGE('',*,*,#212,.T.);
#134=ORIENTED_EDGE('',*,*,#213,.T.);
#135=ORIENTED_EDGE('',*,*,#214,.T.);
#136=ORIENTED_EDGE('',*,*,#215,.T.);
#137=ORIENTED_EDGE('',*,*,#216,.T.);
#138=ORIENTED_EDGE('',*,*,#217,.T.);
#139=ORIENTED_EDGE('',*,*,#218,.T.);
#140=ORIENTED_EDGE('',*,*,#219,.T.);
#141=ORIENTED_EDGE('',*,*,#220,.T.);
#142=ORIENTED_EDGE('',*,*,#221,.T.);
#143=ORIENTED_EDGE('',*,*,#222,.T.);
#144=ORIENTED_EDGE('',*,*,#223,.T.);
#145=ORIENTED_EDGE('',*,*,#224,.F.);
#146=ORIENTED_EDGE('',*,*,#225,.T.);
#147=ORIENTED_EDGE('',*,*,#223,.F.);
#148=ORIENTED_EDGE('',*,*,#226,.T.);
#149=ORIENTED_EDGE('',*,*,#225,.F.);
#150=ORIENTED_EDGE('',*,*,#206,.T.);
#151=ORIENTED_EDGE('',*,*,#226,.F.);
#152=ORIENTED_EDGE('',*,*,#209,.F.);
#153=ORIENTED_EDGE('',*,*,#227,.F.);
#154=ORIENTED_EDGE('',*,*,#207,.F.);
#155=ORIENTED_EDGE('',*,*,#228,.F.);
#156=ORIENTED_EDGE('',*,*,#221,.F.);
#157=ORIENTED_EDGE('',*,*,#229,.F.);
#158=ORIENTED_EDGE('',*,*,#219,.F.);
#159=ORIENTED_EDGE('',*,*,#230,.F.);
#160=ORIENTED_EDGE('',*,*,#217,.F.);
#161=ORIENTED_EDGE('',*,*,#231,.F.);
#162=ORIENTED_EDGE('',*,*,#215,.F.);
#163=ORIENTED_EDGE('',*,*,#232,.F.);
#164=ORIENTED_EDGE('',*,*,#213,.F.);
#165=ORIENTED_EDGE('',*,*,#233,.F.);
#166=ORIENTED_EDGE('',*,*,#211,.F.);
#167=ORIENTED_EDGE('',*,*,#234,.F.);
#168=ORIENTED_EDGE('',*,*,#224,.T.);
#169=ORIENTED_EDGE('',*,*,#228,.T.);
#170=ORIENTED_EDGE('',*,*,#222,.F.);
#171=ORIENTED_EDGE('',*,*,#230,.T.);
#172=ORIENTED_EDGE('',*,*,#218,.F.);
#173=ORIENTED_EDGE('',*,*,#232,.T.);
#174=ORIENTED_EDGE('',*,*,#214,.F.);
#175=ORIENTED_EDGE('',*,*,#234,.T.);
#176=ORIENTED_EDGE('',*,*,#210,.F.);
#177=ORIENTED_EDGE('',*,*,#233,.T.);
#178=ORIENTED_EDGE('',*,*,#212,.F.);
#179=ORIENTED_EDGE('',*,*,#231,.T.);
#180=ORIENTED_EDGE('',*,*,#216,.F.);
#181=ORIENTED_EDGE('',*,*,#229,.T.);
#182=ORIENTED_EDGE('',*,*,#220,.F.);
#183=ORIENTED_EDGE('',*,*,#227,.T.);
#184=ORIENTED_EDGE('',*,*,#208,.F.);
#185=VERTEX_POINT('',#438);
#186=VERTEX_POINT('',#440);
#187=VERTEX_POINT('',#441);
#188=VERTEX_POINT('',#443);
#189=VERTEX_POINT('',#445);
#190=VERTEX_POINT('',#447);
#191=VERTEX_POINT('',#449);
#192=VERTEX_POINT('',#451);
#193=VERTEX_POINT('',#453);
#194=VERTEX_POINT('',#455);
#195=VERTEX_POINT('',#457);
#196=VERTEX_POINT('',#459);
#197=VERTEX_POINT('',#461);
#198=VERTEX_POINT('',#463);
#199=VERTEX_POINT('',#465);
#200=VERTEX_POINT('',#467);
#201=VERTEX_POINT('',#469);
#202=VERTEX_POINT('',#473);
#203=VERTEX_POINT('',#475);
#204=VERTEX_POINT('',#478);
#205=VERTEX_POINT('',#481);
#206=EDGE_CURVE('',#185,#185,#235,.T.);
#207=EDGE_CURVE('',#186,#187,#236,.T.);
#208=EDGE_CURVE('',#187,#188,#79,.T.);
#209=EDGE_CURVE('',#188,#189,#237,.T.);
#210=EDGE_CURVE('',#189,#190,#80,.T.);
#211=EDGE_CURVE('',#190,#191,#238,.T.);
#212=EDGE_CURVE('',#191,#192,#81,.T.);
#213=EDGE_CURVE('',#192,#193,#239,.T.);
#214=EDGE_CURVE('',#193,#194,#82,.T.);
#215=EDGE_CURVE('',#194,#195,#240,.T.);
#216=EDGE_CURVE('',#195,#196,#83,.T.);
#217=EDGE_CURVE('',#196,#197,#241,.T.);
#218=EDGE_CURVE('',#197,#198,#84,.T.);
#219=EDGE_CURVE('',#198,#199,#242,.T.);
#220=EDGE_CURVE('',#199,#200,#85,.T.);
#221=EDGE_CURVE('',#200,#201,#243,.T.);
#222=EDGE_CURVE('',#201,#186,#86,.T.);
#223=EDGE_CURVE('',#202,#202,#244,.T.);
#224=EDGE_CURVE('',#203,#203,#245,.T.);
#225=EDGE_CURVE('',#204,#204,#246,.T.);
#226=EDGE_CURVE('',#205,#205,#247,.T.);
#227=EDGE_CURVE('',#187,#188,#43,.T.);
#228=EDGE_CURVE('',#201,#186,#44,.T.);
#229=EDGE_CURVE('',#199,#200,#45,.T.);
#230=EDGE_CURVE('',#197,#198,#46,.T.);
#231=EDGE_CURVE('',#195,#196,#47,.T.);
#232=EDGE_CURVE('',#193,#194,#48,.T.);
#233=EDGE_CURVE('',#191,#192,#49,.T.);
#234=EDGE_CURVE('',#189,#190,#50,.T.);
#235=CIRCLE('',#278,2.75);
#236=CIRCLE('',#279,7.22031803826655);
#237=CIRCLE('',#280,7.22031803826655);
#238=CIRCLE('',#281,7.22031803826655);
#239=CIRCLE('',#282,7.22031803826655);
#240=CIRCLE('',#283,7.22031803826655);
#241=CIRCLE('',#284,7.22031803826655);
#242=CIRCLE('',#285,7.22031803826655);
#243=CIRCLE('',#286,7.22031803826655);
#244=CIRCLE('',#288,3.96013705827142);
#245=CIRCLE('',#289,8.);
#246=CIRCLE('',#291,3.9);
#247=CIRCLE('',#293,2.75);
#248=CURVE_STYLE('',#252,POSITIVE_LENGTH_MEASURE(0.13),#251);
#249=CURVE_STYLE('',#253,POSITIVE_LENGTH_MEASURE(0.18),#273);
#250=CURVE_STYLE('',#254,POSITIVE_LENGTH_MEASURE(0.18),#273);
#251=DRAUGHTING_PRE_DEFINED_COLOUR('blue');
#252=DRAUGHTING_PRE_DEFINED_CURVE_FONT('continuous');
#253=DRAUGHTING_PRE_DEFINED_CURVE_FONT('continuous');
#254=DRAUGHTING_PRE_DEFINED_CURVE_FONT('continuous');
#255=B_SPLINE_CURVE_WITH_KNOTS('CUTTING EDGE LINE',3,(#400,#401,#402,#403,
#404,#405,#406,#407,#408,#409,#410,#411,#412,#413,#414,#415,#416,#417,#418,
#419,#420,#421,#422,#423,#424,#425,#426,#427,#428,#429,#430,#431,#432,#433,
#434),.UNSPECIFIED.,.T.,.F.,(1,1,2,1,1,1,1,1,1,1,1,1,1,1,1,1,1,1,1,1,1,
1,1,1,1,1,1,1,1,1,1,1,1,1,2,1,1),(-0.0625,-0.03125,0.,0.03125,0.0625,0.09375,
0.125,0.15625,0.1875,0.21875,0.25,0.28125,0.3125,0.34375,0.375,0.40625,
0.4375,0.46875,0.5,0.53125,0.5625,0.59375,0.625,0.65625,0.6875,0.71875,
0.75,0.78125,0.8125,0.84375,0.875,0.90625,0.9375,0.96875,1.,1.03125,1.0625),
 .UNSPECIFIED.);
#256=PRESENTATION_LAYER_ASSIGNMENT('1','Layer 1',(#398,#399,#255,#276,#277,
#33));
#257=STYLED_ITEM('',(#263),#398);
#258=STYLED_ITEM('',(#264),#399);
#259=STYLED_ITEM('',(#265),#255);
#260=STYLED_ITEM('',(#266),#276);
#261=STYLED_ITEM('',(#267),#277);
#262=STYLED_ITEM('',(#268),#33);
#263=PRESENTATION_STYLE_ASSIGNMENT((#269));
#264=PRESENTATION_STYLE_ASSIGNMENT((#270));
#265=PRESENTATION_STYLE_ASSIGNMENT((#248));
#266=PRESENTATION_STYLE_ASSIGNMENT((#249));
#267=PRESENTATION_STYLE_ASSIGNMENT((#250));
#268=PRESENTATION_STYLE_ASSIGNMENT((#28));
#269=POINT_STYLE('',#271,POSITIVE_LENGTH_MEASURE(3.),#273);
#270=POINT_STYLE('',#272,POSITIVE_LENGTH_MEASURE(3.),#273);
#271=PRE_DEFINED_POINT_MARKER_SYMBOL('plus');
#272=PRE_DEFINED_POINT_MARKER_SYMBOL('plus');
#273=COLOUR_RGB('Medium Maroon',0.6,0.4,0.4);
#274=COLOUR_RGB('Light Gray',0.8,0.8,0.8);
#275=AXIS2_PLACEMENT_3D('',#397,#313,#314);
#276=AXIS2_PLACEMENT_3D('MCS',#435,#315,#316);
#277=AXIS2_PLACEMENT_3D('PCS',#436,#317,#318);
#278=AXIS2_PLACEMENT_3D('',#437,#319,#320);
#279=AXIS2_PLACEMENT_3D('',#439,#321,#322);
#280=AXIS2_PLACEMENT_3D('',#444,#324,#325);
#281=AXIS2_PLACEMENT_3D('',#448,#327,#328);
#282=AXIS2_PLACEMENT_3D('',#452,#330,#331);
#283=AXIS2_PLACEMENT_3D('',#456,#333,#334);
#284=AXIS2_PLACEMENT_3D('',#460,#336,#337);
#285=AXIS2_PLACEMENT_3D('',#464,#339,#340);
#286=AXIS2_PLACEMENT_3D('',#468,#342,#343);
#287=AXIS2_PLACEMENT_3D('',#471,#345,#346);
#288=AXIS2_PLACEMENT_3D('',#472,#347,#348);
#289=AXIS2_PLACEMENT_3D('',#474,#349,#350);
#290=AXIS2_PLACEMENT_3D('',#476,#351,#352);
#291=AXIS2_PLACEMENT_3D('',#477,#353,#354);
#292=AXIS2_PLACEMENT_3D('',#479,#355,#356);
#293=AXIS2_PLACEMENT_3D('',#480,#357,#358);
#294=AXIS2_PLACEMENT_3D('',#482,#359,#360);
#295=AXIS2_PLACEMENT_3D('',#483,#361,#362);
#296=AXIS2_PLACEMENT_3D('',#484,#363,#364);
#297=AXIS2_PLACEMENT_3D('',#485,#365,#366);
#298=AXIS2_PLACEMENT_3D('',#486,#367,#368);
#299=AXIS2_PLACEMENT_3D('',#487,#369,#370);
#300=AXIS2_PLACEMENT_3D('',#488,#371,#372);
#301=AXIS2_PLACEMENT_3D('',#489,#373,#374);
#302=AXIS2_PLACEMENT_3D('',#490,#375,#376);
#303=AXIS2_PLACEMENT_3D('',#491,#377,#378);
#304=AXIS2_PLACEMENT_3D('',#492,#379,#380);
#305=AXIS2_PLACEMENT_3D('',#493,#381,#382);
#306=AXIS2_PLACEMENT_3D('',#494,#383,#384);
#307=AXIS2_PLACEMENT_3D('',#495,#385,#386);
#308=AXIS2_PLACEMENT_3D('',#496,#387,#388);
#309=AXIS2_PLACEMENT_3D('',#497,#389,#390);
#310=AXIS2_PLACEMENT_3D('',#498,#391,#392);
#311=AXIS2_PLACEMENT_3D('',#499,#393,#394);
#312=AXIS2_PLACEMENT_3D('',#500,#395,#396);
#313=DIRECTION('',(0.,0.,1.));
#314=DIRECTION('',(1.,0.,0.));
#315=DIRECTION('',(0.,0.,1.));
#316=DIRECTION('',(1.,0.,0.));
#317=DIRECTION('',(0.,0.,1.));
#318=DIRECTION('',(1.,0.,0.));
#319=DIRECTION('',(-2.0715885116098E-032,0.,-1.));
#320=DIRECTION('',(-1.,0.,0.));
#321=DIRECTION('',(-2.0715885116098E-032,0.,-1.));
#322=DIRECTION('',(-1.,0.,0.));
#323=DIRECTION('',(0.,1.,0.));
#324=DIRECTION('',(-2.0715885116098E-032,0.,-1.));
#325=DIRECTION('',(-1.,0.,0.));
#326=DIRECTION('',(0.707106781186551,0.707106781186544,-1.46483428438744E-032));
#327=DIRECTION('',(-2.0715885116098E-032,0.,-1.));
#328=DIRECTION('',(-1.,0.,0.));
#329=DIRECTION('',(1.,-3.7364106986726E-015,-2.0715885116098E-032));
#330=DIRECTION('',(-2.0715885116098E-032,0.,-1.));
#331=DIRECTION('',(-1.,0.,0.));
#332=DIRECTION('',(0.707106781186545,-0.70710678118655,-1.46483428438743E-032));
#333=DIRECTION('',(-2.0715885116098E-032,0.,-1.));
#334=DIRECTION('',(-1.,0.,0.));
#335=DIRECTION('',(-2.34291072916505E-015,-1.,4.85354695026565E-047));
#336=DIRECTION('',(-2.0715885116098E-032,0.,-1.));
#337=DIRECTION('',(-1.,0.,0.));
#338=DIRECTION('',(-0.707106781186549,-0.707106781186546,1.46483428438744E-032));
#339=DIRECTION('',(-2.0715885116098E-032,0.,-1.));
#340=DIRECTION('',(-1.,0.,0.));
#341=DIRECTION('',(-1.,1.17145536458252E-015,2.0715885116098E-032));
#342=DIRECTION('',(-2.0715885116098E-032,0.,-1.));
#343=DIRECTION('',(-1.,0.,0.));
#344=DIRECTION('',(-0.707106781186547,0.707106781186548,1.46483428438744E-032));
#345=DIRECTION('',(-2.0715885116098E-032,0.,-1.));
#346=DIRECTION('',(-1.,0.,0.));
#347=DIRECTION('',(-2.0715885116098E-032,0.,-1.));
#348=DIRECTION('',(-1.,0.,2.0706981780362E-032));
#349=DIRECTION('',(-2.0715885116098E-032,0.,-1.));
#350=DIRECTION('',(-1.,0.,2.0715885116098E-032));
#351=DIRECTION('',(2.0715885116098E-032,0.,1.));
#352=DIRECTION('',(1.,0.,-2.07157839643152E-032));
#353=DIRECTION('',(-2.0715885116098E-032,0.,-1.));
#354=DIRECTION('',(-1.,0.,0.));
#355=DIRECTION('',(2.0715885116098E-032,0.,1.));
#356=DIRECTION('',(1.,0.,-9.10368340037798E-020));
#357=DIRECTION('',(-2.0715885116098E-032,0.,-1.));
#358=DIRECTION('',(-1.,0.,0.));
#359=DIRECTION('',(-2.0715885116098E-032,0.,-1.));
#360=DIRECTION('',(-1.,0.,0.));
#361=DIRECTION('',(-2.0715885116098E-032,0.,-1.));
#362=DIRECTION('',(-1.,0.,2.0715885116098E-032));
#363=DIRECTION('',(-0.978147600733805,0.,-0.20791169081776));
#364=DIRECTION('',(-0.20791169081776,0.,0.978147600733805));
#365=DIRECTION('',(-0.691654801480226,-0.691654801480225,-0.20791169081776));
#366=DIRECTION('',(-0.147015766465199,-0.147015766465199,0.978147600733805));
#367=DIRECTION('',(-1.14585625423314E-015,-0.978147600733805,-0.20791169081776));
#368=DIRECTION('',(-2.43559265567888E-016,-0.20791169081776,0.978147600733805));
#369=DIRECTION('',(0.691654801480224,-0.691654801480227,-0.20791169081776));
#370=DIRECTION('',(0.147015766465198,-0.147015766465199,0.978147600733805));
#371=DIRECTION('',(0.978147600733805,-2.29171250846628E-015,-0.20791169081776));
#372=DIRECTION('',(0.20791169081776,-4.87118531135775E-016,0.978147600733805));
#373=DIRECTION('',(0.691654801480228,0.691654801480223,-0.20791169081776));
#374=DIRECTION('',(0.147015766465199,0.147015766465198,0.978147600733806));
#375=DIRECTION('',(3.65476116026273E-015,0.978147600733805,-0.20791169081776));
#376=DIRECTION('',(7.76843465950588E-016,0.20791169081776,0.978147600733805));
#377=DIRECTION('',(-0.691654801480222,0.691654801480229,-0.20791169081776));
#378=DIRECTION('',(-0.147015766465198,0.147015766465199,0.978147600733805));
#379=DIRECTION('',(2.0715885116098E-032,0.,1.));
#380=DIRECTION('',(1.,0.,2.53526993079036E-016));
#381=DIRECTION('',(0.691654801480226,0.691654801480225,0.20791169081776));
#382=DIRECTION('',(0.147015766465199,0.147015766465199,-0.978147600733806));
#383=DIRECTION('',(-0.691654801480224,0.691654801480227,0.20791169081776));
#384=DIRECTION('',(-0.147015766465198,0.147015766465199,-0.978147600733806));
#385=DIRECTION('',(-0.691654801480228,-0.691654801480223,0.20791169081776));
#386=DIRECTION('',(-0.147015766465199,-0.147015766465198,-0.978147600733806));
#387=DIRECTION('',(0.691654801480222,-0.691654801480229,0.20791169081776));
#388=DIRECTION('',(0.147015766465198,-0.147015766465199,-0.978147600733806));
#389=DIRECTION('',(-3.65476116026273E-015,-0.978147600733806,0.20791169081776));
#390=DIRECTION('',(-7.7715611723761E-016,-0.20791169081776,-0.978147600733806));
#391=DIRECTION('',(-0.978147600733806,2.29171250846628E-015,0.20791169081776));
#392=DIRECTION('',(-0.20791169081776,4.87457296749483E-016,-0.978147600733806));
#393=DIRECTION('',(1.14585625423314E-015,0.978147600733806,0.20791169081776));
#394=DIRECTION('',(2.42861286636753E-016,0.20791169081776,-0.978147600733806));
#395=DIRECTION('',(0.978147600733806,0.,0.20791169081776));
#396=DIRECTION('',(0.20791169081776,0.,-0.978147600733806));
#397=CARTESIAN_POINT('',(0.,0.,0.));
#398=CARTESIAN_POINT('',(0.,0.,0.));
#399=CARTESIAN_POINT('',(-8.,-8.,0.));
#400=CARTESIAN_POINT('',(-8.,-0.523598775598298,-4.05325848855224E-048));
#401=CARTESIAN_POINT('',(-8.,0.523598775598298,-1.04343654861636E-047));
#402=CARTESIAN_POINT('',(-7.89686006810509,1.57078313094677,-2.13663498001711E-033));
#403=CARTESIAN_POINT('',(-7.4386806961136,3.08120243053044,-1.16282262127587E-032));
#404=CARTESIAN_POINT('',(-6.69463470798227,4.47321190045575,-2.70417974239811E-032));
#405=CARTESIAN_POINT('',(-5.69331972210995,5.69331972213991,-4.77849236363393E-032));
#406=CARTESIAN_POINT('',(-4.47321190053222,6.69463470793892,-7.30605370973962E-032));
#407=CARTESIAN_POINT('',(-3.08120243031147,7.43868069617784,-1.0189724536301E-031));
#408=CARTESIAN_POINT('',(-1.57078313120008,7.8968600681177,-1.33186918040538E-031));
#409=CARTESIAN_POINT('',(3.25537574674684E-008,8.05156995980999,-1.65727081603164E-031));
#410=CARTESIAN_POINT('',(1.57078300723986,7.89686009264236,-1.98267241249084E-031));
#411=CARTESIAN_POINT('',(3.08120246151426,7.43868068994114,-2.29556917140952E-031));
#412=CARTESIAN_POINT('',(4.47321190022738,6.69463470813485,-2.58393624753857E-031));
#413=CARTESIAN_POINT('',(5.69331972219609,5.69331972206819,-2.83669238223013E-031));
#414=CARTESIAN_POINT('',(6.69463470794255,4.47321190054669,-3.04412364432764E-031));
#415=CARTESIAN_POINT('',(7.43868069628691,3.08120242995899,-3.19825935648399E-031));
#416=CARTESIAN_POINT('',(7.89686006806568,1.57078313165914,-3.29317526876735E-031));
#417=CARTESIAN_POINT('',(8.05156995967225,-3.46266013639962E-008,-3.3252247921758E-031));
#418=CARTESIAN_POINT('',(7.89686009324531,-1.57078300395441,-3.29317527398353E-031));
#419=CARTESIAN_POINT('',(7.4386806897904,-3.08120246233562,-3.19825935513819E-031));
#420=CARTESIAN_POINT('',(6.69463470813486,-4.47321190022737,-3.04412364436748E-031));
#421=CARTESIAN_POINT('',(5.6933197220635,-5.6933197221984,-2.83669238220266E-031));
#422=CARTESIAN_POINT('',(4.47321190056541,-6.69463470793332,-2.58393624760859E-031));
#423=CARTESIAN_POINT('',(3.08120242976239,-7.43868069632326,-2.29556916483184E-031));
#424=CARTESIAN_POINT('',(1.57078313219587,-7.89686006802514,-1.98267243837658E-031));
#425=CARTESIAN_POINT('',(6.2906673869989E-008,-8.0515699794354,-1.65727082231951E-031));
#426=CARTESIAN_POINT('',(-1.57078340082788,-7.89686001423327,-1.3318691245496E-031));
#427=CARTESIAN_POINT('',(-3.08120236311725,-7.43868070954341,-1.01897246754997E-031));
#428=CARTESIAN_POINT('',(-4.47321190022737,-6.69463470813486,-7.30605371037113E-032));
#429=CARTESIAN_POINT('',(-5.69331972220313,-5.6933197220539,-4.7784923634409E-032));
#430=CARTESIAN_POINT('',(-6.69463470791437,-4.47321190060384,-2.70417974253875E-032));
#431=CARTESIAN_POINT('',(-7.43868069635733,-3.08120242997844,-1.16282262077097E-032));
#432=CARTESIAN_POINT('',(-7.89686006810411,-1.57078313081932,-2.13663498003741E-033));
#433=CARTESIAN_POINT('',(-8.,-0.523598775598298,-4.05325848855224E-048));
#434=CARTESIAN_POINT('',(-8.,0.523598775598298,-1.04343654861636E-047));
#435=CARTESIAN_POINT('',(0.,0.,0.));
#436=CARTESIAN_POINT('',(-8.,-8.,0.));
#437=CARTESIAN_POINT('',(-1.31545870487222E-031,0.,-6.35));
#438=CARTESIAN_POINT('',(-2.75,0.,-6.35));
#439=CARTESIAN_POINT('',(-1.31545870487222E-031,0.,-6.35));
#440=CARTESIAN_POINT('',(-6.37131194128572,-3.39696581091822,-6.35));
#441=CARTESIAN_POINT('',(-6.9072154390971,-2.10318031837882,-6.35));
#442=CARTESIAN_POINT('',(-6.9072154390971,-10.,-6.35));
#443=CARTESIAN_POINT('',(-6.9072154390971,2.10318031837882,-6.35));
#444=CARTESIAN_POINT('',(-1.31545870487222E-031,0.,-6.35));
#445=CARTESIAN_POINT('',(-6.37131194128571,3.39696581091825,-6.35));
#446=CARTESIAN_POINT('',(-11.9552066879675,-2.18692893576345,-6.35));
#447=CARTESIAN_POINT('',(-3.39696581091819,6.37131194128574,-6.35));
#448=CARTESIAN_POINT('',(-1.31545870487222E-031,0.,-6.35));
#449=CARTESIAN_POINT('',(-2.1031803183788,6.9072154390971,-6.35));
#450=CARTESIAN_POINT('',(-9.99999999999997,6.90721543909713,-6.35));
#451=CARTESIAN_POINT('',(2.10318031837885,6.90721543909709,-6.35));
#452=CARTESIAN_POINT('',(-1.31545870487222E-031,0.,-6.35));
#453=CARTESIAN_POINT('',(3.39696581091824,6.37131194128571,-6.35));
#454=CARTESIAN_POINT('',(-2.18692893576346,11.9552066879675,-6.35));
#455=CARTESIAN_POINT('',(6.37131194128573,3.3969658109182,-6.35));
#456=CARTESIAN_POINT('',(-1.31545870487222E-031,0.,-6.35));
#457=CARTESIAN_POINT('',(6.9072154390971,2.1031803183788,-6.35));
#458=CARTESIAN_POINT('',(6.90721543909712,9.99999999999998,-6.35));
#459=CARTESIAN_POINT('',(6.90721543909709,-2.10318031837884,-6.35));
#460=CARTESIAN_POINT('',(-1.31545870487222E-031,0.,-6.35));
#461=CARTESIAN_POINT('',(6.37131194128571,-3.39696581091824,-6.35));
#462=CARTESIAN_POINT('',(11.9552066879675,2.18692893576348,-6.35));
#463=CARTESIAN_POINT('',(3.39696581091821,-6.37131194128573,-6.35));
#464=CARTESIAN_POINT('',(-1.31545870487222E-031,0.,-6.35));
#465=CARTESIAN_POINT('',(2.10318031837881,-6.9072154390971,-6.35));
#466=CARTESIAN_POINT('',(9.99999999999999,-6.90721543909711,-6.35));
#467=CARTESIAN_POINT('',(-2.10318031837883,-6.90721543909709,-6.35));
#468=CARTESIAN_POINT('',(-1.31545870487222E-031,0.,-6.35));
#469=CARTESIAN_POINT('',(-3.39696581091822,-6.37131194128572,-6.35));
#470=CARTESIAN_POINT('',(2.1869289357635,-11.9552066879675,-6.35));
#471=CARTESIAN_POINT('',(-2.75,0.,-6.35));
#472=CARTESIAN_POINT('',(1.39344032147953E-049,0.,6.72643391132105E-018));
#473=CARTESIAN_POINT('',(-3.96013705827142,0.,6.72643391132113E-018));
#474=CARTESIAN_POINT('',(-3.43318316914697E-063,0.,-1.65727080928784E-031));
#475=CARTESIAN_POINT('',(-8.,0.,0.));
#476=CARTESIAN_POINT('',(-8.,0.,3.36321695566061E-018));
#477=CARTESIAN_POINT('',(-1.78156611998443E-032,0.,-0.86));
#478=CARTESIAN_POINT('',(-3.9,0.,-0.86));
#479=CARTESIAN_POINT('',(1.39344032147953E-049,0.,6.72643391132105E-018));
#480=CARTESIAN_POINT('',(-8.39038803693692E-032,0.,-4.05021942818985));
#481=CARTESIAN_POINT('',(-2.75,0.,-4.05021942818985));
#482=CARTESIAN_POINT('',(0.,0.,-4.05021942818985));
#483=CARTESIAN_POINT('',(0.,0.,0.));
#484=CARTESIAN_POINT('',(-2.8005068733111,0.,-25.6705447694499));
#485=CARTESIAN_POINT('',(-1.98025740087781,-1.98025740087781,-25.6705447694499));
#486=CARTESIAN_POINT('',(-3.28066880029051E-015,-2.8005068733111,-25.6705447694499));
#487=CARTESIAN_POINT('',(1.98025740087781,-1.98025740087781,-25.6705447694499));
#488=CARTESIAN_POINT('',(2.8005068733111,-6.56133760058103E-015,-25.6705447694499));
#489=CARTESIAN_POINT('',(1.98025740087781,1.98025740087779,-25.6705447694499));
#490=CARTESIAN_POINT('',(1.04638438431457E-014,2.8005068733111,-25.6705447694499));
#491=CARTESIAN_POINT('',(-1.9802574008778,1.98025740087782,-25.6705447694499));
#492=CARTESIAN_POINT('',(-1.31545870487222E-031,0.,-6.35));
#493=CARTESIAN_POINT('',(1.662718953422,-12.4794166703089,-2.86224661928062));
#494=CARTESIAN_POINT('',(12.479416670309,1.66271895342198,-2.86224661928062));
#495=CARTESIAN_POINT('',(-1.66271895342196,12.479416670309,-2.86224661928062));
#496=CARTESIAN_POINT('',(-12.479416670309,-1.66271895342195,-2.86224661928062));
#497=CARTESIAN_POINT('',(-9.99999999999997,7.64856030565584,-2.86224661928062));
#498=CARTESIAN_POINT('',(7.64856030565583,9.99999999999998,-2.86224661928062));
#499=CARTESIAN_POINT('',(9.99999999999999,-7.64856030565582,-2.86224661928062));
#500=CARTESIAN_POINT('',(-7.6485603056558,-10.,-2.86224661928062));
#501=MECHANICAL_DESIGN_GEOMETRIC_PRESENTATION_REPRESENTATION('',(#257,#258,
#259,#260,#261,#262),#502);
#502=(
GEOMETRIC_REPRESENTATION_CONTEXT(3)
GLOBAL_UNCERTAINTY_ASSIGNED_CONTEXT((#503))
GLOBAL_UNIT_ASSIGNED_CONTEXT((#509,#505,#504))
REPRESENTATION_CONTEXT('1539594471951','TOP_LEVEL_ASSEMBLY_PART')
);
#503=UNCERTAINTY_MEASURE_WITH_UNIT(LENGTH_MEASURE(2.E-005),#509,
'DISTANCE_ACCURACY_VALUE','Maximum Tolerance applied to model');
#504=(
NAMED_UNIT(*)
SI_UNIT($,.STERADIAN.)
SOLID_ANGLE_UNIT()
);
#505=(
CONVERSION_BASED_UNIT('DEGREE',#507)
NAMED_UNIT(#506)
PLANE_ANGLE_UNIT()
);
#506=DIMENSIONAL_EXPONENTS(0.,0.,0.,0.,0.,0.,0.);
#507=PLANE_ANGLE_MEASURE_WITH_UNIT(PLANE_ANGLE_MEASURE(0.0174532925),#508);
#508=(
NAMED_UNIT(*)
PLANE_ANGLE_UNIT()
SI_UNIT($,.RADIAN.)
);
#509=(
LENGTH_UNIT()
NAMED_UNIT(*)
SI_UNIT(.MILLI.,.METRE.)
);
ENDSEC;
END-ISO-10303-21;
