ISO-10303-21;
HEADER;
/* Generated by software containing ST-Developer
 * from STEP Tools, Inc. (www.steptools.com) 
 */
/* OPTION: using custom schema-name function */

FILE_DESCRIPTION(
/* description */ (''),
/* implementation_level */ '2;1');

FILE_NAME(
/* name */ '1539592454417.stp',
/* time_stamp */ '2018-10-15T10:34:29+02:00',
/* author */ (''),
/* organization */ ('SMS'),
/* preprocessor_version */ 'ST-DEVELOPER v15',
/* originating_system */ 'SIEMENS PLM Software NX 8.5',
/* authorisation */ '');

FILE_SCHEMA (('AUTOMOTIVE_DESIGN { 1 0 10303 214 3 1 1 1 }'));
ENDSEC;

DATA;
#10=CONSTRUCTIVE_GEOMETRY_REPRESENTATION_RELATIONSHIP(
'supplemental geometry','',#26,#11);
#11=CONSTRUCTIVE_GEOMETRY_REPRESENTATION('supplemental geometry',(#129,
#130),#232);
#12=GEOMETRICALLY_BOUNDED_WIREFRAME_SHAPE_REPRESENTATION(
'201924034mod000_00-None',(#27),#232);
#13=SHAPE_REPRESENTATION_RELATIONSHIP('None',
'relationship between 201924034mod000_00-None and 201924034mod000_00-N
one',#26,#15);
#14=SHAPE_REPRESENTATION_RELATIONSHIP('None',
'relationship between 201924034mod000_00-None and 201924034mod000_00-N
one',#26,#12);
#15=ADVANCED_BREP_SHAPE_REPRESENTATION('201924034mod000_00-None',(#33),
#232);
#16=SHAPE_DEFINITION_REPRESENTATION(#17,#26);
#17=PRODUCT_DEFINITION_SHAPE('','',#18);
#18=PRODUCT_DEFINITION(' ','',#20,#19);
#19=PRODUCT_DEFINITION_CONTEXT('part definition',#25,'design');
#20=PRODUCT_DEFINITION_FORMATION_WITH_SPECIFIED_SOURCE(' ',' ',#22,
 .NOT_KNOWN.);
#21=PRODUCT_RELATED_PRODUCT_CATEGORY('part','',(#22));
#22=PRODUCT('201924034mod000_00','201924034mod000_00',' ',(#23));
#23=PRODUCT_CONTEXT(' ',#25,'mechanical');
#24=APPLICATION_PROTOCOL_DEFINITION('international standard',
'automotive_design',2010,#25);
#25=APPLICATION_CONTEXT(
'core data for automotive mechanical design processes');
#26=SHAPE_REPRESENTATION('201924034mod000_00-None',(#128),#232);
#27=GEOMETRIC_CURVE_SET('None',(#174,#175,#108));
#28=SURFACE_STYLE_USAGE(.BOTH.,#29);
#29=SURFACE_SIDE_STYLE('',(#30));
#30=SURFACE_STYLE_FILL_AREA(#31);
#31=FILL_AREA_STYLE('',(#32));
#32=FILL_AREA_STYLE_COLOUR('',#127);
#33=MANIFOLD_SOLID_BREP('CUT',#34);
#34=CLOSED_SHELL('',(#39,#40,#41,#42,#43,#44));
#35=CYLINDRICAL_SURFACE('',#139,2.2);
#36=TOROIDAL_SURFACE('',#137,6.2,4.);
#37=CONICAL_SURFACE('',#135,3.0398582828078,3.99999999999999);
#38=CONICAL_SURFACE('',#142,4.51254529321547,7.00000000000005);
#39=ADVANCED_FACE('',(#47,#48),#45,.T.);
#40=ADVANCED_FACE('',(#49,#50),#37,.F.);
#41=ADVANCED_FACE('',(#51,#52),#36,.T.);
#42=ADVANCED_FACE('',(#53,#54),#35,.F.);
#43=ADVANCED_FACE('',(#55,#56),#46,.T.);
#44=ADVANCED_FACE('',(#57,#58),#38,.T.);
#45=PLANE('',#133);
#46=PLANE('',#141);
#47=FACE_BOUND('',#59,.T.);
#48=FACE_BOUND('',#60,.T.);
#49=FACE_BOUND('',#61,.T.);
#50=FACE_BOUND('',#62,.T.);
#51=FACE_BOUND('',#63,.T.);
#52=FACE_BOUND('',#64,.T.);
#53=FACE_BOUND('',#65,.T.);
#54=FACE_BOUND('',#66,.T.);
#55=FACE_BOUND('',#67,.T.);
#56=FACE_BOUND('',#68,.T.);
#57=FACE_BOUND('',#69,.T.);
#58=FACE_BOUND('',#70,.T.);
#59=EDGE_LOOP('',(#71));
#60=EDGE_LOOP('',(#72));
#61=EDGE_LOOP('',(#73));
#62=EDGE_LOOP('',(#74));
#63=EDGE_LOOP('',(#75));
#64=EDGE_LOOP('',(#76));
#65=EDGE_LOOP('',(#77));
#66=EDGE_LOOP('',(#78));
#67=EDGE_LOOP('',(#79));
#68=EDGE_LOOP('',(#80));
#69=EDGE_LOOP('',(#81));
#70=EDGE_LOOP('',(#82));
#71=ORIENTED_EDGE('',*,*,#89,.T.);
#72=ORIENTED_EDGE('',*,*,#90,.F.);
#73=ORIENTED_EDGE('',*,*,#91,.T.);
#74=ORIENTED_EDGE('',*,*,#89,.F.);
#75=ORIENTED_EDGE('',*,*,#92,.T.);
#76=ORIENTED_EDGE('',*,*,#91,.F.);
#77=ORIENTED_EDGE('',*,*,#93,.T.);
#78=ORIENTED_EDGE('',*,*,#92,.F.);
#79=ORIENTED_EDGE('',*,*,#94,.T.);
#80=ORIENTED_EDGE('',*,*,#93,.F.);
#81=ORIENTED_EDGE('',*,*,#90,.T.);
#82=ORIENTED_EDGE('',*,*,#94,.F.);
#83=VERTEX_POINT('',#214);
#84=VERTEX_POINT('',#216);
#85=VERTEX_POINT('',#219);
#86=VERTEX_POINT('',#222);
#87=VERTEX_POINT('',#225);
#88=VERTEX_POINT('',#228);
#89=EDGE_CURVE('',#83,#83,#95,.T.);
#90=EDGE_CURVE('',#84,#84,#96,.T.);
#91=EDGE_CURVE('',#85,#85,#97,.T.);
#92=EDGE_CURVE('',#86,#86,#98,.T.);
#93=EDGE_CURVE('',#87,#87,#99,.T.);
#94=EDGE_CURVE('',#88,#88,#100,.T.);
#95=CIRCLE('',#131,3.0398582828078);
#96=CIRCLE('',#132,5.);
#97=CIRCLE('',#134,3.);
#98=CIRCLE('',#136,2.2);
#99=CIRCLE('',#138,2.2);
#100=CIRCLE('',#140,4.51254529321547);
#101=CURVE_STYLE('',#105,POSITIVE_LENGTH_MEASURE(0.13),#104);
#102=CURVE_STYLE('',#106,POSITIVE_LENGTH_MEASURE(0.18),#126);
#103=CURVE_STYLE('',#107,POSITIVE_LENGTH_MEASURE(0.18),#126);
#104=DRAUGHTING_PRE_DEFINED_COLOUR('blue');
#105=DRAUGHTING_PRE_DEFINED_CURVE_FONT('continuous');
#106=DRAUGHTING_PRE_DEFINED_CURVE_FONT('continuous');
#107=DRAUGHTING_PRE_DEFINED_CURVE_FONT('continuous');
#108=B_SPLINE_CURVE_WITH_KNOTS('CUTTING EDGE LINE',3,(#176,#177,#178,#179,
#180,#181,#182,#183,#184,#185,#186,#187,#188,#189,#190,#191,#192,#193,#194,
#195,#196,#197,#198,#199,#200,#201,#202,#203,#204,#205,#206,#207,#208,#209,
#210),.UNSPECIFIED.,.T.,.F.,(1,1,2,1,1,1,1,1,1,1,1,1,1,1,1,1,1,1,1,1,1,
1,1,1,1,1,1,1,1,1,1,1,1,1,2,1,1),(-0.0625,-0.03125,0.,0.03125,0.0625,0.09375,
0.125,0.15625,0.1875,0.21875,0.25,0.28125,0.3125,0.34375,0.375,0.40625,
0.4375,0.46875,0.5,0.53125,0.5625,0.59375,0.625,0.65625,0.6875,0.71875,
0.75,0.78125,0.8125,0.84375,0.875,0.90625,0.9375,0.96875,1.,1.03125,1.0625),
 .UNSPECIFIED.);
#109=PRESENTATION_LAYER_ASSIGNMENT('1','Layer 1',(#174,#175,#108,#129,#130,
#33));
#110=STYLED_ITEM('',(#116),#174);
#111=STYLED_ITEM('',(#117),#175);
#112=STYLED_ITEM('',(#118),#108);
#113=STYLED_ITEM('',(#119),#129);
#114=STYLED_ITEM('',(#120),#130);
#115=STYLED_ITEM('',(#121),#33);
#116=PRESENTATION_STYLE_ASSIGNMENT((#122));
#117=PRESENTATION_STYLE_ASSIGNMENT((#123));
#118=PRESENTATION_STYLE_ASSIGNMENT((#101));
#119=PRESENTATION_STYLE_ASSIGNMENT((#102));
#120=PRESENTATION_STYLE_ASSIGNMENT((#103));
#121=PRESENTATION_STYLE_ASSIGNMENT((#28));
#122=POINT_STYLE('',#124,POSITIVE_LENGTH_MEASURE(3.),#126);
#123=POINT_STYLE('',#125,POSITIVE_LENGTH_MEASURE(3.),#126);
#124=PRE_DEFINED_POINT_MARKER_SYMBOL('plus');
#125=PRE_DEFINED_POINT_MARKER_SYMBOL('plus');
#126=COLOUR_RGB('Medium Maroon',0.6,0.4,0.4);
#127=COLOUR_RGB('Light Gray',0.8,0.8,0.8);
#128=AXIS2_PLACEMENT_3D('',#173,#143,#144);
#129=AXIS2_PLACEMENT_3D('MCS',#211,#145,#146);
#130=AXIS2_PLACEMENT_3D('PCS',#212,#147,#148);
#131=AXIS2_PLACEMENT_3D('',#213,#149,#150);
#132=AXIS2_PLACEMENT_3D('',#215,#151,#152);
#133=AXIS2_PLACEMENT_3D('',#217,#153,#154);
#134=AXIS2_PLACEMENT_3D('',#218,#155,#156);
#135=AXIS2_PLACEMENT_3D('',#220,#157,#158);
#136=AXIS2_PLACEMENT_3D('',#221,#159,#160);
#137=AXIS2_PLACEMENT_3D('',#223,#161,#162);
#138=AXIS2_PLACEMENT_3D('',#224,#163,#164);
#139=AXIS2_PLACEMENT_3D('',#226,#165,#166);
#140=AXIS2_PLACEMENT_3D('',#227,#167,#168);
#141=AXIS2_PLACEMENT_3D('',#229,#169,#170);
#142=AXIS2_PLACEMENT_3D('',#230,#171,#172);
#143=DIRECTION('',(0.,0.,1.));
#144=DIRECTION('',(1.,0.,0.));
#145=DIRECTION('',(0.,0.,1.));
#146=DIRECTION('',(1.,0.,0.));
#147=DIRECTION('',(0.,0.,1.));
#148=DIRECTION('',(1.,0.,0.));
#149=DIRECTION('',(-2.0715885116098E-032,0.,-1.));
#150=DIRECTION('',(-1.,0.,2.07886586876793E-032));
#151=DIRECTION('',(-2.0715885116098E-032,0.,-1.));
#152=DIRECTION('',(-1.,0.,2.0715885116098E-032));
#153=DIRECTION('',(2.0715885116098E-032,0.,1.));
#154=DIRECTION('',(1.,0.,-2.07157839643152E-032));
#155=DIRECTION('',(-2.0715885116098E-032,0.,-1.));
#156=DIRECTION('',(-1.,0.,0.));
#157=DIRECTION('',(2.0715885116098E-032,0.,1.));
#158=DIRECTION('',(1.,0.,-1.17036712870786E-019));
#159=DIRECTION('',(-2.0715885116098E-032,0.,-1.));
#160=DIRECTION('',(-1.,0.,0.));
#161=DIRECTION('',(-2.0715885116098E-032,0.,-1.));
#162=DIRECTION('',(-1.,0.,0.));
#163=DIRECTION('',(-2.0715885116098E-032,0.,-1.));
#164=DIRECTION('',(-1.,0.,0.));
#165=DIRECTION('',(-2.0715885116098E-032,0.,-1.));
#166=DIRECTION('',(-1.,0.,2.0715885116098E-032));
#167=DIRECTION('',(-2.0715885116098E-032,0.,-1.));
#168=DIRECTION('',(-1.,0.,0.));
#169=DIRECTION('',(-2.0715885116098E-032,0.,-1.));
#170=DIRECTION('',(-1.,0.,0.));
#171=DIRECTION('',(2.0715885116098E-032,0.,1.));
#172=DIRECTION('',(1.,0.,-2.24851437781463E-016));
#173=CARTESIAN_POINT('',(0.,0.,0.));
#174=CARTESIAN_POINT('',(0.,0.,0.));
#175=CARTESIAN_POINT('',(-5.,-5.,0.));
#176=CARTESIAN_POINT('',(-5.,0.327249234748937,4.37905770101505E-047));
#177=CARTESIAN_POINT('',(-5.,-0.327249234748936,1.82407465670248E-047));
#178=CARTESIAN_POINT('',(-4.93553754256568,-0.981739456841734,-1.33539686251067E-033));
#179=CARTESIAN_POINT('',(-4.649175435071,-1.92575151908153,-7.26764138297416E-033));
#180=CARTESIAN_POINT('',(-4.18414669248891,-2.79575743778484,-1.69011233899882E-032));
#181=CARTESIAN_POINT('',(-3.55832482631872,-3.55832482633744,-2.9865577272712E-032));
#182=CARTESIAN_POINT('',(-2.79575743783264,-4.18414669246183,-4.56628356858726E-032));
#183=CARTESIAN_POINT('',(-1.92575151894467,-4.64917543511115,-6.3685778351881E-032));
#184=CARTESIAN_POINT('',(-0.981739457000047,-4.93553754257356,-8.32418237753366E-032));
#185=CARTESIAN_POINT('',(2.03442313551072E-008,-5.03223122488161,-1.03579426001939E-031));
#186=CARTESIAN_POINT('',(0.981739379532376,-4.93553755789999,-1.23917025780832E-031));
#187=CARTESIAN_POINT('',(1.92575153844455,-4.64917543121358,-1.43473073213056E-031));
#188=CARTESIAN_POINT('',(2.79575743764211,-4.18414669258428,-1.61496015471161E-031));
#189=CARTESIAN_POINT('',(3.55832482637255,-3.55832482629262,-1.77293273889383E-031));
#190=CARTESIAN_POINT('',(4.18414669246409,-2.79575743784168,-1.90257727770478E-031));
#191=CARTESIAN_POINT('',(4.64917543517931,-1.92575151872437,-1.9989120978025E-031));
#192=CARTESIAN_POINT('',(4.93553754254105,-0.981739457286961,-2.05823454297959E-031));
#193=CARTESIAN_POINT('',(5.03223122479516,2.16416202736269E-008,-2.07826549510988E-031));
#194=CARTESIAN_POINT('',(4.93553755827832,0.981739377471509,-2.05823454623971E-031));
#195=CARTESIAN_POINT('',(4.649175431119,1.92575153895976,-1.99891209696137E-031));
#196=CARTESIAN_POINT('',(4.18414669258429,2.79575743764211,-1.90257727772968E-031));
#197=CARTESIAN_POINT('',(3.55832482628969,3.558324826374,-1.77293273887667E-031));
#198=CARTESIAN_POINT('',(2.79575743785339,4.18414669245832,-1.61496015475537E-031));
#199=CARTESIAN_POINT('',(1.9257515186015,4.64917543520204,-1.4347307280199E-031));
#200=CARTESIAN_POINT('',(0.981739457622419,4.93553754251571,-1.23917027398536E-031));
#201=CARTESIAN_POINT('',(3.93166735279671E-008,5.03223123714712,-1.0357942639497E-031));
#202=CARTESIAN_POINT('',(-0.981739625517432,4.93553750889579,-8.32418202843498E-032));
#203=CARTESIAN_POINT('',(-1.92575147694828,4.64917544346463,-6.36857792218734E-032));
#204=CARTESIAN_POINT('',(-2.79575743764211,4.18414669258429,-4.56628356898195E-032));
#205=CARTESIAN_POINT('',(-3.55832482637696,3.55832482628368,-2.98655772715056E-032));
#206=CARTESIAN_POINT('',(-4.18414669244648,2.79575743787741,-1.69011233908673E-032));
#207=CARTESIAN_POINT('',(-4.64917543522333,1.92575151873652,-7.26764137981845E-033));
#208=CARTESIAN_POINT('',(-4.93553754256507,0.981739456762081,-1.33539686252339E-033));
#209=CARTESIAN_POINT('',(-5.,0.327249234748937,4.37905770101505E-047));
#210=CARTESIAN_POINT('',(-5.,-0.327249234748936,1.82407465670248E-047));
#211=CARTESIAN_POINT('',(0.,0.,0.));
#212=CARTESIAN_POINT('',(-5.,-5.,0.));
#213=CARTESIAN_POINT('',(1.76909085495547E-049,0.,8.53977923241493E-018));
#214=CARTESIAN_POINT('',(-3.0398582828078,0.,8.539779232415E-018));
#215=CARTESIAN_POINT('',(-2.14573948071685E-063,0.,-1.0357942558049E-031));
#216=CARTESIAN_POINT('',(-5.,0.,0.));
#217=CARTESIAN_POINT('',(-5.,0.,4.26988961620752E-018));
#218=CARTESIAN_POINT('',(-1.18080545161759E-032,0.,-0.57));
#219=CARTESIAN_POINT('',(-3.,0.,-0.57));
#220=CARTESIAN_POINT('',(1.76909085495547E-049,0.,8.53977923241493E-018));
#221=CARTESIAN_POINT('',(-6.1526178794811E-032,0.,-2.97));
#222=CARTESIAN_POINT('',(-2.2,0.,-2.97));
#223=CARTESIAN_POINT('',(0.,0.,-2.97));
#224=CARTESIAN_POINT('',(-8.22420639109091E-032,0.,-3.97));
#225=CARTESIAN_POINT('',(-2.2,0.,-3.97));
#226=CARTESIAN_POINT('',(0.,0.,0.));
#227=CARTESIAN_POINT('',(-8.22420639109091E-032,0.,-3.97));
#228=CARTESIAN_POINT('',(-4.51254529321547,0.,-3.97));
#229=CARTESIAN_POINT('',(-2.2,0.,-3.97));
#230=CARTESIAN_POINT('',(-8.22420639109091E-032,0.,-3.97));
#231=MECHANICAL_DESIGN_GEOMETRIC_PRESENTATION_REPRESENTATION('',(#110,#111,
#112,#113,#114,#115),#232);
#232=(
GEOMETRIC_REPRESENTATION_CONTEXT(3)
GLOBAL_UNCERTAINTY_ASSIGNED_CONTEXT((#233))
GLOBAL_UNIT_ASSIGNED_CONTEXT((#239,#235,#234))
REPRESENTATION_CONTEXT('1539592454417','TOP_LEVEL_ASSEMBLY_PART')
);
#233=UNCERTAINTY_MEASURE_WITH_UNIT(LENGTH_MEASURE(2.E-005),#239,
'DISTANCE_ACCURACY_VALUE','Maximum Tolerance applied to model');
#234=(
NAMED_UNIT(*)
SI_UNIT($,.STERADIAN.)
SOLID_ANGLE_UNIT()
);
#235=(
CONVERSION_BASED_UNIT('DEGREE',#237)
NAMED_UNIT(#236)
PLANE_ANGLE_UNIT()
);
#236=DIMENSIONAL_EXPONENTS(0.,0.,0.,0.,0.,0.,0.);
#237=PLANE_ANGLE_MEASURE_WITH_UNIT(PLANE_ANGLE_MEASURE(0.0174532925),#238);
#238=(
NAMED_UNIT(*)
PLANE_ANGLE_UNIT()
SI_UNIT($,.RADIAN.)
);
#239=(
LENGTH_UNIT()
NAMED_UNIT(*)
SI_UNIT(.MILLI.,.METRE.)
);
ENDSEC;
END-ISO-10303-21;
