ISO-10303-21;
HEADER;
/* Generated by software containing ST-Developer
 * from STEP Tools, Inc. (www.steptools.com) 
 */
/* OPTION: using custom schema-name function */

FILE_DESCRIPTION(
/* description */ (''),
/* implementation_level */ '2;1');

FILE_NAME(
/* name */ '1539591775618.stp',
/* time_stamp */ '2018-10-15T10:23:14+02:00',
/* author */ (''),
/* organization */ ('SMS'),
/* preprocessor_version */ 'ST-DEVELOPER v15',
/* originating_system */ 'SIEMENS PLM Software NX 8.5',
/* authorisation */ '');

FILE_SCHEMA (('AUTOMOTIVE_DESIGN { 1 0 10303 214 3 1 1 1 }'));
ENDSEC;

DATA;
#10=CONSTRUCTIVE_GEOMETRY_REPRESENTATION_RELATIONSHIP(
'supplemental geometry','',#26,#11);
#11=CONSTRUCTIVE_GEOMETRY_REPRESENTATION('supplemental geometry',(#129,
#130),#232);
#12=GEOMETRICALLY_BOUNDED_WIREFRAME_SHAPE_REPRESENTATION(
'201924033mod000_00-None',(#27),#232);
#13=SHAPE_REPRESENTATION_RELATIONSHIP('None',
'relationship between 201924033mod000_00-None and 201924033mod000_00-N
one',#26,#15);
#14=SHAPE_REPRESENTATION_RELATIONSHIP('None',
'relationship between 201924033mod000_00-None and 201924033mod000_00-N
one',#26,#12);
#15=ADVANCED_BREP_SHAPE_REPRESENTATION('201924033mod000_00-None',(#33),
#232);
#16=SHAPE_DEFINITION_REPRESENTATION(#17,#26);
#17=PRODUCT_DEFINITION_SHAPE('','',#18);
#18=PRODUCT_DEFINITION(' ','',#20,#19);
#19=PRODUCT_DEFINITION_CONTEXT('part definition',#25,'design');
#20=PRODUCT_DEFINITION_FORMATION_WITH_SPECIFIED_SOURCE(' ',' ',#22,
 .NOT_KNOWN.);
#21=PRODUCT_RELATED_PRODUCT_CATEGORY('part','',(#22));
#22=PRODUCT('201924033mod000_00','201924033mod000_00',' ',(#23));
#23=PRODUCT_CONTEXT(' ',#25,'mechanical');
#24=APPLICATION_PROTOCOL_DEFINITION('international standard',
'automotive_design',2010,#25);
#25=APPLICATION_CONTEXT(
'core data for automotive mechanical design processes');
#26=SHAPE_REPRESENTATION('201924033mod000_00-None',(#128),#232);
#27=GEOMETRIC_CURVE_SET('None',(#174,#175,#108));
#28=SURFACE_STYLE_USAGE(.BOTH.,#29);
#29=SURFACE_SIDE_STYLE('',(#30));
#30=SURFACE_STYLE_FILL_AREA(#31);
#31=FILL_AREA_STYLE('',(#32));
#32=FILL_AREA_STYLE_COLOUR('',#127);
#33=MANIFOLD_SOLID_BREP('CUT',#34);
#34=CLOSED_SHELL('',(#39,#40,#41,#42,#43,#44));
#35=CYLINDRICAL_SURFACE('',#139,2.);
#36=TOROIDAL_SURFACE('',#137,5.5,3.5);
#37=CONICAL_SURFACE('',#135,2.65646706537458,4.00000000000006);
#38=CONICAL_SURFACE('',#142,4.27504529321547,7.00000000000005);
#39=ADVANCED_FACE('',(#47,#48),#45,.T.);
#40=ADVANCED_FACE('',(#49,#50),#37,.F.);
#41=ADVANCED_FACE('',(#51,#52),#36,.T.);
#42=ADVANCED_FACE('',(#53,#54),#35,.F.);
#43=ADVANCED_FACE('',(#55,#56),#46,.T.);
#44=ADVANCED_FACE('',(#57,#58),#38,.T.);
#45=PLANE('',#133);
#46=PLANE('',#141);
#47=FACE_BOUND('',#59,.T.);
#48=FACE_BOUND('',#60,.T.);
#49=FACE_BOUND('',#61,.T.);
#50=FACE_BOUND('',#62,.T.);
#51=FACE_BOUND('',#63,.T.);
#52=FACE_BOUND('',#64,.T.);
#53=FACE_BOUND('',#65,.T.);
#54=FACE_BOUND('',#66,.T.);
#55=FACE_BOUND('',#67,.T.);
#56=FACE_BOUND('',#68,.T.);
#57=FACE_BOUND('',#69,.T.);
#58=FACE_BOUND('',#70,.T.);
#59=EDGE_LOOP('',(#71));
#60=EDGE_LOOP('',(#72));
#61=EDGE_LOOP('',(#73));
#62=EDGE_LOOP('',(#74));
#63=EDGE_LOOP('',(#75));
#64=EDGE_LOOP('',(#76));
#65=EDGE_LOOP('',(#77));
#66=EDGE_LOOP('',(#78));
#67=EDGE_LOOP('',(#79));
#68=EDGE_LOOP('',(#80));
#69=EDGE_LOOP('',(#81));
#70=EDGE_LOOP('',(#82));
#71=ORIENTED_EDGE('',*,*,#89,.T.);
#72=ORIENTED_EDGE('',*,*,#90,.F.);
#73=ORIENTED_EDGE('',*,*,#91,.T.);
#74=ORIENTED_EDGE('',*,*,#89,.F.);
#75=ORIENTED_EDGE('',*,*,#92,.T.);
#76=ORIENTED_EDGE('',*,*,#91,.F.);
#77=ORIENTED_EDGE('',*,*,#93,.T.);
#78=ORIENTED_EDGE('',*,*,#92,.F.);
#79=ORIENTED_EDGE('',*,*,#94,.T.);
#80=ORIENTED_EDGE('',*,*,#93,.F.);
#81=ORIENTED_EDGE('',*,*,#90,.T.);
#82=ORIENTED_EDGE('',*,*,#94,.F.);
#83=VERTEX_POINT('',#214);
#84=VERTEX_POINT('',#216);
#85=VERTEX_POINT('',#219);
#86=VERTEX_POINT('',#222);
#87=VERTEX_POINT('',#225);
#88=VERTEX_POINT('',#228);
#89=EDGE_CURVE('',#83,#83,#95,.T.);
#90=EDGE_CURVE('',#84,#84,#96,.T.);
#91=EDGE_CURVE('',#85,#85,#97,.T.);
#92=EDGE_CURVE('',#86,#86,#98,.T.);
#93=EDGE_CURVE('',#87,#87,#99,.T.);
#94=EDGE_CURVE('',#88,#88,#100,.T.);
#95=CIRCLE('',#131,2.65646706537458);
#96=CIRCLE('',#132,4.7625);
#97=CIRCLE('',#134,2.625);
#98=CIRCLE('',#136,2.);
#99=CIRCLE('',#138,2.);
#100=CIRCLE('',#140,4.27504529321547);
#101=CURVE_STYLE('',#105,POSITIVE_LENGTH_MEASURE(0.13),#104);
#102=CURVE_STYLE('',#106,POSITIVE_LENGTH_MEASURE(0.18),#126);
#103=CURVE_STYLE('',#107,POSITIVE_LENGTH_MEASURE(0.18),#126);
#104=DRAUGHTING_PRE_DEFINED_COLOUR('blue');
#105=DRAUGHTING_PRE_DEFINED_CURVE_FONT('continuous');
#106=DRAUGHTING_PRE_DEFINED_CURVE_FONT('continuous');
#107=DRAUGHTING_PRE_DEFINED_CURVE_FONT('continuous');
#108=B_SPLINE_CURVE_WITH_KNOTS('CUTTING EDGE LINE',3,(#176,#177,#178,#179,
#180,#181,#182,#183,#184,#185,#186,#187,#188,#189,#190,#191,#192,#193,#194,
#195,#196,#197,#198,#199,#200,#201,#202,#203,#204,#205,#206,#207,#208,#209,
#210),.UNSPECIFIED.,.T.,.F.,(1,1,2,1,1,1,1,1,1,1,1,1,1,1,1,1,1,1,1,1,1,
1,1,1,1,1,1,1,1,1,1,1,1,1,2,1,1),(-0.0625,-0.03125,0.,0.03125,0.0625,0.09375,
0.125,0.15625,0.1875,0.21875,0.25,0.28125,0.3125,0.34375,0.375,0.40625,
0.4375,0.46875,0.5,0.53125,0.5625,0.59375,0.625,0.65625,0.6875,0.71875,
0.75,0.78125,0.8125,0.84375,0.875,0.90625,0.9375,0.96875,1.,1.03125,1.0625),
 .UNSPECIFIED.);
#109=PRESENTATION_LAYER_ASSIGNMENT('1','Layer 1',(#174,#175,#108,#129,#130,
#33));
#110=STYLED_ITEM('',(#116),#174);
#111=STYLED_ITEM('',(#117),#175);
#112=STYLED_ITEM('',(#118),#108);
#113=STYLED_ITEM('',(#119),#129);
#114=STYLED_ITEM('',(#120),#130);
#115=STYLED_ITEM('',(#121),#33);
#116=PRESENTATION_STYLE_ASSIGNMENT((#122));
#117=PRESENTATION_STYLE_ASSIGNMENT((#123));
#118=PRESENTATION_STYLE_ASSIGNMENT((#101));
#119=PRESENTATION_STYLE_ASSIGNMENT((#102));
#120=PRESENTATION_STYLE_ASSIGNMENT((#103));
#121=PRESENTATION_STYLE_ASSIGNMENT((#28));
#122=POINT_STYLE('',#124,POSITIVE_LENGTH_MEASURE(3.),#126);
#123=POINT_STYLE('',#125,POSITIVE_LENGTH_MEASURE(3.),#126);
#124=PRE_DEFINED_POINT_MARKER_SYMBOL('plus');
#125=PRE_DEFINED_POINT_MARKER_SYMBOL('plus');
#126=COLOUR_RGB('Medium Maroon',0.6,0.4,0.4);
#127=COLOUR_RGB('Light Gray',0.8,0.8,0.8);
#128=AXIS2_PLACEMENT_3D('',#173,#143,#144);
#129=AXIS2_PLACEMENT_3D('MCS',#211,#145,#146);
#130=AXIS2_PLACEMENT_3D('PCS',#212,#147,#148);
#131=AXIS2_PLACEMENT_3D('',#213,#149,#150);
#132=AXIS2_PLACEMENT_3D('',#215,#151,#152);
#133=AXIS2_PLACEMENT_3D('',#217,#153,#154);
#134=AXIS2_PLACEMENT_3D('',#218,#155,#156);
#135=AXIS2_PLACEMENT_3D('',#220,#157,#158);
#136=AXIS2_PLACEMENT_3D('',#221,#159,#160);
#137=AXIS2_PLACEMENT_3D('',#223,#161,#162);
#138=AXIS2_PLACEMENT_3D('',#224,#163,#164);
#139=AXIS2_PLACEMENT_3D('',#226,#165,#166);
#140=AXIS2_PLACEMENT_3D('',#227,#167,#168);
#141=AXIS2_PLACEMENT_3D('',#229,#169,#170);
#142=AXIS2_PLACEMENT_3D('',#230,#171,#172);
#143=DIRECTION('',(0.,0.,1.));
#144=DIRECTION('',(1.,0.,0.));
#145=DIRECTION('',(0.,0.,1.));
#146=DIRECTION('',(1.,0.,0.));
#147=DIRECTION('',(0.,0.,1.));
#148=DIRECTION('',(1.,0.,0.));
#149=DIRECTION('',(-2.0715885116098E-032,0.,-1.));
#150=DIRECTION('',(-1.,0.,2.09569368205562E-032));
#151=DIRECTION('',(-2.0715885116098E-032,0.,-1.));
#152=DIRECTION('',(-1.,0.,2.0715885116098E-032));
#153=DIRECTION('',(2.0715885116098E-032,0.,1.));
#154=DIRECTION('',(1.,0.,-2.07157839643152E-032));
#155=DIRECTION('',(-2.0715885116098E-032,0.,-1.));
#156=DIRECTION('',(-1.,0.,0.));
#157=DIRECTION('',(2.0715885116098E-032,0.,1.));
#158=DIRECTION('',(1.,0.,1.41545770507199E-019));
#159=DIRECTION('',(-2.0715885116098E-032,0.,-1.));
#160=DIRECTION('',(-1.,0.,0.));
#161=DIRECTION('',(-2.0715885116098E-032,0.,-1.));
#162=DIRECTION('',(-1.,0.,0.));
#163=DIRECTION('',(-2.0715885116098E-032,0.,-1.));
#164=DIRECTION('',(-1.,0.,0.));
#165=DIRECTION('',(-2.0715885116098E-032,0.,-1.));
#166=DIRECTION('',(-1.,0.,2.0715885116098E-032));
#167=DIRECTION('',(-2.0715885116098E-032,0.,-1.));
#168=DIRECTION('',(-1.,0.,0.));
#169=DIRECTION('',(-2.0715885116098E-032,0.,-1.));
#170=DIRECTION('',(-1.,0.,0.));
#171=DIRECTION('',(2.0715885116098E-032,0.,1.));
#172=DIRECTION('',(1.,0.,-2.25271730414754E-016));
#173=CARTESIAN_POINT('',(0.,0.,0.));
#174=CARTESIAN_POINT('',(0.,0.,0.));
#175=CARTESIAN_POINT('',(-4.7625,-4.7625,0.));
#176=CARTESIAN_POINT('',(-4.7625,-0.311704896098362,4.37905770101505E-047));
#177=CARTESIAN_POINT('',(-4.7625,0.311704896098362,1.84143373090822E-047));
#178=CARTESIAN_POINT('',(-4.70109950929381,0.935106832641752,-1.27196551154141E-033));
#179=CARTESIAN_POINT('',(-4.42833960190513,1.83427832192516,-6.92242841728289E-033));
#180=CARTESIAN_POINT('',(-3.98539972459569,2.66295895949006,-1.60983200289638E-032));
#181=CARTESIAN_POINT('',(-3.38930439706858,3.38930439708641,-2.84469623522582E-032));
#182=CARTESIAN_POINT('',(-2.66295895953559,3.98539972456989,-4.34938509907936E-032));
#183=CARTESIAN_POINT('',(-1.8342783217948,4.42833960194337,-6.06607038801666E-032));
#184=CARTESIAN_POINT('',(-0.935106832792547,4.70109950930132,-7.9287837146008E-032));
#185=CARTESIAN_POINT('',(1.94035592593345E-008,4.79320024169463,-9.86594032673787E-032));
#186=CARTESIAN_POINT('',(0.935106758901892,4.70109952392017,-1.18030967054115E-031));
#187=CARTESIAN_POINT('',(1.83427834039411,4.42833959822583,-1.36658102235968E-031));
#188=CARTESIAN_POINT('',(2.66295895935412,3.98539972468653,-1.5382495473628E-031));
#189=CARTESIAN_POINT('',(3.38930439711986,3.38930439704372,-1.68871843379638E-031));
#190=CARTESIAN_POINT('',(3.98539972457205,2.6629589595442,-1.8122048570138E-031));
#191=CARTESIAN_POINT('',(4.4283396020083,1.83427832158496,-1.90396377315688E-031));
#192=CARTESIAN_POINT('',(4.70109950927035,0.935106833065825,-1.96046840218806E-031));
#193=CARTESIAN_POINT('',(4.79320024161739,-2.06136435143556E-008,-1.97954788409216E-031));
#194=CARTESIAN_POINT('',(4.7010995242601,-0.935106757041606,-1.96046840529332E-031));
#195=CARTESIAN_POINT('',(4.42833959814085,-1.83427834085917,-1.9039637723557E-031));
#196=CARTESIAN_POINT('',(3.98539972468653,-2.66295895935411,-1.81220485703752E-031));
#197=CARTESIAN_POINT('',(3.38930439704093,-3.38930439712123,-1.68871843378002E-031));
#198=CARTESIAN_POINT('',(2.66295895955535,-3.98539972456655,-1.53824954740449E-031));
#199=CARTESIAN_POINT('',(1.83427832146793,-4.42833960202994,-1.36658101843895E-031));
#200=CARTESIAN_POINT('',(0.935106833385346,-4.70109950924621,-1.18030968597106E-031));
#201=CARTESIAN_POINT('',(3.74491347376882E-008,-4.79320025338264,-9.86594036412087E-032));
#202=CARTESIAN_POINT('',(-0.935106993305361,-4.70109947722324,-7.9287833820843E-032));
#203=CARTESIAN_POINT('',(-1.83427828179324,-4.42833960990006,-6.06607047088344E-032));
#204=CARTESIAN_POINT('',(-2.66295895935411,-3.98539972468653,-4.34938509945531E-032));
#205=CARTESIAN_POINT('',(-3.38930439712405,-3.38930439703521,-2.8446962351109E-032));
#206=CARTESIAN_POINT('',(-3.98539972455527,-2.66295895957823,-1.60983200298011E-032));
#207=CARTESIAN_POINT('',(-4.42833960205022,-1.83427832159654,-6.92242841427712E-033));
#208=CARTESIAN_POINT('',(-4.70109950929323,-0.935106832565874,-1.27196551155344E-033));
#209=CARTESIAN_POINT('',(-4.7625,-0.311704896098362,4.37905770101505E-047));
#210=CARTESIAN_POINT('',(-4.7625,0.311704896098362,1.84143373090822E-047));
#211=CARTESIAN_POINT('',(0.,0.,0.));
#212=CARTESIAN_POINT('',(-4.7625,-4.7625,0.));
#213=CARTESIAN_POINT('',(-2.1283202377008E-049,0.,-1.02738561532518E-017));
#214=CARTESIAN_POINT('',(-2.65646706537458,0.,-1.02738561532517E-017));
#215=CARTESIAN_POINT('',(-2.0438168553828E-063,0.,-9.86594028654167E-032));
#216=CARTESIAN_POINT('',(-4.7625,0.,0.));
#217=CARTESIAN_POINT('',(-4.7625,0.,-5.13692807662583E-018));
#218=CARTESIAN_POINT('',(-9.3221483022441E-033,0.,-0.45));
#219=CARTESIAN_POINT('',(-2.625,0.,-0.45));
#220=CARTESIAN_POINT('',(-2.1283202377008E-049,0.,-1.02738561532518E-017));
#221=CARTESIAN_POINT('',(-5.06729179286518E-032,0.,-2.44608992783391));
#222=CARTESIAN_POINT('',(-2.,0.,-2.44608992783391));
#223=CARTESIAN_POINT('',(0.,0.,-2.44608992783391));
#224=CARTESIAN_POINT('',(-8.2242063910909E-032,0.,-3.97));
#225=CARTESIAN_POINT('',(-2.,0.,-3.97));
#226=CARTESIAN_POINT('',(0.,0.,0.));
#227=CARTESIAN_POINT('',(-8.22420639109091E-032,0.,-3.97));
#228=CARTESIAN_POINT('',(-4.27504529321547,0.,-3.97));
#229=CARTESIAN_POINT('',(-2.,0.,-3.97));
#230=CARTESIAN_POINT('',(-8.22420639109091E-032,0.,-3.97));
#231=MECHANICAL_DESIGN_GEOMETRIC_PRESENTATION_REPRESENTATION('',(#110,#111,
#112,#113,#114,#115),#232);
#232=(
GEOMETRIC_REPRESENTATION_CONTEXT(3)
GLOBAL_UNCERTAINTY_ASSIGNED_CONTEXT((#233))
GLOBAL_UNIT_ASSIGNED_CONTEXT((#239,#235,#234))
REPRESENTATION_CONTEXT('1539591775618','TOP_LEVEL_ASSEMBLY_PART')
);
#233=UNCERTAINTY_MEASURE_WITH_UNIT(LENGTH_MEASURE(2.E-005),#239,
'DISTANCE_ACCURACY_VALUE','Maximum Tolerance applied to model');
#234=(
NAMED_UNIT(*)
SI_UNIT($,.STERADIAN.)
SOLID_ANGLE_UNIT()
);
#235=(
CONVERSION_BASED_UNIT('DEGREE',#237)
NAMED_UNIT(#236)
PLANE_ANGLE_UNIT()
);
#236=DIMENSIONAL_EXPONENTS(0.,0.,0.,0.,0.,0.,0.);
#237=PLANE_ANGLE_MEASURE_WITH_UNIT(PLANE_ANGLE_MEASURE(0.0174532925),#238);
#238=(
NAMED_UNIT(*)
PLANE_ANGLE_UNIT()
SI_UNIT($,.RADIAN.)
);
#239=(
LENGTH_UNIT()
NAMED_UNIT(*)
SI_UNIT(.MILLI.,.METRE.)
);
ENDSEC;
END-ISO-10303-21;
