ISO-10303-21;
HEADER;
/* Generated by software containing ST-Developer
 * from STEP Tools, Inc. (www.steptools.com) 
 */
/* OPTION: using custom schema-name function */

FILE_DESCRIPTION(
/* description */ (''),
/* implementation_level */ '2;1');

FILE_NAME(
/* name */ '1539589721440.stp',
/* time_stamp */ '2018-10-15T09:48:56+02:00',
/* author */ (''),
/* organization */ ('SMS'),
/* preprocessor_version */ 'ST-DEVELOPER v15',
/* originating_system */ 'SIEMENS PLM Software NX 8.5',
/* authorisation */ '');

FILE_SCHEMA (('AUTOMOTIVE_DESIGN { 1 0 10303 214 3 1 1 1 }'));
ENDSEC;

DATA;
#10=CONSTRUCTIVE_GEOMETRY_REPRESENTATION_RELATIONSHIP(
'supplemental geometry','',#26,#11);
#11=CONSTRUCTIVE_GEOMETRY_REPRESENTATION('supplemental geometry',(#276,
#277),#502);
#12=GEOMETRICALLY_BOUNDED_WIREFRAME_SHAPE_REPRESENTATION(
'201924022mod000_00-None',(#27),#502);
#13=SHAPE_REPRESENTATION_RELATIONSHIP('None',
'relationship between 201924022mod000_00-None and 201924022mod000_00-N
one',#26,#15);
#14=SHAPE_REPRESENTATION_RELATIONSHIP('None',
'relationship between 201924022mod000_00-None and 201924022mod000_00-N
one',#26,#12);
#15=ADVANCED_BREP_SHAPE_REPRESENTATION('201924022mod000_00-None',(#33),
#502);
#16=SHAPE_DEFINITION_REPRESENTATION(#17,#26);
#17=PRODUCT_DEFINITION_SHAPE('','',#18);
#18=PRODUCT_DEFINITION(' ','',#20,#19);
#19=PRODUCT_DEFINITION_CONTEXT('part definition',#25,'design');
#20=PRODUCT_DEFINITION_FORMATION_WITH_SPECIFIED_SOURCE(' ',' ',#22,
 .NOT_KNOWN.);
#21=PRODUCT_RELATED_PRODUCT_CATEGORY('part','',(#22));
#22=PRODUCT('201924022mod000_00','201924022mod000_00',' ',(#23));
#23=PRODUCT_CONTEXT(' ',#25,'mechanical');
#24=APPLICATION_PROTOCOL_DEFINITION('international standard',
'automotive_design',2010,#25);
#25=APPLICATION_CONTEXT(
'core data for automotive mechanical design processes');
#26=SHAPE_REPRESENTATION('201924022mod000_00-None',(#275),#502);
#27=GEOMETRIC_CURVE_SET('None',(#398,#399,#255));
#28=SURFACE_STYLE_USAGE(.BOTH.,#29);
#29=SURFACE_SIDE_STYLE('',(#30));
#30=SURFACE_STYLE_FILL_AREA(#31);
#31=FILL_AREA_STYLE('',(#32));
#32=FILL_AREA_STYLE_COLOUR('',#274);
#33=MANIFOLD_SOLID_BREP('CUT',#34);
#34=CLOSED_SHELL('',(#55,#56,#57,#58,#59,#60,#61,#62,#63,#64,#65,#66,#67,
#68));
#35=FACE_OUTER_BOUND('',#119,.T.);
#36=FACE_OUTER_BOUND('',#120,.T.);
#37=FACE_OUTER_BOUND('',#121,.T.);
#38=FACE_OUTER_BOUND('',#122,.T.);
#39=FACE_OUTER_BOUND('',#123,.T.);
#40=FACE_OUTER_BOUND('',#124,.T.);
#41=FACE_OUTER_BOUND('',#125,.T.);
#42=FACE_OUTER_BOUND('',#126,.T.);
#43=ELLIPSE('',#296,17.5039297574405,2.97066592725951);
#44=ELLIPSE('',#297,17.5039297574405,2.97066592725951);
#45=ELLIPSE('',#298,17.5039297574405,2.97066592725951);
#46=ELLIPSE('',#299,17.5039297574404,2.9706659272595);
#47=ELLIPSE('',#300,17.5039297574405,2.97066592725951);
#48=ELLIPSE('',#301,17.5039297574405,2.97066592725951);
#49=ELLIPSE('',#302,17.5039297574405,2.97066592725951);
#50=ELLIPSE('',#303,17.5039297574405,2.97066592725951);
#51=CYLINDRICAL_SURFACE('',#295,2.);
#52=TOROIDAL_SURFACE('',#294,5.5,3.5);
#53=CONICAL_SURFACE('',#292,3.07691949313786,4.00000000000001);
#54=CONICAL_SURFACE('',#304,5.41554549010217,7.00000000000005);
#55=ADVANCED_FACE('',(#95,#96),#69,.T.);
#56=ADVANCED_FACE('',(#97,#98),#70,.T.);
#57=ADVANCED_FACE('',(#99,#100),#53,.F.);
#58=ADVANCED_FACE('',(#101,#102),#52,.T.);
#59=ADVANCED_FACE('',(#103,#104),#51,.F.);
#60=ADVANCED_FACE('',(#105,#106),#54,.T.);
#61=ADVANCED_FACE('',(#35),#71,.F.);
#62=ADVANCED_FACE('',(#36),#72,.F.);
#63=ADVANCED_FACE('',(#37),#73,.F.);
#64=ADVANCED_FACE('',(#38),#74,.F.);
#65=ADVANCED_FACE('',(#39),#75,.F.);
#66=ADVANCED_FACE('',(#40),#76,.F.);
#67=ADVANCED_FACE('',(#41),#77,.F.);
#68=ADVANCED_FACE('',(#42),#78,.F.);
#69=PLANE('',#287);
#70=PLANE('',#290);
#71=PLANE('',#305);
#72=PLANE('',#306);
#73=PLANE('',#307);
#74=PLANE('',#308);
#75=PLANE('',#309);
#76=PLANE('',#310);
#77=PLANE('',#311);
#78=PLANE('',#312);
#79=LINE('',#442,#87);
#80=LINE('',#446,#88);
#81=LINE('',#450,#89);
#82=LINE('',#454,#90);
#83=LINE('',#458,#91);
#84=LINE('',#462,#92);
#85=LINE('',#466,#93);
#86=LINE('',#470,#94);
#87=VECTOR('',#323,1.);
#88=VECTOR('',#326,1.);
#89=VECTOR('',#329,1.);
#90=VECTOR('',#332,1.);
#91=VECTOR('',#335,1.);
#92=VECTOR('',#338,1.);
#93=VECTOR('',#341,1.);
#94=VECTOR('',#344,1.);
#95=FACE_BOUND('',#107,.T.);
#96=FACE_BOUND('',#108,.T.);
#97=FACE_BOUND('',#109,.T.);
#98=FACE_BOUND('',#110,.T.);
#99=FACE_BOUND('',#111,.T.);
#100=FACE_BOUND('',#112,.T.);
#101=FACE_BOUND('',#113,.T.);
#102=FACE_BOUND('',#114,.T.);
#103=FACE_BOUND('',#115,.T.);
#104=FACE_BOUND('',#116,.T.);
#105=FACE_BOUND('',#117,.T.);
#106=FACE_BOUND('',#118,.T.);
#107=EDGE_LOOP('',(#127));
#108=EDGE_LOOP('',(#128,#129,#130,#131,#132,#133,#134,#135,#136,#137,#138,
#139,#140,#141,#142,#143));
#109=EDGE_LOOP('',(#144));
#110=EDGE_LOOP('',(#145));
#111=EDGE_LOOP('',(#146));
#112=EDGE_LOOP('',(#147));
#113=EDGE_LOOP('',(#148));
#114=EDGE_LOOP('',(#149));
#115=EDGE_LOOP('',(#150));
#116=EDGE_LOOP('',(#151));
#117=EDGE_LOOP('',(#152,#153,#154,#155,#156,#157,#158,#159,#160,#161,#162,
#163,#164,#165,#166,#167));
#118=EDGE_LOOP('',(#168));
#119=EDGE_LOOP('',(#169,#170));
#120=EDGE_LOOP('',(#171,#172));
#121=EDGE_LOOP('',(#173,#174));
#122=EDGE_LOOP('',(#175,#176));
#123=EDGE_LOOP('',(#177,#178));
#124=EDGE_LOOP('',(#179,#180));
#125=EDGE_LOOP('',(#181,#182));
#126=EDGE_LOOP('',(#183,#184));
#127=ORIENTED_EDGE('',*,*,#206,.F.);
#128=ORIENTED_EDGE('',*,*,#207,.T.);
#129=ORIENTED_EDGE('',*,*,#208,.T.);
#130=ORIENTED_EDGE('',*,*,#209,.T.);
#131=ORIENTED_EDGE('',*,*,#210,.T.);
#132=ORIENTED_EDGE('',*,*,#211,.T.);
#133=ORIENTED_EDGE('',*,*,#212,.T.);
#134=ORIENTED_EDGE('',*,*,#213,.T.);
#135=ORIENTED_EDGE('',*,*,#214,.T.);
#136=ORIENTED_EDGE('',*,*,#215,.T.);
#137=ORIENTED_EDGE('',*,*,#216,.T.);
#138=ORIENTED_EDGE('',*,*,#217,.T.);
#139=ORIENTED_EDGE('',*,*,#218,.T.);
#140=ORIENTED_EDGE('',*,*,#219,.T.);
#141=ORIENTED_EDGE('',*,*,#220,.T.);
#142=ORIENTED_EDGE('',*,*,#221,.T.);
#143=ORIENTED_EDGE('',*,*,#222,.T.);
#144=ORIENTED_EDGE('',*,*,#223,.T.);
#145=ORIENTED_EDGE('',*,*,#224,.F.);
#146=ORIENTED_EDGE('',*,*,#225,.T.);
#147=ORIENTED_EDGE('',*,*,#223,.F.);
#148=ORIENTED_EDGE('',*,*,#226,.T.);
#149=ORIENTED_EDGE('',*,*,#225,.F.);
#150=ORIENTED_EDGE('',*,*,#206,.T.);
#151=ORIENTED_EDGE('',*,*,#226,.F.);
#152=ORIENTED_EDGE('',*,*,#209,.F.);
#153=ORIENTED_EDGE('',*,*,#227,.F.);
#154=ORIENTED_EDGE('',*,*,#207,.F.);
#155=ORIENTED_EDGE('',*,*,#228,.F.);
#156=ORIENTED_EDGE('',*,*,#221,.F.);
#157=ORIENTED_EDGE('',*,*,#229,.F.);
#158=ORIENTED_EDGE('',*,*,#219,.F.);
#159=ORIENTED_EDGE('',*,*,#230,.F.);
#160=ORIENTED_EDGE('',*,*,#217,.F.);
#161=ORIENTED_EDGE('',*,*,#231,.F.);
#162=ORIENTED_EDGE('',*,*,#215,.F.);
#163=ORIENTED_EDGE('',*,*,#232,.F.);
#164=ORIENTED_EDGE('',*,*,#213,.F.);
#165=ORIENTED_EDGE('',*,*,#233,.F.);
#166=ORIENTED_EDGE('',*,*,#211,.F.);
#167=ORIENTED_EDGE('',*,*,#234,.F.);
#168=ORIENTED_EDGE('',*,*,#224,.T.);
#169=ORIENTED_EDGE('',*,*,#228,.T.);
#170=ORIENTED_EDGE('',*,*,#222,.F.);
#171=ORIENTED_EDGE('',*,*,#230,.T.);
#172=ORIENTED_EDGE('',*,*,#218,.F.);
#173=ORIENTED_EDGE('',*,*,#232,.T.);
#174=ORIENTED_EDGE('',*,*,#214,.F.);
#175=ORIENTED_EDGE('',*,*,#234,.T.);
#176=ORIENTED_EDGE('',*,*,#210,.F.);
#177=ORIENTED_EDGE('',*,*,#233,.T.);
#178=ORIENTED_EDGE('',*,*,#212,.F.);
#179=ORIENTED_EDGE('',*,*,#231,.T.);
#180=ORIENTED_EDGE('',*,*,#216,.F.);
#181=ORIENTED_EDGE('',*,*,#229,.T.);
#182=ORIENTED_EDGE('',*,*,#220,.F.);
#183=ORIENTED_EDGE('',*,*,#227,.T.);
#184=ORIENTED_EDGE('',*,*,#208,.F.);
#185=VERTEX_POINT('',#438);
#186=VERTEX_POINT('',#440);
#187=VERTEX_POINT('',#441);
#188=VERTEX_POINT('',#443);
#189=VERTEX_POINT('',#445);
#190=VERTEX_POINT('',#447);
#191=VERTEX_POINT('',#449);
#192=VERTEX_POINT('',#451);
#193=VERTEX_POINT('',#453);
#194=VERTEX_POINT('',#455);
#195=VERTEX_POINT('',#457);
#196=VERTEX_POINT('',#459);
#197=VERTEX_POINT('',#461);
#198=VERTEX_POINT('',#463);
#199=VERTEX_POINT('',#465);
#200=VERTEX_POINT('',#467);
#201=VERTEX_POINT('',#469);
#202=VERTEX_POINT('',#473);
#203=VERTEX_POINT('',#475);
#204=VERTEX_POINT('',#478);
#205=VERTEX_POINT('',#481);
#206=EDGE_CURVE('',#185,#185,#235,.T.);
#207=EDGE_CURVE('',#186,#187,#236,.T.);
#208=EDGE_CURVE('',#187,#188,#79,.T.);
#209=EDGE_CURVE('',#188,#189,#237,.T.);
#210=EDGE_CURVE('',#189,#190,#80,.T.);
#211=EDGE_CURVE('',#190,#191,#238,.T.);
#212=EDGE_CURVE('',#191,#192,#81,.T.);
#213=EDGE_CURVE('',#192,#193,#239,.T.);
#214=EDGE_CURVE('',#193,#194,#82,.T.);
#215=EDGE_CURVE('',#194,#195,#240,.T.);
#216=EDGE_CURVE('',#195,#196,#83,.T.);
#217=EDGE_CURVE('',#196,#197,#241,.T.);
#218=EDGE_CURVE('',#197,#198,#84,.T.);
#219=EDGE_CURVE('',#198,#199,#242,.T.);
#220=EDGE_CURVE('',#199,#200,#85,.T.);
#221=EDGE_CURVE('',#200,#201,#243,.T.);
#222=EDGE_CURVE('',#201,#186,#86,.T.);
#223=EDGE_CURVE('',#202,#202,#244,.T.);
#224=EDGE_CURVE('',#203,#203,#245,.T.);
#225=EDGE_CURVE('',#204,#204,#246,.T.);
#226=EDGE_CURVE('',#205,#205,#247,.T.);
#227=EDGE_CURVE('',#187,#188,#43,.T.);
#228=EDGE_CURVE('',#201,#186,#44,.T.);
#229=EDGE_CURVE('',#199,#200,#45,.T.);
#230=EDGE_CURVE('',#197,#198,#46,.T.);
#231=EDGE_CURVE('',#195,#196,#47,.T.);
#232=EDGE_CURVE('',#193,#194,#48,.T.);
#233=EDGE_CURVE('',#191,#192,#49,.T.);
#234=EDGE_CURVE('',#189,#190,#50,.T.);
#235=CIRCLE('',#278,2.);
#236=CIRCLE('',#279,5.41554549010217);
#237=CIRCLE('',#280,5.41554549010217);
#238=CIRCLE('',#281,5.41554549010217);
#239=CIRCLE('',#282,5.41554549010217);
#240=CIRCLE('',#283,5.41554549010217);
#241=CIRCLE('',#284,5.41554549010217);
#242=CIRCLE('',#285,5.41554549010217);
#243=CIRCLE('',#286,5.41554549010217);
#244=CIRCLE('',#288,3.07691949313786);
#245=CIRCLE('',#289,6.);
#246=CIRCLE('',#291,3.);
#247=CIRCLE('',#293,2.);
#248=CURVE_STYLE('',#252,POSITIVE_LENGTH_MEASURE(0.13),#251);
#249=CURVE_STYLE('',#253,POSITIVE_LENGTH_MEASURE(0.18),#273);
#250=CURVE_STYLE('',#254,POSITIVE_LENGTH_MEASURE(0.18),#273);
#251=DRAUGHTING_PRE_DEFINED_COLOUR('blue');
#252=DRAUGHTING_PRE_DEFINED_CURVE_FONT('continuous');
#253=DRAUGHTING_PRE_DEFINED_CURVE_FONT('continuous');
#254=DRAUGHTING_PRE_DEFINED_CURVE_FONT('continuous');
#255=B_SPLINE_CURVE_WITH_KNOTS('CUTTING EDGE LINE',3,(#400,#401,#402,#403,
#404,#405,#406,#407,#408,#409,#410,#411,#412,#413,#414,#415,#416,#417,#418,
#419,#420,#421,#422,#423,#424,#425,#426,#427,#428,#429,#430,#431,#432,#433,
#434),.UNSPECIFIED.,.T.,.F.,(1,1,2,1,1,1,1,1,1,1,1,1,1,1,1,1,1,1,1,1,1,
1,1,1,1,1,1,1,1,1,1,1,1,1,2,1,1),(-0.0625,-0.03125,0.,0.03125,0.0625,0.09375,
0.125,0.15625,0.1875,0.21875,0.25,0.28125,0.3125,0.34375,0.375,0.40625,
0.4375,0.46875,0.5,0.53125,0.5625,0.59375,0.625,0.65625,0.6875,0.71875,
0.75,0.78125,0.8125,0.84375,0.875,0.90625,0.9375,0.96875,1.,1.03125,1.0625),
 .UNSPECIFIED.);
#256=PRESENTATION_LAYER_ASSIGNMENT('1','Layer 1',(#398,#399,#255,#276,#277,
#33));
#257=STYLED_ITEM('',(#263),#398);
#258=STYLED_ITEM('',(#264),#399);
#259=STYLED_ITEM('',(#265),#255);
#260=STYLED_ITEM('',(#266),#276);
#261=STYLED_ITEM('',(#267),#277);
#262=STYLED_ITEM('',(#268),#33);
#263=PRESENTATION_STYLE_ASSIGNMENT((#269));
#264=PRESENTATION_STYLE_ASSIGNMENT((#270));
#265=PRESENTATION_STYLE_ASSIGNMENT((#248));
#266=PRESENTATION_STYLE_ASSIGNMENT((#249));
#267=PRESENTATION_STYLE_ASSIGNMENT((#250));
#268=PRESENTATION_STYLE_ASSIGNMENT((#28));
#269=POINT_STYLE('',#271,POSITIVE_LENGTH_MEASURE(3.),#273);
#270=POINT_STYLE('',#272,POSITIVE_LENGTH_MEASURE(3.),#273);
#271=PRE_DEFINED_POINT_MARKER_SYMBOL('plus');
#272=PRE_DEFINED_POINT_MARKER_SYMBOL('plus');
#273=COLOUR_RGB('Medium Maroon',0.6,0.4,0.4);
#274=COLOUR_RGB('Light Gray',0.8,0.8,0.8);
#275=AXIS2_PLACEMENT_3D('',#397,#313,#314);
#276=AXIS2_PLACEMENT_3D('MCS',#435,#315,#316);
#277=AXIS2_PLACEMENT_3D('PCS',#436,#317,#318);
#278=AXIS2_PLACEMENT_3D('',#437,#319,#320);
#279=AXIS2_PLACEMENT_3D('',#439,#321,#322);
#280=AXIS2_PLACEMENT_3D('',#444,#324,#325);
#281=AXIS2_PLACEMENT_3D('',#448,#327,#328);
#282=AXIS2_PLACEMENT_3D('',#452,#330,#331);
#283=AXIS2_PLACEMENT_3D('',#456,#333,#334);
#284=AXIS2_PLACEMENT_3D('',#460,#336,#337);
#285=AXIS2_PLACEMENT_3D('',#464,#339,#340);
#286=AXIS2_PLACEMENT_3D('',#468,#342,#343);
#287=AXIS2_PLACEMENT_3D('',#471,#345,#346);
#288=AXIS2_PLACEMENT_3D('',#472,#347,#348);
#289=AXIS2_PLACEMENT_3D('',#474,#349,#350);
#290=AXIS2_PLACEMENT_3D('',#476,#351,#352);
#291=AXIS2_PLACEMENT_3D('',#477,#353,#354);
#292=AXIS2_PLACEMENT_3D('',#479,#355,#356);
#293=AXIS2_PLACEMENT_3D('',#480,#357,#358);
#294=AXIS2_PLACEMENT_3D('',#482,#359,#360);
#295=AXIS2_PLACEMENT_3D('',#483,#361,#362);
#296=AXIS2_PLACEMENT_3D('',#484,#363,#364);
#297=AXIS2_PLACEMENT_3D('',#485,#365,#366);
#298=AXIS2_PLACEMENT_3D('',#486,#367,#368);
#299=AXIS2_PLACEMENT_3D('',#487,#369,#370);
#300=AXIS2_PLACEMENT_3D('',#488,#371,#372);
#301=AXIS2_PLACEMENT_3D('',#489,#373,#374);
#302=AXIS2_PLACEMENT_3D('',#490,#375,#376);
#303=AXIS2_PLACEMENT_3D('',#491,#377,#378);
#304=AXIS2_PLACEMENT_3D('',#492,#379,#380);
#305=AXIS2_PLACEMENT_3D('',#493,#381,#382);
#306=AXIS2_PLACEMENT_3D('',#494,#383,#384);
#307=AXIS2_PLACEMENT_3D('',#495,#385,#386);
#308=AXIS2_PLACEMENT_3D('',#496,#387,#388);
#309=AXIS2_PLACEMENT_3D('',#497,#389,#390);
#310=AXIS2_PLACEMENT_3D('',#498,#391,#392);
#311=AXIS2_PLACEMENT_3D('',#499,#393,#394);
#312=AXIS2_PLACEMENT_3D('',#500,#395,#396);
#313=DIRECTION('',(0.,0.,1.));
#314=DIRECTION('',(1.,0.,0.));
#315=DIRECTION('',(0.,0.,1.));
#316=DIRECTION('',(1.,0.,0.));
#317=DIRECTION('',(0.,0.,1.));
#318=DIRECTION('',(1.,0.,0.));
#319=DIRECTION('',(-2.0715885116098E-032,0.,-1.));
#320=DIRECTION('',(-1.,0.,0.));
#321=DIRECTION('',(-2.0715885116098E-032,0.,-1.));
#322=DIRECTION('',(-1.,0.,0.));
#323=DIRECTION('',(0.,1.,0.));
#324=DIRECTION('',(-2.0715885116098E-032,0.,-1.));
#325=DIRECTION('',(-1.,0.,0.));
#326=DIRECTION('',(0.707106781186551,0.707106781186544,-1.46483428438744E-032));
#327=DIRECTION('',(-2.0715885116098E-032,0.,-1.));
#328=DIRECTION('',(-1.,0.,0.));
#329=DIRECTION('',(1.,-3.7364106986726E-015,-2.0715885116098E-032));
#330=DIRECTION('',(-2.0715885116098E-032,0.,-1.));
#331=DIRECTION('',(-1.,0.,0.));
#332=DIRECTION('',(0.707106781186545,-0.70710678118655,-1.46483428438743E-032));
#333=DIRECTION('',(-2.0715885116098E-032,0.,-1.));
#334=DIRECTION('',(-1.,0.,0.));
#335=DIRECTION('',(-2.34291072916505E-015,-1.,4.85354695026565E-047));
#336=DIRECTION('',(-2.0715885116098E-032,0.,-1.));
#337=DIRECTION('',(-1.,0.,0.));
#338=DIRECTION('',(-0.707106781186549,-0.707106781186546,1.46483428438744E-032));
#339=DIRECTION('',(-2.0715885116098E-032,0.,-1.));
#340=DIRECTION('',(-1.,0.,0.));
#341=DIRECTION('',(-1.,1.17145536458252E-015,2.0715885116098E-032));
#342=DIRECTION('',(-2.0715885116098E-032,0.,-1.));
#343=DIRECTION('',(-1.,0.,0.));
#344=DIRECTION('',(-0.707106781186547,0.707106781186548,1.46483428438744E-032));
#345=DIRECTION('',(-2.0715885116098E-032,0.,-1.));
#346=DIRECTION('',(-1.,0.,0.));
#347=DIRECTION('',(-2.0715885116098E-032,0.,-1.));
#348=DIRECTION('',(-1.,0.,2.0715885116098E-032));
#349=DIRECTION('',(-2.0715885116098E-032,0.,-1.));
#350=DIRECTION('',(-1.,0.,2.0715885116098E-032));
#351=DIRECTION('',(2.0715885116098E-032,0.,1.));
#352=DIRECTION('',(1.,0.,-2.0715885116098E-032));
#353=DIRECTION('',(-2.0715885116098E-032,0.,-1.));
#354=DIRECTION('',(-1.,0.,0.));
#355=DIRECTION('',(2.0715885116098E-032,0.,1.));
#356=DIRECTION('',(1.,0.,8.73121270337257E-034));
#357=DIRECTION('',(-2.0715885116098E-032,0.,-1.));
#358=DIRECTION('',(-1.,0.,0.));
#359=DIRECTION('',(-2.0715885116098E-032,0.,-1.));
#360=DIRECTION('',(-1.,0.,0.));
#361=DIRECTION('',(-2.0715885116098E-032,0.,-1.));
#362=DIRECTION('',(-1.,0.,2.0715885116098E-032));
#363=DIRECTION('',(-0.978147600733805,0.,-0.20791169081776));
#364=DIRECTION('',(-0.20791169081776,0.,0.978147600733805));
#365=DIRECTION('',(-0.691654801480226,-0.691654801480225,-0.20791169081776));
#366=DIRECTION('',(-0.147015766465199,-0.147015766465199,0.978147600733805));
#367=DIRECTION('',(-1.14585625423314E-015,-0.978147600733805,-0.20791169081776));
#368=DIRECTION('',(-2.43559265567888E-016,-0.20791169081776,0.978147600733805));
#369=DIRECTION('',(0.691654801480224,-0.691654801480227,-0.20791169081776));
#370=DIRECTION('',(0.147015766465199,-0.147015766465199,0.978147600733805));
#371=DIRECTION('',(0.978147600733805,-2.29171250846628E-015,-0.20791169081776));
#372=DIRECTION('',(0.20791169081776,-4.87118531135776E-016,0.978147600733805));
#373=DIRECTION('',(0.691654801480228,0.691654801480223,-0.20791169081776));
#374=DIRECTION('',(0.1470157664652,0.147015766465199,0.978147600733806));
#375=DIRECTION('',(3.65476116026273E-015,0.978147600733805,-0.20791169081776));
#376=DIRECTION('',(7.7684346595059E-016,0.20791169081776,0.978147600733805));
#377=DIRECTION('',(-0.691654801480222,0.691654801480229,-0.20791169081776));
#378=DIRECTION('',(-0.147015766465198,0.1470157664652,0.978147600733805));
#379=DIRECTION('',(2.0715885116098E-032,0.,1.));
#380=DIRECTION('',(1.,0.,1.01485298537441E-016));
#381=DIRECTION('',(0.691654801480226,0.691654801480225,0.20791169081776));
#382=DIRECTION('',(0.147015766465199,0.147015766465199,-0.978147600733805));
#383=DIRECTION('',(-0.691654801480224,0.691654801480227,0.20791169081776));
#384=DIRECTION('',(-0.147015766465199,0.147015766465199,-0.978147600733805));
#385=DIRECTION('',(-0.691654801480228,-0.691654801480223,0.20791169081776));
#386=DIRECTION('',(-0.1470157664652,-0.147015766465199,-0.978147600733805));
#387=DIRECTION('',(0.691654801480222,-0.691654801480229,0.20791169081776));
#388=DIRECTION('',(0.147015766465198,-0.1470157664652,-0.978147600733805));
#389=DIRECTION('',(-3.65476116026273E-015,-0.978147600733805,0.20791169081776));
#390=DIRECTION('',(-7.7715611723761E-016,-0.20791169081776,-0.978147600733805));
#391=DIRECTION('',(-0.978147600733805,2.29171250846628E-015,0.20791169081776));
#392=DIRECTION('',(-0.20791169081776,4.87457296749483E-016,-0.978147600733805));
#393=DIRECTION('',(1.14585625423314E-015,0.978147600733805,0.20791169081776));
#394=DIRECTION('',(2.42861286636753E-016,0.20791169081776,-0.978147600733805));
#395=DIRECTION('',(0.978147600733805,0.,0.20791169081776));
#396=DIRECTION('',(0.20791169081776,0.,-0.978147600733805));
#397=CARTESIAN_POINT('',(0.,0.,0.));
#398=CARTESIAN_POINT('',(0.,0.,0.));
#399=CARTESIAN_POINT('',(-6.,-6.,0.));
#400=CARTESIAN_POINT('',(-6.,-0.392699081698724,-2.18952885050753E-047));
#401=CARTESIAN_POINT('',(-6.,0.392699081698723,-2.62807388307358E-047));
#402=CARTESIAN_POINT('',(-5.92264505107882,1.17808734821008,-1.60247623501285E-033));
#403=CARTESIAN_POINT('',(-5.5790105220852,2.31090182289783,-8.72116965956904E-033));
#404=CARTESIAN_POINT('',(-5.0209760309867,3.35490892534181,-2.02813480679859E-032));
#405=CARTESIAN_POINT('',(-4.26998979158246,4.26998979160493,-3.58386927272545E-032));
#406=CARTESIAN_POINT('',(-3.35490892539916,5.02097603095419,-5.47954028230471E-032));
#407=CARTESIAN_POINT('',(-2.3109018227336,5.57901052213338,-7.64229340222572E-032));
#408=CARTESIAN_POINT('',(-1.17808734840006,5.92264505108827,-9.98901885304039E-032));
#409=CARTESIAN_POINT('',(2.44153195438912E-008,6.03867746985749,-1.24295311202373E-031));
#410=CARTESIAN_POINT('',(1.1780872554299,5.92264506948177,-1.48700430936813E-031));
#411=CARTESIAN_POINT('',(2.3109018461357,5.57901051745585,-1.72167687855714E-031));
#412=CARTESIAN_POINT('',(3.35490892517054,5.02097603110114,-1.93795218565393E-031));
#413=CARTESIAN_POINT('',(4.26998979164707,4.26998979155114,-2.1275192866726E-031));
#414=CARTESIAN_POINT('',(5.02097603095691,3.35490892541002,-2.28309273324573E-031));
#415=CARTESIAN_POINT('',(5.57901052221518,2.31090182246924,-2.39869451736299E-031));
#416=CARTESIAN_POINT('',(5.92264505104926,1.17808734874435,-2.46988145157551E-031));
#417=CARTESIAN_POINT('',(6.03867746975419,-2.59699494131738E-008,-2.49391859413185E-031));
#418=CARTESIAN_POINT('',(5.92264506993398,-1.17808725296581,-2.46988145548765E-031));
#419=CARTESIAN_POINT('',(5.5790105173428,-2.31090184675171,-2.39869451635364E-031));
#420=CARTESIAN_POINT('',(5.02097603110114,-3.35490892517055,-2.28309273327561E-031));
#421=CARTESIAN_POINT('',(4.26998979154763,-4.26998979164879,-2.127519286652E-031));
#422=CARTESIAN_POINT('',(3.35490892542405,-5.02097603094999,-1.93795218570644E-031));
#423=CARTESIAN_POINT('',(2.3109018223218,-5.57901052224244,-1.72167687362388E-031));
#424=CARTESIAN_POINT('',(1.17808734914689,-5.92264505101885,-1.48700432878244E-031));
#425=CARTESIAN_POINT('',(4.71800125634303E-008,-6.03867748457655,-1.24295311673964E-031));
#426=CARTESIAN_POINT('',(-1.17808755062093,-5.92264501067495,-9.98901843412196E-032));
#427=CARTESIAN_POINT('',(-2.31090177233794,-5.57901053215756,-7.64229350662481E-032));
#428=CARTESIAN_POINT('',(-3.35490892517053,-5.02097603110115,-5.47954028277835E-032));
#429=CARTESIAN_POINT('',(-4.26998979165235,-4.26998979154042,-3.58386927258067E-032));
#430=CARTESIAN_POINT('',(-5.02097603093578,-3.35490892545288,-2.02813480690407E-032));
#431=CARTESIAN_POINT('',(-5.579010522268,-2.31090182248382,-8.72116965578218E-033));
#432=CARTESIAN_POINT('',(-5.92264505107808,-1.1780873481145,-1.60247623502812E-033));
#433=CARTESIAN_POINT('',(-6.,-0.392699081698724,-2.18952885050753E-047));
#434=CARTESIAN_POINT('',(-6.,0.392699081698723,-2.62807388307358E-047));
#435=CARTESIAN_POINT('',(0.,0.,0.));
#436=CARTESIAN_POINT('',(-6.,-6.,0.));
#437=CARTESIAN_POINT('',(-9.86076131526265E-032,0.,-4.76));
#438=CARTESIAN_POINT('',(-2.,0.,-4.76));
#439=CARTESIAN_POINT('',(-9.86076131526265E-032,0.,-4.76));
#440=CARTESIAN_POINT('',(-4.78435944328577,-2.53732884601272,-4.76));
#441=CARTESIAN_POINT('',(-5.17721543909709,-1.58889057286543,-4.76));
#442=CARTESIAN_POINT('',(-5.17721543909709,-10.,-4.76));
#443=CARTESIAN_POINT('',(-5.17721543909709,1.58889057286543,-4.76));
#444=CARTESIAN_POINT('',(-9.86076131526265E-032,0.,-4.76));
#445=CARTESIAN_POINT('',(-4.78435944328575,2.53732884601275,-4.76));
#446=CARTESIAN_POINT('',(-10.7319119565147,-3.41022366721618,-4.76));
#447=CARTESIAN_POINT('',(-2.5373288460127,4.78435944328578,-4.76));
#448=CARTESIAN_POINT('',(-9.86076131526265E-032,0.,-4.76));
#449=CARTESIAN_POINT('',(-1.58889057286541,5.1772154390971,-4.76));
#450=CARTESIAN_POINT('',(-9.99999999999998,5.17721543909713,-4.76));
#451=CARTESIAN_POINT('',(1.58889057286545,5.17721543909709,-4.76));
#452=CARTESIAN_POINT('',(-9.86076131526265E-032,0.,-4.76));
#453=CARTESIAN_POINT('',(2.53732884601274,4.78435944328576,-4.76));
#454=CARTESIAN_POINT('',(-3.4102236672162,10.7319119565147,-4.76));
#455=CARTESIAN_POINT('',(4.78435944328577,2.53732884601271,-4.76));
#456=CARTESIAN_POINT('',(-9.86076131526265E-032,0.,-4.76));
#457=CARTESIAN_POINT('',(5.1772154390971,1.58889057286542,-4.76));
#458=CARTESIAN_POINT('',(5.17721543909712,9.99999999999999,-4.76));
#459=CARTESIAN_POINT('',(5.17721543909709,-1.58889057286544,-4.76));
#460=CARTESIAN_POINT('',(-9.86076131526265E-032,0.,-4.76));
#461=CARTESIAN_POINT('',(4.78435944328576,-2.53732884601273,-4.76));
#462=CARTESIAN_POINT('',(10.7319119565147,3.41022366721621,-4.76));
#463=CARTESIAN_POINT('',(2.53732884601272,-4.78435944328577,-4.76));
#464=CARTESIAN_POINT('',(-9.86076131526265E-032,0.,-4.76));
#465=CARTESIAN_POINT('',(1.58889057286542,-5.1772154390971,-4.76));
#466=CARTESIAN_POINT('',(9.99999999999999,-5.17721543909711,-4.76));
#467=CARTESIAN_POINT('',(-1.58889057286543,-5.17721543909709,-4.76));
#468=CARTESIAN_POINT('',(-9.86076131526265E-032,0.,-4.76));
#469=CARTESIAN_POINT('',(-2.53732884601272,-4.78435944328577,-4.76));
#470=CARTESIAN_POINT('',(3.41022366721622,-10.7319119565147,-4.76));
#471=CARTESIAN_POINT('',(-2.,0.,-4.76));
#472=CARTESIAN_POINT('',(-1.32045352708264E-063,0.,-6.37411107313264E-032));
#473=CARTESIAN_POINT('',(-3.07691949313786,0.,0.));
#474=CARTESIAN_POINT('',(-2.57488737686022E-063,0.,-1.24295310696588E-031));
#475=CARTESIAN_POINT('',(-6.,0.,0.));
#476=CARTESIAN_POINT('',(-6.,0.,3.02770999826308E-032));
#477=CARTESIAN_POINT('',(-2.27874736277078E-032,0.,-1.1));
#478=CARTESIAN_POINT('',(-3.,0.,-1.1));
#479=CARTESIAN_POINT('',(-1.32045352708264E-063,0.,-6.37411107313264E-032));
#480=CARTESIAN_POINT('',(-7.35308217322646E-032,0.,-3.54948974278318));
#481=CARTESIAN_POINT('',(-2.,0.,-3.54948974278318));
#482=CARTESIAN_POINT('',(0.,0.,-3.54948974278318));
#483=CARTESIAN_POINT('',(0.,0.,0.));
#484=CARTESIAN_POINT('',(-2.10224688341403,0.,-19.226589652766));
#485=CARTESIAN_POINT('',(-1.48651302699035,-1.48651302699035,-19.226589652766));
#486=CARTESIAN_POINT('',(-2.46268838925226E-015,-2.10224688341403,-19.226589652766));
#487=CARTESIAN_POINT('',(1.48651302699036,-1.48651302699037,-19.2265896527658));
#488=CARTESIAN_POINT('',(2.10224688341403,-4.92537677850452E-015,-19.226589652766));
#489=CARTESIAN_POINT('',(1.48651302699035,1.48651302699034,-19.226589652766));
#490=CARTESIAN_POINT('',(7.85485774643932E-015,2.10224688341403,-19.226589652766));
#491=CARTESIAN_POINT('',(-1.48651302699035,1.48651302699036,-19.2265896527659));
#492=CARTESIAN_POINT('',(-9.86076131526265E-032,0.,-4.76));
#493=CARTESIAN_POINT('',(3.01120113543199,-11.130934488299,-2.10516275711241));
#494=CARTESIAN_POINT('',(11.130934488299,3.01120113543198,-2.10516275711241));
#495=CARTESIAN_POINT('',(-3.01120113543196,11.130934488299,-2.10516275711241));
#496=CARTESIAN_POINT('',(-11.130934488299,-3.01120113543195,-2.10516275711241));
#497=CARTESIAN_POINT('',(-9.99999999999998,5.74151851523884,-2.10516275711241));
#498=CARTESIAN_POINT('',(5.74151851523883,9.99999999999999,-2.10516275711241));
#499=CARTESIAN_POINT('',(9.99999999999999,-5.74151851523882,-2.10516275711241));
#500=CARTESIAN_POINT('',(-5.7415185152388,-10.,-2.10516275711241));
#501=MECHANICAL_DESIGN_GEOMETRIC_PRESENTATION_REPRESENTATION('',(#257,#258,
#259,#260,#261,#262),#502);
#502=(
GEOMETRIC_REPRESENTATION_CONTEXT(3)
GLOBAL_UNCERTAINTY_ASSIGNED_CONTEXT((#503))
GLOBAL_UNIT_ASSIGNED_CONTEXT((#509,#505,#504))
REPRESENTATION_CONTEXT('1539589721440','TOP_LEVEL_ASSEMBLY_PART')
);
#503=UNCERTAINTY_MEASURE_WITH_UNIT(LENGTH_MEASURE(2.E-005),#509,
'DISTANCE_ACCURACY_VALUE','Maximum Tolerance applied to model');
#504=(
NAMED_UNIT(*)
SI_UNIT($,.STERADIAN.)
SOLID_ANGLE_UNIT()
);
#505=(
CONVERSION_BASED_UNIT('DEGREE',#507)
NAMED_UNIT(#506)
PLANE_ANGLE_UNIT()
);
#506=DIMENSIONAL_EXPONENTS(0.,0.,0.,0.,0.,0.,0.);
#507=PLANE_ANGLE_MEASURE_WITH_UNIT(PLANE_ANGLE_MEASURE(0.0174532925),#508);
#508=(
NAMED_UNIT(*)
PLANE_ANGLE_UNIT()
SI_UNIT($,.RADIAN.)
);
#509=(
LENGTH_UNIT()
NAMED_UNIT(*)
SI_UNIT(.MILLI.,.METRE.)
);
ENDSEC;
END-ISO-10303-21;
